  0
SECTION
  2
HEADER
  9
$ACADVER
  1
AC1015
  9
$ACADMAINTVER
 70
     6
  9
$DWGCODEPAGE
  3
ANSI_1252
  9
$INSBASE
 10
0.0
 20
0.0
 30
0.0
  9
$EXTMIN
 10
0.0
 20
0.0
 30
0.0
  9
$EXTMAX
 10
841.0
 20
594.0
 30
0.0
  9
$LIMMIN
 10
0.0
 20
0.0
  9
$LIMMAX
 10
841.0
 20
594.0
  9
$ORTHOMODE
 70
     0
  9
$REGENMODE
 70
     1
  9
$FILLMODE
 70
     1
  9
$QTEXTMODE
 70
     0
  9
$MIRRTEXT
 70
     1
  9
$LTSCALE
 40
1.0
  9
$ATTMODE
 70
     1
  9
$TEXTSIZE
 40
3.0
  9
$TRACEWID
 40
1.0
  9
$TEXTSTYLE
  7
Standard
  9
$CLAYER
  8
0
  9
$CELTYPE
  6
ByLayer
  9
$CECOLOR
 62
   256
  9
$CELTSCALE
 40
1.0
  9
$DISPSILH
 70
     0
  9
$DIMSCALE
 40
1.0
  9
$DIMASZ
 40
3.0
  9
$DIMEXO
 40
1.0
  9
$DIMDLI
 40
3.75
  9
$DIMRND
 40
0.0
  9
$DIMDLE
 40
0.0
  9
$DIMEXE
 40
1.0
  9
$DIMTP
 40
0.0
  9
$DIMTM
 40
0.0
  9
$DIMTXT
 40
3.0
  9
$DIMCEN
 40
2.5
  9
$DIMTSZ
 40
0.0
  9
$DIMTOL
 70
     0
  9
$DIMLIM
 70
     0
  9
$DIMTIH
 70
     1
  9
$DIMTOH
 70
     1
  9
$DIMSE1
 70
     0
  9
$DIMSE2
 70
     0
  9
$DIMTAD
 70
     1
  9
$DIMZIN
 70
     0
  9
$DIMBLK
  1

  9
$DIMASO
 70
     1
  9
$DIMSHO
 70
     1
  9
$DIMPOST
  1

  9
$DIMAPOST
  1

  9
$DIMALT
 70
     0
  9
$DIMALTD
 70
     3
  9
$DIMALTF
 40
0.0393700787
  9
$DIMLFAC
 40
1.0
  9
$DIMTOFL
 70
     1
  9
$DIMTVP
 40
0.0
  9
$DIMTIX
 70
     0
  9
$DIMSOXD
 70
     0
  9
$DIMSAH
 70
     0
  9
$DIMBLK1
  1

  9
$DIMBLK2
  1

  9
$DIMSTYLE
  2
ISO-25
  9
$DIMCLRD
 70
     0
  9
$DIMCLRE
 70
     0
  9
$DIMCLRT
 70
     0
  9
$DIMTFAC
 40
1.0
  9
$DIMGAP
 40
3.0
  9
$DIMJUST
 70
     0
  9
$DIMSD1
 70
     0
  9
$DIMSD2
 70
     0
  9
$DIMTOLJ
 70
     0
  9
$DIMTZIN
 70
     0
  9
$DIMALTZ
 70
     0
  9
$DIMALTTZ
 70
     0
  9
$DIMUPT
 70
     0
  9
$DIMDEC
 70
     2
  9
$DIMTDEC
 70
     3
  9
$DIMALTU
 70
     2
  9
$DIMALTTD
 70
     3
  9
$DIMTXSTY
  7
Standard
  9
$DIMAUNIT
 70
     0
  9
$DIMADEC
 70
     2
  9
$DIMALTRND
 40
0.0
  9
$DIMAZIN
 70
     0
  9
$DIMDSEP
 70
    44
  9
$DIMATFIT
 70
     3
  9
$DIMFRAC
 70
     0
  9
$DIMLDRBLK
  1

  9
$DIMLUNIT
 70
     2
  9
$DIMLWD
 70
    -2
  9
$DIMLWE
 70
    -2
  9
$DIMTMOVE
 70
     0
  9
$LUNITS
 70
     2
  9
$LUPREC
 70
     2
  9
$SKETCHINC
 40
1.0
  9
$FILLETRAD
 40
10.0
  9
$AUNITS
 70
     0
  9
$AUPREC
 70
     2
  9
$MENU
  1
.
  9
$ELEVATION
 40
0.0
  9
$PELEVATION
 40
0.0
  9
$THICKNESS
 40
0.0
  9
$LIMCHECK
 70
     0
  9
$CHAMFERA
 40
0.0
  9
$CHAMFERB
 40
0.0
  9
$CHAMFERC
 40
0.0
  9
$CHAMFERD
 40
0.0
  9
$SKPOLY
 70
     0
  9
$TDCREATE
 40
2457877.579229317
  9
$TDUCREATE
 40
2457877.495895984
  9
$TDUPDATE
 40
2457877.579230035
  9
$TDUUPDATE
 40
2457877.495896701
  9
$TDINDWG
 40
0.0000000116
  9
$TDUSRTIMER
 40
0.0000000116
  9
$USRTIMER
 70
     1
  9
$ANGBASE
 50
0.0
  9
$ANGDIR
 70
     0
  9
$PDMODE
 70
     0
  9
$PDSIZE
 40
-1.0
  9
$PLINEWID
 40
0.0
  9
$SPLFRAME
 70
     0
  9
$SPLINETYPE
 70
     6
  9
$SPLINESEGS
 70
     8
  9
$HANDSEED
  5
22B
  9
$SURFTAB1
 70
     6
  9
$SURFTAB2
 70
     6
  9
$SURFTYPE
 70
     6
  9
$SURFU
 70
     6
  9
$SURFV
 70
     6
  9
$UCSBASE
  2

  9
$UCSNAME
  2

  9
$UCSORG
 10
0.0
 20
0.0
 30
0.0
  9
$UCSXDIR
 10
1.0
 20
0.0
 30
0.0
  9
$UCSYDIR
 10
0.0
 20
1.0
 30
0.0
  9
$UCSORTHOREF
  2

  9
$UCSORTHOVIEW
 70
     0
  9
$UCSORGTOP
 10
0.0
 20
0.0
 30
0.0
  9
$UCSORGBOTTOM
 10
0.0
 20
0.0
 30
0.0
  9
$UCSORGLEFT
 10
0.0
 20
0.0
 30
0.0
  9
$UCSORGRIGHT
 10
0.0
 20
0.0
 30
0.0
  9
$UCSORGFRONT
 10
0.0
 20
0.0
 30
0.0
  9
$UCSORGBACK
 10
0.0
 20
0.0
 30
0.0
  9
$PUCSBASE
  2

  9
$PUCSNAME
  2

  9
$PUCSORG
 10
0.0
 20
0.0
 30
0.0
  9
$PUCSXDIR
 10
1.0
 20
0.0
 30
0.0
  9
$PUCSYDIR
 10
0.0
 20
1.0
 30
0.0
  9
$PUCSORTHOREF
  2

  9
$PUCSORTHOVIEW
 70
     0
  9
$PUCSORGTOP
 10
0.0
 20
0.0
 30
0.0
  9
$PUCSORGBOTTOM
 10
0.0
 20
0.0
 30
0.0
  9
$PUCSORGLEFT
 10
0.0
 20
0.0
 30
0.0
  9
$PUCSORGRIGHT
 10
0.0
 20
0.0
 30
0.0
  9
$PUCSORGFRONT
 10
0.0
 20
0.0
 30
0.0
  9
$PUCSORGBACK
 10
0.0
 20
0.0
 30
0.0
  9
$USERI1
 70
     0
  9
$USERI2
 70
     0
  9
$USERI3
 70
     0
  9
$USERI4
 70
     0
  9
$USERI5
 70
     0
  9
$USERR1
 40
0.0
  9
$USERR2
 40
0.0
  9
$USERR3
 40
0.0
  9
$USERR4
 40
0.0
  9
$USERR5
 40
0.0
  9
$WORLDVIEW
 70
     1
  9
$SHADEDGE
 70
     3
  9
$SHADEDIF
 70
    70
  9
$TILEMODE
 70
     1
  9
$MAXACTVP
 70
    64
  9
$PINSBASE
 10
0.0
 20
0.0
 30
0.0
  9
$PLIMCHECK
 70
     0
  9
$PEXTMIN
 10
1.0000000000E+20
 20
1.0000000000E+20
 30
1.0000000000E+20
  9
$PEXTMAX
 10
-1.0000000000E+20
 20
-1.0000000000E+20
 30
-1.0000000000E+20
  9
$PLIMMIN
 10
0.0
 20
0.0
  9
$PLIMMAX
 10
420.0
 20
297.0
  9
$UNITMODE
 70
     0
  9
$VISRETAIN
 70
     1
  9
$PLINEGEN
 70
     0
  9
$PSLTSCALE
 70
     1
  9
$TREEDEPTH
 70
  3020
  9
$CMLSTYLE
  2
Standard
  9
$CMLJUST
 70
     0
  9
$CMLSCALE
 40
20.0
  9
$PROXYGRAPHICS
 70
     1
  9
$MEASUREMENT
 70
     1
  9
$CELWEIGHT
370
    -1
  9
$ENDCAPS
280
     0
  9
$JOINSTYLE
280
     0
  9
$LWDISPLAY
290
     1
  9
$INSUNITS
 70
     4
  9
$HYPERLINKBASE
  1

  9
$STYLESHEET
  1

  9
$XEDIT
290
     1
  9
$CEPSNTYPE
380
     0
  9
$PSTYLEMODE
290
     1
  9
$FINGERPRINTGUID
  2
{519EF84E-A30D-4AB9-91E2-2823346ECDD7}
  9
$VERSIONGUID
  2
{FAEB1C32-E019-11D5-929B-00C0DF256EC4}
  9
$EXTNAMES
290
     1
  9
$PSVPSCALE
 40
0.0
  9
$OLESTARTUP
290
     0
  0
ENDSEC
  0
SECTION
  2
CLASSES
  0
CLASS
  1
ACDBDICTIONARYWDFLT
  2
AcDbDictionaryWithDefault
  3
ObjectDBX Classes
 90
        0
280
     0
281
     0
  0
CLASS
  1
VISUALSTYLE
  2
AcDbVisualStyle
  3
ObjectDBX Classes
 90
     4095
280
     0
281
     0
  0
CLASS
  1
MATERIAL
  2
AcDbMaterial
  3
ObjectDBX Classes
 90
     1153
280
     0
281
     0
  0
CLASS
  1
SCALE
  2
AcDbScale
  3
ObjectDBX Classes
 90
     1153
280
     0
281
     0
  0
CLASS
  1
TABLESTYLE
  2
AcDbTableStyle
  3
ObjectDBX Classes
 90
     4095
280
     0
281
     0
  0
CLASS
  1
MLEADERSTYLE
  2
AcDbMLeaderStyle
  3
ACDB_MLEADERSTYLE_CLASS
 90
     4095
280
     0
281
     0
  0
CLASS
  1
SUN
  2
AcDbSun
  3
SCENEOE
 90
     1153
280
     0
281
     0
  0
CLASS
  1
ACDBPLACEHOLDER
  2
AcDbPlaceHolder
  3
ObjectDBX Classes
 90
        0
280
     0
281
     0
  0
CLASS
  1
LAYOUT
  2
AcDbLayout
  3
ObjectDBX Classes
 90
        0
280
     0
281
     0
  0
ENDSEC
  0
SECTION
  2
TABLES
  0
TABLE
  2
VPORT
  5
8
330
0
100
AcDbSymbolTable
 70
     1
  0
VPORT
  5
29
330
8
100
AcDbSymbolTableRecord
100
AcDbViewportTableRecord
  2
*Active
 70
     0
 10
0.0
 20
0.0
 11
1.0
 21
1.0
 12
420.5
 22
297.0
 13
0.0
 23
0.0
 14
10.0
 24
10.0
 15
10.0
 25
10.0
 16
0.0
 26
0.0
 36
1.0
 17
0.0
 27
0.0
 37
0.0
 40
594.0
 41
1.4158249158
 42
50.0
 43
0.0
 44
0.0
 50
0.0
 51
0.0
 71
     0
 72
  2000
 73
     1
 74
     3
 75
     0
 76
     0
 77
     0
 78
     0
281
     0
 65
     1
110
0.0
120
0.0
130
0.0
111
1.0
121
0.0
131
0.0
112
0.0
122
1.0
132
0.0
 79
     0
146
0.0
  0
ENDTAB
  0
TABLE
  2
LTYPE
  5
5
330
0
100
AcDbSymbolTable
 70
     6
  0
LTYPE
  5
14
330
5
100
AcDbSymbolTableRecord
100
AcDbLinetypeTableRecord
  2
ByBlock
 70
     0
  3

 72
    65
 73
     0
 40
0.0
  0
LTYPE
  5
15
330
5
100
AcDbSymbolTableRecord
100
AcDbLinetypeTableRecord
  2
ByLayer
 70
     0
  3

 72
    65
 73
     0
 40
0.0
  0
LTYPE
  5
16
330
5
100
AcDbSymbolTableRecord
100
AcDbLinetypeTableRecord
  2
Continuous
 70
     0
  3
Solid line
 72
    65
 73
     0
 40
0.0
  0
LTYPE
  5
6E
330
5
100
AcDbSymbolTableRecord
100
AcDbLinetypeTableRecord
  2
HIDDEN
 70
     0
  3
Hidden __ __ __ __ __ __ __ __ __ __ __ __ __ __
 72
    65
 73
     2
 40
1.905
 49
1.27
 74
     0
 49
-0.635
 74
     0
  0
LTYPE
  5
6F
330
5
100
AcDbSymbolTableRecord
100
AcDbLinetypeTableRecord
  2
PHANTOM
 70
     0
  3
Phantom ______  __  __  ______  __  __  ______
 72
    65
 73
     6
 40
12.7
 49
6.35
 74
     0
 49
-1.27
 74
     0
 49
1.27
 74
     0
 49
-1.27
 74
     0
 49
1.27
 74
     0
 49
-1.27
 74
     0
  0
LTYPE
  5
70
330
5
100
AcDbSymbolTableRecord
100
AcDbLinetypeTableRecord
  2
CENTER
 70
     0
  3
Center ____ _ ____ _ ____ _ ____ _ ____ _ ____
 72
    65
 73
     4
 40
10.16
 49
6.35
 74
     0
 49
-1.27
 74
     0
 49
1.27
 74
     0
 49
-1.27
 74
     0
  0
LTYPE
  5
71
330
5
100
AcDbSymbolTableRecord
100
AcDbLinetypeTableRecord
  2
CENTERX2
 70
     0
  3
Center (2x) ________  __  ________  __  _____
 72
    65
 73
     4
 40
20.32
 49
12.7
 74
     0
 49
-2.54
 74
     0
 49
2.54
 74
     0
 49
-2.54
 74
     0
  0
LTYPE
  5
72
330
5
100
AcDbSymbolTableRecord
100
AcDbLinetypeTableRecord
  2
DOT2
 70
     0
  3
Dot (.5x) ........................................
 72
    65
 73
     2
 40
0.635
 49
0.0
 74
     0
 49
-0.635
 74
     0
  0
ENDTAB
  0
TABLE
  2
LAYER
  5
2
330
0
100
AcDbSymbolTable
 70
     1
  0
LAYER
  5
10
330
2
100
AcDbSymbolTableRecord
100
AcDbLayerTableRecord
  2
0
 70
     0
 62
     7
  6
Continuous
370
    -3
390
F
  0
ENDTAB
  0
TABLE
  2
STYLE
  5
3
330
0
100
AcDbSymbolTable
 70
     5
  0
STYLE
  5
11
330
3
100
AcDbSymbolTableRecord
100
AcDbTextStyleTableRecord
  2
Standard
 70
     0
 40
0.0
 41
1.0
 50
0.0
 71
     0
 42
3.0
  3
txt
  4

  0
STYLE
  5
DD
330
3
100
AcDbSymbolTableRecord
100
AcDbTextStyleTableRecord
  2
SLDTEXTSTYLE0
 70
     0
 40
0.0
 41
0.5316086498
 50
0.0
 71
     0
 42
3.0
  3
TXT
  4

  0
STYLE
  5
DF
330
3
100
AcDbSymbolTableRecord
100
AcDbTextStyleTableRecord
  2
SLDTEXTSTYLE1
 70
     0
 40
0.0
 41
0.8435443038
 50
0.0
 71
     0
 42
3.0
  3
ISOCP
  4

  0
STYLE
  5
11D
330
3
100
AcDbSymbolTableRecord
100
AcDbTextStyleTableRecord
  2
SLDTEXTSTYLE2
 70
     0
 40
0.0
 41
0.96
 50
0.0
 71
     0
 42
3.0
  3
ISOCP
  4

  0
STYLE
  5
133
330
3
100
AcDbSymbolTableRecord
100
AcDbTextStyleTableRecord
  2
SLDTEXTSTYLE3
 70
     0
 40
0.0
 41
1.0126582278
 50
0.0
 71
     0
 42
3.0
  3
ISOCP
  4

  0
ENDTAB
  0
TABLE
  2
VIEW
  5
6
330
0
100
AcDbSymbolTable
 70
     0
  0
ENDTAB
  0
TABLE
  2
UCS
  5
7
330
0
100
AcDbSymbolTable
 70
     0
  0
ENDTAB
  0
TABLE
  2
APPID
  5
9
330
0
100
AcDbSymbolTable
 70
     1
  0
APPID
  5
12
330
9
100
AcDbSymbolTableRecord
100
AcDbRegAppTableRecord
  2
ACAD
 70
     0
  0
ENDTAB
  0
TABLE
  2
DIMSTYLE
  5
A
330
0
100
AcDbSymbolTable
 70
     1
100
AcDbDimStyleTable
  0
DIMSTYLE
105
27
330
A
100
AcDbSymbolTableRecord
100
AcDbDimStyleTableRecord
  2
ISO-25
 70
     0
 41
2.5
 42
0.625
 43
3.75
 44
1.25
 73
     0
 74
     0
 77
     1
 78
     8
140
2.5
141
2.5
143
0.0393700787
147
0.625
171
     3
172
     1
178
     0
271
     2
272
     2
274
     3
278
    44
283
     0
284
     8
340
11
  0
ENDTAB
  0
TABLE
  2
BLOCK_RECORD
  5
1
330
0
100
AcDbSymbolTable
 70
     4
  0
BLOCK_RECORD
  5
1F
330
1
100
AcDbSymbolTableRecord
100
AcDbBlockTableRecord
  2
*Model_Space
340
22
  0
BLOCK_RECORD
  5
1B
330
1
100
AcDbSymbolTableRecord
100
AcDbBlockTableRecord
  2
*Paper_Space
340
1E
  0
BLOCK_RECORD
  5
23
330
1
100
AcDbSymbolTableRecord
100
AcDbBlockTableRecord
  2
*Paper_Space0
340
26
  0
BLOCK_RECORD
  5
73
330
1
100
AcDbSymbolTableRecord
100
AcDbBlockTableRecord
  2
A1H
340
0
  0
BLOCK_RECORD
  5
11A
330
1
100
AcDbSymbolTableRecord
100
AcDbBlockTableRecord
  2
Nota legale
340
0
  0
BLOCK_RECORD
  5
11F
330
1
100
AcDbSymbolTableRecord
100
AcDbBlockTableRecord
  2
ISO2768
340
0
  0
ENDTAB
  0
ENDSEC
  0
SECTION
  2
BLOCKS
  0
BLOCK
  5
20
330
1F
100
AcDbEntity
  8
0
100
AcDbBlockBegin
  2
*Model_Space
 70
     0
 10
0.0
 20
0.0
 30
0.0
  3
*Model_Space
  1

  0
ENDBLK
  5
21
330
1F
100
AcDbEntity
  8
0
100
AcDbBlockEnd
  0
BLOCK
  5
1C
330
1B
100
AcDbEntity
 67
     1
  8
0
100
AcDbBlockBegin
  2
*Paper_Space
 70
     0
 10
0.0
 20
0.0
 30
0.0
  3
*Paper_Space
  1

  0
ENDBLK
  5
1D
330
1B
100
AcDbEntity
 67
     1
  8
0
100
AcDbBlockEnd
  0
BLOCK
  5
24
330
23
100
AcDbEntity
  8
0
100
AcDbBlockBegin
  2
*Paper_Space0
 70
     0
 10
0.0
 20
0.0
 30
0.0
  3
*Paper_Space0
  1

  0
ENDBLK
  5
25
330
23
100
AcDbEntity
  8
0
100
AcDbBlockEnd
  0
BLOCK
  5
74
330
73
100
AcDbEntity
  8
0
100
AcDbBlockBegin
  2
A1H
 70
     0
 10
0.0
 20
0.0
 30
0.0
  3
A1H
  1

  0
LINE
  5
76
330
73
100
AcDbEntity
  8
0
  6
Continuous
 62
     7
370
     0
100
AcDbLine
 10
831.000000015
 20
297.0000020355
 30
0.0
 11
836.0
 21
294.8865984457
 31
0.0
  0
LINE
  5
77
330
73
100
AcDbEntity
  8
0
  6
Continuous
 62
     7
370
     0
100
AcDbLine
 10
831.000000015
 20
297.0000020355
 30
0.0
 11
836.0
 21
299.1134051111
 31
0.0
  0
LINE
  5
78
330
73
100
AcDbEntity
  8
0
  6
Continuous
 62
     7
370
     0
100
AcDbLine
 10
678.9375
 20
10.0
 30
0.0
 11
678.9375
 21
4.9999966063
 31
0.0
  0
LINE
  5
79
330
73
100
AcDbEntity
  8
0
  6
Continuous
 62
     7
370
     0
100
AcDbLine
 10
628.25
 20
10.0
 30
0.0
 11
628.25
 21
4.9999966063
 31
0.0
  0
LINE
  5
7A
330
73
100
AcDbEntity
  8
0
  6
Continuous
 62
     7
370
     0
100
AcDbLine
 10
577.5625
 20
10.0
 30
0.0
 11
577.5625
 21
4.9999966063
 31
0.0
  0
LINE
  5
7B
330
73
100
AcDbEntity
  8
0
  6
Continuous
 62
     7
370
     0
100
AcDbLine
 10
526.875
 20
10.0
 30
0.0
 11
526.875
 21
4.9999966063
 31
0.0
  0
LINE
  5
7C
330
73
100
AcDbEntity
  8
0
  6
Continuous
 62
     7
370
     0
100
AcDbLine
 10
476.1875
 20
10.0
 30
0.0
 11
476.1875
 21
4.9999966063
 31
0.0
  0
LINE
  5
7D
330
73
100
AcDbEntity
  8
0
  6
Continuous
 62
     7
370
     0
100
AcDbLine
 10
425.5
 20
10.0
 30
0.0
 11
425.5
 21
5.0
 31
0.0
  0
LINE
  5
7E
330
73
100
AcDbEntity
  8
0
  6
Continuous
 62
     7
370
     0
100
AcDbLine
 10
374.8125
 20
10.0
 30
0.0
 11
374.8125
 21
4.9999966063
 31
0.0
  0
LINE
  5
7F
330
73
100
AcDbEntity
  8
0
  6
Continuous
 62
     7
370
     0
100
AcDbLine
 10
324.125
 20
10.0
 30
0.0
 11
324.125
 21
4.9999966063
 31
0.0
  0
LINE
  5
80
330
73
100
AcDbEntity
  8
0
  6
Continuous
 62
     7
370
     0
100
AcDbLine
 10
273.4375
 20
10.0
 30
0.0
 11
273.4375
 21
4.9999966063
 31
0.0
  0
LINE
  5
81
330
73
100
AcDbEntity
  8
0
  6
Continuous
 62
     7
370
     0
100
AcDbLine
 10
222.75
 20
10.0
 30
0.0
 11
222.75
 21
4.9999966063
 31
0.0
  0
LINE
  5
82
330
73
100
AcDbEntity
  8
0
  6
Continuous
 62
     7
370
     0
100
AcDbLine
 10
172.0625
 20
10.0
 30
0.0
 11
172.0625
 21
4.9999966063
 31
0.0
  0
LINE
  5
83
330
73
100
AcDbEntity
  8
0
  6
Continuous
 62
     7
370
     0
100
AcDbLine
 10
121.375
 20
10.0
 30
0.0
 11
121.375
 21
4.9999966063
 31
0.0
  0
LINE
  5
84
330
73
100
AcDbEntity
  8
0
  6
Continuous
 62
     7
370
     0
100
AcDbLine
 10
70.6875
 20
10.0
 30
0.0
 11
70.6875
 21
4.9999966063
 31
0.0
  0
LINE
  5
85
330
73
100
AcDbEntity
  8
0
  6
Continuous
 62
     7
370
     0
100
AcDbLine
 10
831.0
 20
589.0
 30
0.0
 11
831.0
 21
583.9999966063
 31
0.0
  0
LINE
  5
86
330
73
100
AcDbEntity
  8
0
  6
Continuous
 62
     7
370
     0
100
AcDbLine
 10
780.3125
 20
589.0
 30
0.0
 11
780.3125
 21
583.9999966063
 31
0.0
  0
LINE
  5
87
330
73
100
AcDbEntity
  8
0
  6
Continuous
 62
     7
370
     0
100
AcDbLine
 10
729.625
 20
589.0
 30
0.0
 11
729.625
 21
583.9999966063
 31
0.0
  0
LINE
  5
88
330
73
100
AcDbEntity
  8
0
  6
Continuous
 62
     7
370
     0
100
AcDbLine
 10
678.9375
 20
589.0
 30
0.0
 11
678.9375
 21
583.9999966063
 31
0.0
  0
LINE
  5
89
330
73
100
AcDbEntity
  8
0
  6
Continuous
 62
     7
370
     0
100
AcDbLine
 10
628.25
 20
589.0
 30
0.0
 11
628.25
 21
583.9999966063
 31
0.0
  0
LINE
  5
8A
330
73
100
AcDbEntity
  8
0
  6
Continuous
 62
     7
370
     0
100
AcDbLine
 10
577.5625
 20
589.0
 30
0.0
 11
577.5625
 21
583.9999966063
 31
0.0
  0
LINE
  5
8B
330
73
100
AcDbEntity
  8
0
  6
Continuous
 62
     7
370
     0
100
AcDbLine
 10
526.875
 20
589.0
 30
0.0
 11
526.875
 21
583.9999966063
 31
0.0
  0
LINE
  5
8C
330
73
100
AcDbEntity
  8
0
  6
Continuous
 62
     7
370
     0
100
AcDbLine
 10
476.1875
 20
589.0
 30
0.0
 11
476.1875
 21
583.9999966063
 31
0.0
  0
LINE
  5
8D
330
73
100
AcDbEntity
  8
0
  6
Continuous
 62
     7
370
     0
100
AcDbLine
 10
425.5
 20
589.0
 30
0.0
 11
425.5
 21
583.9999966063
 31
0.0
  0
LINE
  5
8E
330
73
100
AcDbEntity
  8
0
  6
Continuous
 62
     7
370
     0
100
AcDbLine
 10
374.8125
 20
589.0
 30
0.0
 11
374.8125
 21
583.9999966063
 31
0.0
  0
LINE
  5
8F
330
73
100
AcDbEntity
  8
0
  6
Continuous
 62
     7
370
     0
100
AcDbLine
 10
324.125
 20
589.0
 30
0.0
 11
324.125
 21
583.9999966063
 31
0.0
  0
LINE
  5
90
330
73
100
AcDbEntity
  8
0
  6
Continuous
 62
     7
370
     0
100
AcDbLine
 10
273.4375
 20
589.0
 30
0.0
 11
273.4375
 21
583.9999966063
 31
0.0
  0
LINE
  5
91
330
73
100
AcDbEntity
  8
0
  6
Continuous
 62
     7
370
     0
100
AcDbLine
 10
222.75
 20
589.0
 30
0.0
 11
222.75
 21
583.9999966063
 31
0.0
  0
LINE
  5
92
330
73
100
AcDbEntity
  8
0
  6
Continuous
 62
     7
370
     0
100
AcDbLine
 10
172.0625
 20
589.0
 30
0.0
 11
172.0625
 21
583.9999966063
 31
0.0
  0
LINE
  5
93
330
73
100
AcDbEntity
  8
0
  6
Continuous
 62
     7
370
     0
100
AcDbLine
 10
121.375
 20
589.0
 30
0.0
 11
121.375
 21
583.9999966063
 31
0.0
  0
LINE
  5
94
330
73
100
AcDbEntity
  8
0
  6
Continuous
 62
     7
370
     0
100
AcDbLine
 10
70.6875
 20
589.0
 30
0.0
 11
70.6875
 21
583.9999966063
 31
0.0
  0
LINE
  5
95
330
73
100
AcDbEntity
  8
0
  6
Continuous
 62
     7
370
     0
100
AcDbLine
 10
211.0
 20
589.0
 30
0.0
 11
211.0
 21
583.9999966063
 31
0.0
  0
LINE
  5
96
330
73
100
AcDbEntity
  8
0
  6
Continuous
 62
     7
370
     0
100
AcDbLine
 10
286.0
 20
583.9999966063
 30
0.0
 11
288.1134033203
 21
589.0
 31
0.0
  0
LINE
  5
97
330
73
100
AcDbEntity
  8
0
  6
Continuous
 62
     7
370
     0
100
AcDbLine
 10
286.0
 20
583.9999966063
 30
0.0
 11
283.8865966797
 21
589.0
 31
0.0
  0
LINE
  5
98
330
73
100
AcDbEntity
  8
0
  6
Continuous
 62
     7
370
     0
100
AcDbLine
 10
340.5
 20
583.9999966063
 30
0.0
 11
342.6134033203
 21
589.0
 31
0.0
  0
LINE
  5
99
330
73
100
AcDbEntity
  8
0
  6
Continuous
 62
     7
370
     0
100
AcDbLine
 10
340.5
 20
583.9999966063
 30
0.0
 11
338.3865966797
 21
589.0
 31
0.0
  0
LINE
  5
9A
330
73
100
AcDbEntity
  8
0
  6
Continuous
 62
     7
370
     0
100
AcDbLine
 10
421.0
 20
589.0
 30
0.0
 11
421.0
 21
583.9999966063
 31
0.0
  0
LINE
  5
9B
330
73
100
AcDbEntity
  8
0
  6
Continuous
 62
     7
370
     0
100
AcDbLine
 10
631.0
 20
589.0
 30
0.0
 11
631.0
 21
583.9999966063
 31
0.0
  0
LINE
  5
9C
330
73
100
AcDbEntity
  8
0
  6
Continuous
 62
     7
370
     0
100
AcDbLine
 10
656.0
 20
583.9999966063
 30
0.0
 11
658.1134033203
 21
589.0
 31
0.0
  0
LINE
  5
9D
330
73
100
AcDbEntity
  8
0
  6
Continuous
 62
     7
370
     0
100
AcDbLine
 10
656.0
 20
583.9999966063
 30
0.0
 11
653.8865966797
 21
589.0
 31
0.0
  0
LINE
  5
9E
330
73
100
AcDbEntity
  8
0
  6
Continuous
 62
     7
370
     0
100
AcDbLine
 10
211.0
 20
4.9999966063
 30
0.0
 11
211.0
 21
10.0
 31
0.0
  0
LINE
  5
9F
330
73
100
AcDbEntity
  8
0
  6
Continuous
 62
     7
370
     0
100
AcDbLine
 10
285.9999985656
 20
10.0
 30
0.0
 11
288.1134023207
 21
4.9999966063
 31
0.0
  0
LINE
  5
A0
330
73
100
AcDbEntity
  8
0
  6
Continuous
 62
     7
370
     0
100
AcDbLine
 10
285.9999985656
 20
10.0
 30
0.0
 11
283.8865968971
 21
4.9999966063
 31
0.0
  0
LINE
  5
A1
330
73
100
AcDbEntity
  8
0
  6
Continuous
 62
     7
370
     0
100
AcDbLine
 10
340.5
 20
10.0
 30
0.0
 11
342.6134033203
 21
4.9999966063
 31
0.0
  0
LINE
  5
A2
330
73
100
AcDbEntity
  8
0
  6
Continuous
 62
     7
370
     0
100
AcDbLine
 10
340.5
 20
10.0
 30
0.0
 11
338.3865966797
 21
4.9999966063
 31
0.0
  0
LINE
  5
A3
330
73
100
AcDbEntity
  8
0
  6
Continuous
 62
     7
370
     0
100
AcDbLine
 10
421.0
 20
4.9999966063
 30
0.0
 11
421.0
 21
10.0
 31
0.0
  0
LINE
  5
A4
330
73
100
AcDbEntity
  8
0
  6
Continuous
 62
     7
370
     0
100
AcDbLine
 10
631.0
 20
4.9999966063
 30
0.0
 11
631.0
 21
10.0
 31
0.0
  0
LINE
  5
A5
330
73
100
AcDbEntity
  8
0
  6
Continuous
 62
     7
370
     0
100
AcDbLine
 10
656.0
 20
10.0
 30
0.0
 11
658.1134033203
 21
4.9999966063
 31
0.0
  0
LINE
  5
A6
330
73
100
AcDbEntity
  8
0
  6
Continuous
 62
     7
370
     0
100
AcDbLine
 10
656.0
 20
10.0
 30
0.0
 11
653.8865966797
 21
4.9999966063
 31
0.0
  0
LINE
  5
A7
330
73
100
AcDbEntity
  8
0
  6
Continuous
 62
     7
370
     0
100
AcDbLine
 10
836.0
 20
57.833337
 30
0.0
 11
831.0
 21
57.833337
 31
0.0
  0
LINE
  5
A8
330
73
100
AcDbEntity
  8
0
  6
Continuous
 62
     7
370
     0
100
AcDbLine
 10
836.0
 20
105.66667
 30
0.0
 11
831.0
 21
105.66667
 31
0.0
  0
LINE
  5
A9
330
73
100
AcDbEntity
  8
0
  6
Continuous
 62
     7
370
     0
100
AcDbLine
 10
836.0
 20
153.500003
 30
0.0
 11
831.0
 21
153.500003
 31
0.0
  0
LINE
  5
AA
330
73
100
AcDbEntity
  8
0
  6
Continuous
 62
     7
370
     0
100
AcDbLine
 10
836.0
 20
201.333336
 30
0.0
 11
831.0
 21
201.333336
 31
0.0
  0
LINE
  5
AB
330
73
100
AcDbEntity
  8
0
  6
Continuous
 62
     7
370
     0
100
AcDbLine
 10
836.0
 20
249.166669
 30
0.0
 11
831.0
 21
249.166669
 31
0.0
  0
LINE
  5
AC
330
73
100
AcDbEntity
  8
0
  6
Continuous
 62
     7
370
     0
100
AcDbLine
 10
836.0
 20
296.9999983032
 30
0.0
 11
831.000000015
 21
297.0000020355
 31
0.0
  0
LINE
  5
AD
330
73
100
AcDbEntity
  8
0
  6
Continuous
 62
     7
370
     0
100
AcDbLine
 10
836.0
 20
344.833335
 30
0.0
 11
831.0
 21
344.833335
 31
0.0
  0
LINE
  5
AE
330
73
100
AcDbEntity
  8
0
  6
Continuous
 62
     7
370
     0
100
AcDbLine
 10
836.0
 20
392.666668
 30
0.0
 11
831.0
 21
392.666668
 31
0.0
  0
LINE
  5
AF
330
73
100
AcDbEntity
  8
0
  6
Continuous
 62
     7
370
     0
100
AcDbLine
 10
836.0
 20
440.500001
 30
0.0
 11
831.0
 21
440.500001
 31
0.0
  0
LINE
  5
B0
330
73
100
AcDbEntity
  8
0
  6
Continuous
 62
     7
370
     0
100
AcDbLine
 10
836.0
 20
488.333334
 30
0.0
 11
831.0
 21
488.333334
 31
0.0
  0
LINE
  5
B1
330
73
100
AcDbEntity
  8
0
  6
Continuous
 62
     7
370
     0
100
AcDbLine
 10
836.0
 20
536.166667
 30
0.0
 11
831.0
 21
536.166667
 31
0.0
  0
LINE
  5
B2
330
73
100
AcDbEntity
  8
0
  6
Continuous
 62
     7
370
     0
100
AcDbLine
 10
20.0000033937
 20
10.0
 30
0.0
 11
15.0
 21
10.0
 31
0.0
  0
LINE
  5
B3
330
73
100
AcDbEntity
  8
0
  6
Continuous
 62
     7
370
     0
100
AcDbLine
 10
20.0000033937
 20
57.833337
 30
0.0
 11
15.0
 21
57.833337
 31
0.0
  0
LINE
  5
B4
330
73
100
AcDbEntity
  8
0
  6
Continuous
 62
     7
370
     0
100
AcDbLine
 10
20.0000033937
 20
105.66667
 30
0.0
 11
15.0
 21
105.66667
 31
0.0
  0
LINE
  5
B5
330
73
100
AcDbEntity
  8
0
  6
Continuous
 62
     7
370
     0
100
AcDbLine
 10
20.0000033937
 20
153.500003
 30
0.0
 11
15.0
 21
153.500003
 31
0.0
  0
LINE
  5
B6
330
73
100
AcDbEntity
  8
0
  6
Continuous
 62
     7
370
     0
100
AcDbLine
 10
20.0000033937
 20
201.333336
 30
0.0
 11
15.0
 21
201.333336
 31
0.0
  0
LINE
  5
B7
330
73
100
AcDbEntity
  8
0
  6
Continuous
 62
     7
370
     0
100
AcDbLine
 10
20.0000033937
 20
249.166669
 30
0.0
 11
15.0
 21
249.166669
 31
0.0
  0
LINE
  5
B8
330
73
100
AcDbEntity
  8
0
  6
Continuous
 62
     7
370
     0
100
AcDbLine
 10
20.0000033937
 20
297.000002
 30
0.0
 11
15.0
 21
297.000002
 31
0.0
  0
LINE
  5
B9
330
73
100
AcDbEntity
  8
0
  6
Continuous
 62
     7
370
     0
100
AcDbLine
 10
20.0000033937
 20
344.833335
 30
0.0
 11
15.0
 21
344.833335
 31
0.0
  0
LINE
  5
BA
330
73
100
AcDbEntity
  8
0
  6
Continuous
 62
     7
370
     0
100
AcDbLine
 10
20.0000033937
 20
392.666668
 30
0.0
 11
15.0
 21
392.666668
 31
0.0
  0
LINE
  5
BB
330
73
100
AcDbEntity
  8
0
  6
Continuous
 62
     7
370
     0
100
AcDbLine
 10
20.0000033937
 20
440.500001
 30
0.0
 11
15.0
 21
440.500001
 31
0.0
  0
LINE
  5
BC
330
73
100
AcDbEntity
  8
0
  6
Continuous
 62
     7
370
     0
100
AcDbLine
 10
20.0000033937
 20
488.333334
 30
0.0
 11
15.0
 21
488.333334
 31
0.0
  0
LINE
  5
BD
330
73
100
AcDbEntity
  8
0
  6
Continuous
 62
     7
370
     0
100
AcDbLine
 10
831.0
 20
589.0
 30
0.0
 11
831.0
 21
583.9999966063
 31
0.0
  0
LINE
  5
BE
330
73
100
AcDbEntity
  8
0
  6
Continuous
 62
     7
370
     0
100
AcDbLine
 10
20.0000033937
 20
536.166667
 30
0.0
 11
15.0
 21
536.166667
 31
0.0
  0
LINE
  5
BF
330
73
100
AcDbEntity
  8
0
  6
Continuous
 62
     7
370
     0
100
AcDbLine
 10
821.0
 20
10.0
 30
0.0
 11
821.0
 21
4.9999966063
 31
0.0
  0
LINE
  5
C0
330
73
100
AcDbEntity
  8
0
  6
Continuous
 62
     7
370
     0
100
AcDbLine
 10
811.0
 20
10.0
 30
0.0
 11
811.0
 21
4.9999966063
 31
0.0
  0
LINE
  5
C1
330
73
100
AcDbEntity
  8
0
  6
Continuous
 62
     7
370
     0
100
AcDbLine
 10
801.0
 20
10.0
 30
0.0
 11
801.0
 21
4.9999966063
 31
0.0
  0
LINE
  5
C2
330
73
100
AcDbEntity
  8
0
  6
Continuous
 62
     7
370
     0
100
AcDbLine
 10
791.0
 20
10.0
 30
0.0
 11
791.0
 21
4.9999966063
 31
0.0
  0
LINE
  5
C3
330
73
100
AcDbEntity
  8
0
  6
Continuous
 62
     7
370
     0
100
AcDbLine
 10
781.0
 20
10.0
 30
0.0
 11
781.0
 21
4.9999966063
 31
0.0
  0
LINE
  5
C4
330
73
100
AcDbEntity
  8
0
  6
Continuous
 62
     7
370
     0
100
AcDbLine
 10
771.0
 20
10.0
 30
0.0
 11
771.0
 21
4.9999966063
 31
0.0
  0
LINE
  5
C5
330
73
100
AcDbEntity
  8
0
  6
Continuous
 62
     7
370
     0
100
AcDbLine
 10
761.0
 20
10.0
 30
0.0
 11
761.0
 21
4.9999966063
 31
0.0
  0
LINE
  5
C6
330
73
100
AcDbEntity
  8
0
  6
Continuous
 62
     7
370
     0
100
AcDbLine
 10
751.0
 20
10.0
 30
0.0
 11
751.0
 21
4.9999966063
 31
0.0
  0
LINE
  5
C7
330
73
100
AcDbEntity
  8
0
  6
Continuous
 62
     7
370
     0
100
AcDbLine
 10
741.0
 20
10.0
 30
0.0
 11
741.0
 21
4.9999966063
 31
0.0
  0
LINE
  5
C8
330
73
100
AcDbEntity
  8
0
  6
Continuous
 62
     7
370
     0
100
AcDbLine
 10
731.0
 20
10.0
 30
0.0
 11
731.0
 21
4.9999966063
 31
0.0
  0
LINE
  5
C9
330
73
100
AcDbEntity
  8
0
  6
Continuous
 62
     7
370
     0
100
AcDbLine
 10
15.0
 20
4.9999966063
 30
0.0
 11
15.0
 21
589.0
 31
0.0
  0
LINE
  5
CA
330
73
100
AcDbEntity
  8
0
  6
Continuous
 62
     7
370
     0
100
AcDbLine
 10
836.0
 20
4.9999966063
 30
0.0
 11
15.0
 21
4.9999966063
 31
0.0
  0
LINE
  5
CB
330
73
100
AcDbEntity
  8
0
  6
Continuous
 62
     7
370
     0
100
AcDbLine
 10
836.0
 20
4.9999966063
 30
0.0
 11
836.0
 21
589.0
 31
0.0
  0
LINE
  5
CC
330
73
100
AcDbEntity
  8
0
  6
Continuous
 62
     7
370
     0
100
AcDbLine
 10
15.0
 20
589.0
 30
0.0
 11
836.0
 21
589.0
 31
0.0
  0
LINE
  5
CD
330
73
100
AcDbEntity
  8
0
  6
Continuous
 62
     7
370
     0
100
AcDbLine
 10
20.0000033937
 20
583.9999966063
 30
0.0
 11
20.0000033937
 21
589.0
 31
0.0
  0
LINE
  5
CE
330
73
100
AcDbEntity
  8
0
  6
Continuous
 62
     7
370
     0
100
AcDbLine
 10
20.0000033937
 20
10.0
 30
0.0
 11
20.0000033937
 21
583.9999966063
 31
0.0
  0
LINE
  5
CF
330
73
100
AcDbEntity
  8
0
  6
Continuous
 62
     7
370
     0
100
AcDbLine
 10
20.0000033937
 20
4.9999966063
 30
0.0
 11
20.0000033937
 21
10.0
 31
0.0
  0
LINE
  5
D0
330
73
100
AcDbEntity
  8
0
  6
Continuous
 62
     7
370
     0
100
AcDbLine
 10
831.0
 20
583.9999966063
 30
0.0
 11
831.0
 21
589.0
 31
0.0
  0
LINE
  5
D1
330
73
100
AcDbEntity
  8
0
  6
Continuous
 62
     7
370
     0
100
AcDbLine
 10
831.0
 20
10.0
 30
0.0
 11
831.0
 21
583.9999966063
 31
0.0
  0
LINE
  5
D2
330
73
100
AcDbEntity
  8
0
  6
Continuous
 62
     7
370
     0
100
AcDbLine
 10
831.0
 20
4.9999966063
 30
0.0
 11
831.0
 21
10.0
 31
0.0
  0
LINE
  5
D3
330
73
100
AcDbEntity
  8
0
  6
Continuous
 62
     7
370
     0
100
AcDbLine
 10
20.0000033937
 20
10.0
 30
0.0
 11
15.0
 21
10.0
 31
0.0
  0
LINE
  5
D4
330
73
100
AcDbEntity
  8
0
  6
Continuous
 62
     7
370
     0
100
AcDbLine
 10
831.0
 20
10.0
 30
0.0
 11
20.0000033937
 21
10.0
 31
0.0
  0
LINE
  5
D5
330
73
100
AcDbEntity
  8
0
  6
Continuous
 62
     7
370
     0
100
AcDbLine
 10
836.0
 20
10.0
 30
0.0
 11
831.0
 21
10.0
 31
0.0
  0
LINE
  5
D6
330
73
100
AcDbEntity
  8
0
  6
Continuous
 62
     7
370
     0
100
AcDbLine
 10
831.0
 20
583.9999966063
 30
0.0
 11
836.0
 21
583.9999966063
 31
0.0
  0
LINE
  5
D7
330
73
100
AcDbEntity
  8
0
  6
Continuous
 62
     7
370
     0
100
AcDbLine
 10
20.0000033937
 20
583.9999966063
 30
0.0
 11
831.0
 21
583.9999966063
 31
0.0
  0
LINE
  5
D8
330
73
100
AcDbEntity
  8
0
  6
Continuous
 62
     7
370
     0
100
AcDbLine
 10
15.0
 20
583.9999966063
 30
0.0
 11
20.0000033937
 21
583.9999966063
 31
0.0
  0
LINE
  5
D9
330
73
100
AcDbEntity
  8
0
  6
Continuous
 62
     7
370
     0
100
AcDbLine
 10
0.0
 20
594.0
 30
0.0
 11
0.0
 21
0.0
 31
0.0
  0
LINE
  5
DA
330
73
100
AcDbEntity
  8
0
  6
Continuous
 62
     7
370
     0
100
AcDbLine
 10
0.0
 20
594.0
 30
0.0
 11
841.0
 21
594.0
 31
0.0
  0
LINE
  5
DB
330
73
100
AcDbEntity
  8
0
  6
Continuous
 62
     7
370
     0
100
AcDbLine
 10
841.0
 20
0.0
 30
0.0
 11
841.0
 21
594.0
 31
0.0
  0
LINE
  5
DC
330
73
100
AcDbEntity
  8
0
  6
Continuous
 62
     7
370
     0
100
AcDbLine
 10
841.0
 20
0.0
 30
0.0
 11
0.0
 21
0.0
 31
0.0
  0
MTEXT
  5
DE
330
73
100
AcDbEntity
  8
0
  6
Continuous
 62
     7
370
     0
100
AcDbMText
 10
655.527178913
 20
7.389386302
 30
0.0
 40
1.5
 41
0.0
 71
     1
 72
     1
  1
1
  7
SLDTEXTSTYLE0
 73
     1
 44
1.0
  0
MTEXT
  5
E0
330
73
100
AcDbEntity
  8
0
  6
Continuous
 62
     7
370
     0
100
AcDbMText
 10
702.3899506522
 20
8.6449155598
 30
0.0
 40
3.0
 41
0.0
 71
     1
 72
     1
  1
13
  7
SLDTEXTSTYLE1
 73
     1
 44
1.0
  0
MTEXT
  5
E1
330
73
100
AcDbEntity
  8
0
  6
Continuous
 62
     7
370
     0
100
AcDbMText
 10
832.3587006522
 20
561.2282490598
 30
0.0
 40
3.0
 41
0.0
 71
     1
 72
     1
  1
A
  7
SLDTEXTSTYLE1
 73
     1
 44
1.0
  0
MTEXT
  5
E2
330
73
100
AcDbEntity
  8
0
  6
Continuous
 62
     7
370
     0
100
AcDbMText
 10
832.3587006522
 20
513.3949160598
 30
0.0
 40
3.0
 41
0.0
 71
     1
 72
     1
  1
B
  7
SLDTEXTSTYLE1
 73
     1
 44
1.0
  0
MTEXT
  5
E3
330
73
100
AcDbEntity
  8
0
  6
Continuous
 62
     7
370
     0
100
AcDbMText
 10
832.2934832609
 20
465.5615830598
 30
0.0
 40
3.0
 41
0.0
 71
     1
 72
     1
  1
C
  7
SLDTEXTSTYLE1
 73
     1
 44
1.0
  0
MTEXT
  5
E4
330
73
100
AcDbEntity
  8
0
  6
Continuous
 62
     7
370
     0
100
AcDbMText
 10
832.2934832609
 20
417.7282500598
 30
0.0
 40
3.0
 41
0.0
 71
     1
 72
     1
  1
D
  7
SLDTEXTSTYLE1
 73
     1
 44
1.0
  0
MTEXT
  5
E5
330
73
100
AcDbEntity
  8
0
  6
Continuous
 62
     7
370
     0
100
AcDbMText
 10
832.3587006522
 20
369.8949170598
 30
0.0
 40
3.0
 41
0.0
 71
     1
 72
     1
  1
E
  7
SLDTEXTSTYLE1
 73
     1
 44
1.0
  0
MTEXT
  5
E6
330
73
100
AcDbEntity
  8
0
  6
Continuous
 62
     7
370
     0
100
AcDbMText
 10
832.4565267391
 20
322.0615840598
 30
0.0
 40
3.0
 41
0.0
 71
     1
 72
     1
  1
F
  7
SLDTEXTSTYLE1
 73
     1
 44
1.0
  0
MTEXT
  5
E7
330
73
100
AcDbEntity
  8
0
  6
Continuous
 62
     7
370
     0
100
AcDbMText
 10
832.1956571739
 20
274.2282510598
 30
0.0
 40
3.0
 41
0.0
 71
     1
 72
     1
  1
G
  7
SLDTEXTSTYLE1
 73
     1
 44
1.0
  0
MTEXT
  5
E8
330
73
100
AcDbEntity
  8
0
  6
Continuous
 62
     7
370
     0
100
AcDbMText
 10
832.2934832609
 20
226.3949180598
 30
0.0
 40
3.0
 41
0.0
 71
     1
 72
     1
  1
H
  7
SLDTEXTSTYLE1
 73
     1
 44
1.0
  0
MTEXT
  5
E9
330
73
100
AcDbEntity
  8
0
  6
Continuous
 62
     7
370
     0
100
AcDbMText
 10
833.0434832609
 20
178.5615850598
 30
0.0
 40
3.0
 41
0.0
 71
     1
 72
     1
  1
I
  7
SLDTEXTSTYLE1
 73
     1
 44
1.0
  0
MTEXT
  5
EA
330
73
100
AcDbEntity
  8
0
  6
Continuous
 62
     7
370
     0
100
AcDbMText
 10
832.652178913
 20
130.7282520598
 30
0.0
 40
3.0
 41
0.0
 71
     1
 72
     1
  1
J
  7
SLDTEXTSTYLE1
 73
     1
 44
1.0
  0
MTEXT
  5
EB
330
73
100
AcDbEntity
  8
0
  6
Continuous
 62
     7
370
     0
100
AcDbMText
 10
832.3587006522
 20
82.8949190598
 30
0.0
 40
3.0
 41
0.0
 71
     1
 72
     1
  1
K
  7
SLDTEXTSTYLE1
 73
     1
 44
1.0
  0
MTEXT
  5
EC
330
73
100
AcDbEntity
  8
0
  6
Continuous
 62
     7
370
     0
100
AcDbMText
 10
832.5543528261
 20
39.0877190249
 30
0.0
 40
3.0
 41
0.0
 71
     1
 72
     1
  1
L
  7
SLDTEXTSTYLE1
 73
     1
 44
1.0
  0
MTEXT
  5
ED
330
73
100
AcDbEntity
  8
0
  6
Continuous
 62
     7
370
     0
100
AcDbMText
 10
655.527178913
 20
588.1028068642
 30
0.0
 40
1.5
 41
0.0
 71
     1
 72
     1
  1
1
  7
SLDTEXTSTYLE0
 73
     1
 44
1.0
  0
MTEXT
  5
EE
330
73
100
AcDbEntity
  8
0
  6
Continuous
 62
     7
370
     0
100
AcDbMText
 10
340.027178913
 20
588.1028068642
 30
0.0
 40
1.5
 41
0.0
 71
     1
 72
     1
  1
3
  7
SLDTEXTSTYLE0
 73
     1
 44
1.0
  0
MTEXT
  5
EF
330
73
100
AcDbEntity
  8
0
  6
Continuous
 62
     7
370
     0
100
AcDbMText
 10
285.527178913
 20
588.1028068642
 30
0.0
 40
1.5
 41
0.0
 71
     1
 72
     1
  1
2
  7
SLDTEXTSTYLE0
 73
     1
 44
1.0
  0
MTEXT
  5
F0
330
73
100
AcDbEntity
  8
0
  6
Continuous
 62
     7
370
     0
100
AcDbMText
 10
44.3981028261
 20
587.6449155598
 30
0.0
 40
3.0
 41
0.0
 71
     1
 72
     1
  1
1
  7
SLDTEXTSTYLE1
 73
     1
 44
1.0
  0
MTEXT
  5
F1
330
73
100
AcDbEntity
  8
0
  6
Continuous
 62
     7
370
     0
100
AcDbMText
 10
95.0856028261
 20
587.6449155598
 30
0.0
 40
3.0
 41
0.0
 71
     1
 72
     1
  1
2
  7
SLDTEXTSTYLE1
 73
     1
 44
1.0
  0
MTEXT
  5
F2
330
73
100
AcDbEntity
  8
0
  6
Continuous
 62
     7
370
     0
100
AcDbMText
 10
145.7731028261
 20
587.6449155598
 30
0.0
 40
3.0
 41
0.0
 71
     1
 72
     1
  1
3
  7
SLDTEXTSTYLE1
 73
     1
 44
1.0
  0
MTEXT
  5
F3
330
73
100
AcDbEntity
  8
0
  6
Continuous
 62
     7
370
     0
100
AcDbMText
 10
196.4606028261
 20
587.6449155598
 30
0.0
 40
3.0
 41
0.0
 71
     1
 72
     1
  1
4
  7
SLDTEXTSTYLE1
 73
     1
 44
1.0
  0
MTEXT
  5
F4
330
73
100
AcDbEntity
  8
0
  6
Continuous
 62
     7
370
     0
100
AcDbMText
 10
247.1481028261
 20
587.6449155598
 30
0.0
 40
3.0
 41
0.0
 71
     1
 72
     1
  1
5
  7
SLDTEXTSTYLE1
 73
     1
 44
1.0
  0
MTEXT
  5
F5
330
73
100
AcDbEntity
  8
0
  6
Continuous
 62
     7
370
     0
100
AcDbMText
 10
297.8356028261
 20
587.6449155598
 30
0.0
 40
3.0
 41
0.0
 71
     1
 72
     1
  1
6
  7
SLDTEXTSTYLE1
 73
     1
 44
1.0
  0
MTEXT
  5
F6
330
73
100
AcDbEntity
  8
0
  6
Continuous
 62
     7
370
     0
100
AcDbMText
 10
348.5231028261
 20
587.6449155598
 30
0.0
 40
3.0
 41
0.0
 71
     1
 72
     1
  1
7
  7
SLDTEXTSTYLE1
 73
     1
 44
1.0
  0
MTEXT
  5
F7
330
73
100
AcDbEntity
  8
0
  6
Continuous
 62
     7
370
     0
100
AcDbMText
 10
399.2106028261
 20
587.6449155598
 30
0.0
 40
3.0
 41
0.0
 71
     1
 72
     1
  1
8
  7
SLDTEXTSTYLE1
 73
     1
 44
1.0
  0
MTEXT
  5
F8
330
73
100
AcDbEntity
  8
0
  6
Continuous
 62
     7
370
     0
100
AcDbMText
 10
449.8981028261
 20
587.6449155598
 30
0.0
 40
3.0
 41
0.0
 71
     1
 72
     1
  1
9
  7
SLDTEXTSTYLE1
 73
     1
 44
1.0
  0
MTEXT
  5
F9
330
73
100
AcDbEntity
  8
0
  6
Continuous
 62
     7
370
     0
100
AcDbMText
 10
499.6399506522
 20
587.6449155598
 30
0.0
 40
3.0
 41
0.0
 71
     1
 72
     1
  1
10
  7
SLDTEXTSTYLE1
 73
     1
 44
1.0
  0
MTEXT
  5
FA
330
73
100
AcDbEntity
  8
0
  6
Continuous
 62
     7
370
     0
100
AcDbMText
 10
550.3274506522
 20
587.6449155598
 30
0.0
 40
3.0
 41
0.0
 71
     1
 72
     1
  1
11
  7
SLDTEXTSTYLE1
 73
     1
 44
1.0
  0
MTEXT
  5
FB
330
73
100
AcDbEntity
  8
0
  6
Continuous
 62
     7
370
     0
100
AcDbMText
 10
601.0149506522
 20
587.6449155598
 30
0.0
 40
3.0
 41
0.0
 71
     1
 72
     1
  1
12
  7
SLDTEXTSTYLE1
 73
     1
 44
1.0
  0
MTEXT
  5
FC
330
73
100
AcDbEntity
  8
0
  6
Continuous
 62
     7
370
     0
100
AcDbMText
 10
647.7024506522
 20
587.6449155598
 30
0.0
 40
3.0
 41
0.0
 71
     1
 72
     1
  1
13
  7
SLDTEXTSTYLE1
 73
     1
 44
1.0
  0
MTEXT
  5
FD
330
73
100
AcDbEntity
  8
0
  6
Continuous
 62
     7
370
     0
100
AcDbMText
 10
702.3899506522
 20
587.6449155598
 30
0.0
 40
3.0
 41
0.0
 71
     1
 72
     1
  1
14
  7
SLDTEXTSTYLE1
 73
     1
 44
1.0
  0
MTEXT
  5
FE
330
73
100
AcDbEntity
  8
0
  6
Continuous
 62
     7
370
     0
100
AcDbMText
 10
753.0774506522
 20
587.6449155598
 30
0.0
 40
3.0
 41
0.0
 71
     1
 72
     1
  1
15
  7
SLDTEXTSTYLE1
 73
     1
 44
1.0
  0
MTEXT
  5
FF
330
73
100
AcDbEntity
  8
0
  6
Continuous
 62
     7
370
     0
100
AcDbMText
 10
803.7649506522
 20
587.6449155598
 30
0.0
 40
3.0
 41
0.0
 71
     1
 72
     1
  1
16
  7
SLDTEXTSTYLE1
 73
     1
 44
1.0
  0
MTEXT
  5
100
330
73
100
AcDbEntity
  8
0
  6
Continuous
 62
     7
370
     0
100
AcDbMText
 10
340.027178913
 20
7.389386302
 30
0.0
 40
1.5
 41
0.0
 71
     1
 72
     1
  1
3
  7
SLDTEXTSTYLE0
 73
     1
 44
1.0
  0
MTEXT
  5
101
330
73
100
AcDbEntity
  8
0
  6
Continuous
 62
     7
370
     0
100
AcDbMText
 10
285.527178913
 20
7.389386302
 30
0.0
 40
1.5
 41
0.0
 71
     1
 72
     1
  1
2
  7
SLDTEXTSTYLE0
 73
     1
 44
1.0
  0
MTEXT
  5
102
330
73
100
AcDbEntity
  8
0
  6
Continuous
 62
     7
370
     0
100
AcDbMText
 10
44.3981028261
 20
8.6449155598
 30
0.0
 40
3.0
 41
0.0
 71
     1
 72
     1
  1
1
  7
SLDTEXTSTYLE1
 73
     1
 44
1.0
  0
MTEXT
  5
103
330
73
100
AcDbEntity
  8
0
  6
Continuous
 62
     7
370
     0
100
AcDbMText
 10
95.0856028261
 20
8.6449155598
 30
0.0
 40
3.0
 41
0.0
 71
     1
 72
     1
  1
2
  7
SLDTEXTSTYLE1
 73
     1
 44
1.0
  0
MTEXT
  5
104
330
73
100
AcDbEntity
  8
0
  6
Continuous
 62
     7
370
     0
100
AcDbMText
 10
145.7731028261
 20
8.6449155598
 30
0.0
 40
3.0
 41
0.0
 71
     1
 72
     1
  1
3
  7
SLDTEXTSTYLE1
 73
     1
 44
1.0
  0
MTEXT
  5
105
330
73
100
AcDbEntity
  8
0
  6
Continuous
 62
     7
370
     0
100
AcDbMText
 10
196.4606028261
 20
8.6449155598
 30
0.0
 40
3.0
 41
0.0
 71
     1
 72
     1
  1
4
  7
SLDTEXTSTYLE1
 73
     1
 44
1.0
  0
MTEXT
  5
106
330
73
100
AcDbEntity
  8
0
  6
Continuous
 62
     7
370
     0
100
AcDbMText
 10
247.1481028261
 20
8.6449155598
 30
0.0
 40
3.0
 41
0.0
 71
     1
 72
     1
  1
5
  7
SLDTEXTSTYLE1
 73
     1
 44
1.0
  0
MTEXT
  5
107
330
73
100
AcDbEntity
  8
0
  6
Continuous
 62
     7
370
     0
100
AcDbMText
 10
297.8356028261
 20
8.6449155598
 30
0.0
 40
3.0
 41
0.0
 71
     1
 72
     1
  1
6
  7
SLDTEXTSTYLE1
 73
     1
 44
1.0
  0
MTEXT
  5
108
330
73
100
AcDbEntity
  8
0
  6
Continuous
 62
     7
370
     0
100
AcDbMText
 10
348.5231028261
 20
8.6449155598
 30
0.0
 40
3.0
 41
0.0
 71
     1
 72
     1
  1
7
  7
SLDTEXTSTYLE1
 73
     1
 44
1.0
  0
MTEXT
  5
109
330
73
100
AcDbEntity
  8
0
  6
Continuous
 62
     7
370
     0
100
AcDbMText
 10
399.2106028261
 20
8.6449155598
 30
0.0
 40
3.0
 41
0.0
 71
     1
 72
     1
  1
8
  7
SLDTEXTSTYLE1
 73
     1
 44
1.0
  0
MTEXT
  5
10A
330
73
100
AcDbEntity
  8
0
  6
Continuous
 62
     7
370
     0
100
AcDbMText
 10
449.8981028261
 20
8.6449155598
 30
0.0
 40
3.0
 41
0.0
 71
     1
 72
     1
  1
9
  7
SLDTEXTSTYLE1
 73
     1
 44
1.0
  0
MTEXT
  5
10B
330
73
100
AcDbEntity
  8
0
  6
Continuous
 62
     7
370
     0
100
AcDbMText
 10
499.6399506522
 20
8.6449155598
 30
0.0
 40
3.0
 41
0.0
 71
     1
 72
     1
  1
10
  7
SLDTEXTSTYLE1
 73
     1
 44
1.0
  0
MTEXT
  5
10C
330
73
100
AcDbEntity
  8
0
  6
Continuous
 62
     7
370
     0
100
AcDbMText
 10
550.3274506522
 20
8.6449155598
 30
0.0
 40
3.0
 41
0.0
 71
     1
 72
     1
  1
11
  7
SLDTEXTSTYLE1
 73
     1
 44
1.0
  0
MTEXT
  5
10D
330
73
100
AcDbEntity
  8
0
  6
Continuous
 62
     7
370
     0
100
AcDbMText
 10
601.0149506522
 20
8.6449155598
 30
0.0
 40
3.0
 41
0.0
 71
     1
 72
     1
  1
12
  7
SLDTEXTSTYLE1
 73
     1
 44
1.0
  0
MTEXT
  5
10E
330
73
100
AcDbEntity
  8
0
  6
Continuous
 62
     7
370
     0
100
AcDbMText
 10
16.3587006522
 20
561.2282490598
 30
0.0
 40
3.0
 41
0.0
 71
     1
 72
     1
  1
A
  7
SLDTEXTSTYLE1
 73
     1
 44
1.0
  0
MTEXT
  5
10F
330
73
100
AcDbEntity
  8
0
  6
Continuous
 62
     7
370
     0
100
AcDbMText
 10
16.3587006522
 20
513.3949160598
 30
0.0
 40
3.0
 41
0.0
 71
     1
 72
     1
  1
B
  7
SLDTEXTSTYLE1
 73
     1
 44
1.0
  0
MTEXT
  5
110
330
73
100
AcDbEntity
  8
0
  6
Continuous
 62
     7
370
     0
100
AcDbMText
 10
16.2934832609
 20
465.5615830598
 30
0.0
 40
3.0
 41
0.0
 71
     1
 72
     1
  1
C
  7
SLDTEXTSTYLE1
 73
     1
 44
1.0
  0
MTEXT
  5
111
330
73
100
AcDbEntity
  8
0
  6
Continuous
 62
     7
370
     0
100
AcDbMText
 10
16.2934832609
 20
417.7282500598
 30
0.0
 40
3.0
 41
0.0
 71
     1
 72
     1
  1
D
  7
SLDTEXTSTYLE1
 73
     1
 44
1.0
  0
MTEXT
  5
112
330
73
100
AcDbEntity
  8
0
  6
Continuous
 62
     7
370
     0
100
AcDbMText
 10
16.3587006522
 20
369.8949170598
 30
0.0
 40
3.0
 41
0.0
 71
     1
 72
     1
  1
E
  7
SLDTEXTSTYLE1
 73
     1
 44
1.0
  0
MTEXT
  5
113
330
73
100
AcDbEntity
  8
0
  6
Continuous
 62
     7
370
     0
100
AcDbMText
 10
16.4565267391
 20
322.0615840598
 30
0.0
 40
3.0
 41
0.0
 71
     1
 72
     1
  1
F
  7
SLDTEXTSTYLE1
 73
     1
 44
1.0
  0
MTEXT
  5
114
330
73
100
AcDbEntity
  8
0
  6
Continuous
 62
     7
370
     0
100
AcDbMText
 10
16.1956571739
 20
274.2282510598
 30
0.0
 40
3.0
 41
0.0
 71
     1
 72
     1
  1
G
  7
SLDTEXTSTYLE1
 73
     1
 44
1.0
  0
MTEXT
  5
115
330
73
100
AcDbEntity
  8
0
  6
Continuous
 62
     7
370
     0
100
AcDbMText
 10
16.2934832609
 20
226.3949180598
 30
0.0
 40
3.0
 41
0.0
 71
     1
 72
     1
  1
H
  7
SLDTEXTSTYLE1
 73
     1
 44
1.0
  0
MTEXT
  5
116
330
73
100
AcDbEntity
  8
0
  6
Continuous
 62
     7
370
     0
100
AcDbMText
 10
17.0434832609
 20
178.5615850598
 30
0.0
 40
3.0
 41
0.0
 71
     1
 72
     1
  1
I
  7
SLDTEXTSTYLE1
 73
     1
 44
1.0
  0
MTEXT
  5
117
330
73
100
AcDbEntity
  8
0
  6
Continuous
 62
     7
370
     0
100
AcDbMText
 10
16.652178913
 20
130.7282520598
 30
0.0
 40
3.0
 41
0.0
 71
     1
 72
     1
  1
J
  7
SLDTEXTSTYLE1
 73
     1
 44
1.0
  0
MTEXT
  5
118
330
73
100
AcDbEntity
  8
0
  6
Continuous
 62
     7
370
     0
100
AcDbMText
 10
16.3587006522
 20
82.8949190598
 30
0.0
 40
3.0
 41
0.0
 71
     1
 72
     1
  1
K
  7
SLDTEXTSTYLE1
 73
     1
 44
1.0
  0
MTEXT
  5
119
330
73
100
AcDbEntity
  8
0
  6
Continuous
 62
     7
370
     0
100
AcDbMText
 10
16.5543528261
 20
35.0615860598
 30
0.0
 40
3.0
 41
0.0
 71
     1
 72
     1
  1
L
  7
SLDTEXTSTYLE1
 73
     1
 44
1.0
  0
ENDBLK
  5
75
330
73
100
AcDbEntity
  8
0
100
AcDbBlockEnd
  0
BLOCK
  5
11B
330
11A
100
AcDbEntity
  8
0
100
AcDbBlockBegin
  2
Nota legale
 70
     0
 10
0.0
 20
0.0
 30
0.0
  3
Nota legale
  1

  0
MTEXT
  5
11E
330
11A
100
AcDbEntity
  8
0
  6
Continuous
 62
     7
370
     0
100
AcDbMText
 10
2.8916698098
 20
-1.0663983927
 30
0.0
 40
1.5
 41
0.0
 71
     3
 72
     1
  1
BY TERM LAWS WE RESERVE THE PROPERTY OF THIS DRAWING WITH PROHIBITION OF USE AND REPRODUCTION
  7
SLDTEXTSTYLE2
 73
     1
 44
1.0
  0
ENDBLK
  5
11C
330
11A
100
AcDbEntity
  8
0
100
AcDbBlockEnd
  0
BLOCK
  5
120
330
11F
100
AcDbEntity
  8
0
100
AcDbBlockBegin
  2
ISO2768
 70
     0
 10
0.0
 20
0.0
 30
0.0
  3
ISO2768
  1

  0
LINE
  5
122
330
11F
100
AcDbEntity
  8
0
  6
Continuous
 62
     7
370
     0
100
AcDbLine
 10
-25.0
 20
0.0
 30
0.0
 11
-25.0
 21
-20.0
 31
0.0
  0
LINE
  5
123
330
11F
100
AcDbEntity
  8
0
  6
Continuous
 62
     7
370
     0
100
AcDbLine
 10
-50.0
 20
0.0
 30
0.0
 11
-50.0
 21
-20.0
 31
0.0
  0
LINE
  5
124
330
11F
100
AcDbEntity
  8
0
  6
Continuous
 62
     7
370
     0
100
AcDbLine
 10
-75.0
 20
0.0
 30
0.0
 11
-75.0
 21
-20.0
 31
0.0
  0
LINE
  5
125
330
11F
100
AcDbEntity
  8
0
  6
Continuous
 62
     7
370
     0
100
AcDbLine
 10
-95.0
 20
0.0
 30
0.0
 11
-95.0
 21
-20.0
 31
0.0
  0
LINE
  5
126
330
11F
100
AcDbEntity
  8
0
  6
Continuous
 62
     7
370
     0
100
AcDbLine
 10
-115.0
 20
0.0
 30
0.0
 11
-115.0
 21
-20.0
 31
0.0
  0
LINE
  5
127
330
11F
100
AcDbEntity
  8
0
  6
Continuous
 62
     7
370
     0
100
AcDbLine
 10
-130.0
 20
0.0
 30
0.0
 11
-130.0
 21
-20.0
 31
0.0
  0
LINE
  5
128
330
11F
100
AcDbEntity
  8
0
  6
Continuous
 62
     7
370
     0
100
AcDbLine
 10
-145.0
 20
0.0
 30
0.0
 11
-145.0
 21
-20.0
 31
0.0
  0
LINE
  5
129
330
11F
100
AcDbEntity
  8
0
  6
Continuous
 62
     7
370
     0
100
AcDbLine
 10
-155.0
 20
-4.0
 30
0.0
 11
-155.0
 21
-20.0
 31
0.0
  0
LINE
  5
12A
330
11F
100
AcDbEntity
  8
0
  6
Continuous
 62
     7
370
     0
100
AcDbLine
 10
-175.0
 20
-16.0
 30
0.0
 11
0.0
 21
-16.0
 31
0.0
  0
LINE
  5
12B
330
11F
100
AcDbEntity
  8
0
  6
Continuous
 62
     7
370
     0
100
AcDbLine
 10
-175.0
 20
-12.0
 30
0.0
 11
0.0
 21
-12.0
 31
0.0
  0
LINE
  5
12C
330
11F
100
AcDbEntity
  8
0
  6
Continuous
 62
     7
370
     0
100
AcDbLine
 10
-175.0
 20
-8.0
 30
0.0
 11
0.0
 21
-8.0
 31
0.0
  0
LINE
  5
12D
330
11F
100
AcDbEntity
  8
0
  6
Continuous
 62
     7
370
     0
100
AcDbLine
 10
-175.0
 20
-4.0
 30
0.0
 11
0.0
 21
-4.0
 31
0.0
  0
LINE
  5
12E
330
11F
100
AcDbEntity
  8
0
  6
Continuous
 62
     7
370
     0
100
AcDbLine
 10
-175.0
 20
0.0
 30
0.0
 11
-175.0
 21
-20.0
 31
0.0
  0
LINE
  5
12F
330
11F
100
AcDbEntity
  8
0
  6
Continuous
 62
     7
370
     0
100
AcDbLine
 10
-180.0
 20
-20.0
 30
0.0
 11
-180.0
 21
0.0
 31
0.0
  0
LINE
  5
130
330
11F
100
AcDbEntity
  8
0
  6
Continuous
 62
     7
370
     0
100
AcDbLine
 10
0.0
 20
-20.0
 30
0.0
 11
-180.0
 21
-20.0
 31
0.0
  0
LINE
  5
131
330
11F
100
AcDbEntity
  8
0
  6
Continuous
 62
     7
370
     0
100
AcDbLine
 10
0.0
 20
0.0
 30
0.0
 11
0.0
 21
-20.0
 31
0.0
  0
LINE
  5
132
330
11F
100
AcDbEntity
  8
0
  6
Continuous
 62
     7
370
     0
100
AcDbLine
 10
-180.0
 20
0.0
 30
0.0
 11
0.0
 21
0.0
 31
0.0
  0
MTEXT
  5
134
330
11F
100
AcDbEntity
  8
0
  6
Continuous
 62
   179
370
     0
100
AcDbMText
 10
-152.1594291518
 20
-12.9932672184
 30
0.0
 40
2.5
 41
0.0
 71
     1
 72
     1
  1
(c)
  7
SLDTEXTSTYLE3
 73
     1
 44
1.0
  0
MTEXT
  5
135
330
11F
100
AcDbEntity
  8
0
  6
Continuous
 62
   179
370
     0
100
AcDbMText
 10
-14.4385313988
 20
-13.1021223902
 30
0.0
 40
2.5
 41
0.0
 71
     1
 72
     1
  1
±4
  7
SLDTEXTSTYLE3
 73
     1
 44
1.0
  0
MTEXT
  5
136
330
11F
100
AcDbEntity
  8
0
  6
Continuous
 62
   179
370
     0
100
AcDbMText
 10
-14.4385313988
 20
-17.1021223902
 30
0.0
 40
2.5
 41
0.0
 71
     1
 72
     1
  1
±8
  7
SLDTEXTSTYLE3
 73
     1
 44
1.0
  0
MTEXT
  5
137
330
11F
100
AcDbEntity
  8
0
  6
Continuous
 62
   179
370
     0
100
AcDbMText
 10
-23.8407053118
 20
-1.1021223902
 30
0.0
 40
2.5
 41
0.0
 71
     1
 72
     1
  1
>2000 <=4000
  7
SLDTEXTSTYLE3
 73
     1
 44
1.0
  0
MTEXT
  5
138
330
11F
100
AcDbEntity
  8
0
  6
Continuous
 62
   179
370
     0
100
AcDbMText
 10
-13.0798357466
 20
-5.1021223902
 30
0.0
 40
2.5
 41
0.0
 71
     1
 72
     1
  1
-
  7
SLDTEXTSTYLE3
 73
     1
 44
1.0
  0
MTEXT
  5
139
330
11F
100
AcDbEntity
  8
0
  6
Continuous
 62
   179
370
     0
100
AcDbMText
 10
-14.4385313988
 20
-9.1021223902
 30
0.0
 40
2.5
 41
0.0
 71
     1
 72
     1
  1
±2
  7
SLDTEXTSTYLE3
 73
     1
 44
1.0
  0
MTEXT
  5
13A
330
11F
100
AcDbEntity
  8
0
  6
Continuous
 62
   179
370
     0
100
AcDbMText
 10
-39.4385313988
 20
-17.1021223902
 30
0.0
 40
2.5
 41
0.0
 71
     1
 72
     1
  1
±6
  7
SLDTEXTSTYLE3
 73
     1
 44
1.0
  0
MTEXT
  5
13B
330
11F
100
AcDbEntity
  8
0
  6
Continuous
 62
   179
370
     0
100
AcDbMText
 10
-39.4385313988
 20
-13.1021223902
 30
0.0
 40
2.5
 41
0.0
 71
     1
 72
     1
  1
±3
  7
SLDTEXTSTYLE3
 73
     1
 44
1.0
  0
MTEXT
  5
13C
330
11F
100
AcDbEntity
  8
0
  6
Continuous
 62
   179
370
     0
100
AcDbMText
 10
-72.8624444423
 20
-1.1021223902
 30
0.0
 40
2.5
 41
0.0
 71
     1
 72
     1
  1
>400 <=1000
  7
SLDTEXTSTYLE3
 73
     1
 44
1.0
  0
MTEXT
  5
13D
330
11F
100
AcDbEntity
  8
0
  6
Continuous
 62
   179
370
     0
100
AcDbMText
 10
-40.9059227031
 20
-9.1021223902
 30
0.0
 40
2.5
 41
0.0
 71
     1
 72
     1
  1
±1.2
  7
SLDTEXTSTYLE3
 73
     1
 44
1.0
  0
MTEXT
  5
13E
330
11F
100
AcDbEntity
  8
0
  6
Continuous
 62
   179
370
     0
100
AcDbMText
 10
-40.9059227031
 20
-5.1021223902
 30
0.0
 40
2.5
 41
0.0
 71
     1
 72
     1
  1
±0.5
  7
SLDTEXTSTYLE3
 73
     1
 44
1.0
  0
MTEXT
  5
13F
330
11F
100
AcDbEntity
  8
0
  6
Continuous
 62
   179
370
     0
100
AcDbMText
 10
-64.4385313988
 20
-17.1021223902
 30
0.0
 40
2.5
 41
0.0
 71
     1
 72
     1
  1
±4
  7
SLDTEXTSTYLE3
 73
     1
 44
1.0
  0
MTEXT
  5
140
330
11F
100
AcDbEntity
  8
0
  6
Continuous
 62
   179
370
     0
100
AcDbMText
 10
-48.8407053118
 20
-1.1021223902
 30
0.0
 40
2.5
 41
0.0
 71
     1
 72
     1
  1
>1000 <=2000
  7
SLDTEXTSTYLE3
 73
     1
 44
1.0
  0
MTEXT
  5
141
330
11F
100
AcDbEntity
  8
0
  6
Continuous
 62
   179
370
     0
100
AcDbMText
 10
-64.4385313988
 20
-13.1021223902
 30
0.0
 40
2.5
 41
0.0
 71
     1
 72
     1
  1
±2
  7
SLDTEXTSTYLE3
 73
     1
 44
1.0
  0
MTEXT
  5
142
330
11F
100
AcDbEntity
  8
0
  6
Continuous
 62
   179
370
     0
100
AcDbMText
 10
-65.9059227031
 20
-9.1021223902
 30
0.0
 40
2.5
 41
0.0
 71
     1
 72
     1
  1
±0.8
  7
SLDTEXTSTYLE3
 73
     1
 44
1.0
  0
MTEXT
  5
143
330
11F
100
AcDbEntity
  8
0
  6
Continuous
 62
   179
370
     0
100
AcDbMText
 10
-88.4059227031
 20
-9.1021223902
 30
0.0
 40
2.5
 41
0.0
 71
     1
 72
     1
  1
±0.5
  7
SLDTEXTSTYLE3
 73
     1
 44
1.0
  0
MTEXT
  5
144
330
11F
100
AcDbEntity
  8
0
  6
Continuous
 62
   179
370
     0
100
AcDbMText
 10
-108.4059227031
 20
-9.1021223902
 30
0.0
 40
2.5
 41
0.0
 71
     1
 72
     1
  1
±0.3
  7
SLDTEXTSTYLE3
 73
     1
 44
1.0
  0
MTEXT
  5
145
330
11F
100
AcDbEntity
  8
0
  6
Continuous
 62
   179
370
     0
100
AcDbMText
 10
-88.4059227031
 20
-5.1021223902
 30
0.0
 40
2.5
 41
0.0
 71
     1
 72
     1
  1
±0.2
  7
SLDTEXTSTYLE3
 73
     1
 44
1.0
  0
MTEXT
  5
146
330
11F
100
AcDbEntity
  8
0
  6
Continuous
 62
   179
370
     0
100
AcDbMText
 10
-108.4059227031
 20
-17.1021223902
 30
0.0
 40
2.5
 41
0.0
 71
     1
 72
     1
  1
±1.5
  7
SLDTEXTSTYLE3
 73
     1
 44
1.0
  0
MTEXT
  5
147
330
11F
100
AcDbEntity
  8
0
  6
Continuous
 62
   179
370
     0
100
AcDbMText
 10
-65.9059227031
 20
-5.1021223902
 30
0.0
 40
2.5
 41
0.0
 71
     1
 72
     1
  1
±0.3
  7
SLDTEXTSTYLE3
 73
     1
 44
1.0
  0
MTEXT
  5
148
330
11F
100
AcDbEntity
  8
0
  6
Continuous
 62
   179
370
     0
100
AcDbMText
 10
-88.4059227031
 20
-17.1021223902
 30
0.0
 40
2.5
 41
0.0
 71
     1
 72
     1
  1
±2.5
  7
SLDTEXTSTYLE3
 73
     1
 44
1.0
  0
MTEXT
  5
149
330
11F
100
AcDbEntity
  8
0
  6
Continuous
 62
   179
370
     0
100
AcDbMText
 10
-94.3841835727
 20
-1.1021223902
 30
0.0
 40
2.5
 41
0.0
 71
     1
 72
     1
  1
>120 <=400
  7
SLDTEXTSTYLE3
 73
     1
 44
1.0
  0
MTEXT
  5
14A
330
11F
100
AcDbEntity
  8
0
  6
Continuous
 62
   179
370
     0
100
AcDbMText
 10
-88.4059227031
 20
-13.1021223902
 30
0.0
 40
2.5
 41
0.0
 71
     1
 72
     1
  1
±1.2
  7
SLDTEXTSTYLE3
 73
     1
 44
1.0
  0
MTEXT
  5
14B
330
11F
100
AcDbEntity
  8
0
  6
Continuous
 62
   179
370
     0
100
AcDbMText
 10
-109.3841835727
 20
-5.1021223902
 30
0.0
 40
2.5
 41
0.0
 71
     1
 72
     1
  1
±0.15
  7
SLDTEXTSTYLE3
 73
     1
 44
1.0
  0
MTEXT
  5
14C
330
11F
100
AcDbEntity
  8
0
  6
Continuous
 62
   179
370
     0
100
AcDbMText
 10
-113.4059227031
 20
-1.1021223902
 30
0.0
 40
2.5
 41
0.0
 71
     1
 72
     1
  1
>30 <=120
  7
SLDTEXTSTYLE3
 73
     1
 44
1.0
  0
MTEXT
  5
14D
330
11F
100
AcDbEntity
  8
0
  6
Continuous
 62
   179
370
     0
100
AcDbMText
 10
-124.4385313988
 20
-17.1021223902
 30
0.0
 40
2.5
 41
0.0
 71
     1
 72
     1
  1
±1
  7
SLDTEXTSTYLE3
 73
     1
 44
1.0
  0
MTEXT
  5
14E
330
11F
100
AcDbEntity
  8
0
  6
Continuous
 62
   179
370
     0
100
AcDbMText
 10
-125.9059227031
 20
-9.1021223902
 30
0.0
 40
2.5
 41
0.0
 71
     1
 72
     1
  1
±0.2
  7
SLDTEXTSTYLE3
 73
     1
 44
1.0
  0
MTEXT
  5
14F
330
11F
100
AcDbEntity
  8
0
  6
Continuous
 62
   179
370
     0
100
AcDbMText
 10
-108.4059227031
 20
-13.1021223902
 30
0.0
 40
2.5
 41
0.0
 71
     1
 72
     1
  1
±0.8
  7
SLDTEXTSTYLE3
 73
     1
 44
1.0
  0
MTEXT
  5
150
330
11F
100
AcDbEntity
  8
0
  6
Continuous
 62
   179
370
     0
100
AcDbMText
 10
-125.9059227031
 20
-5.1021223902
 30
0.0
 40
2.5
 41
0.0
 71
     1
 72
     1
  1
±0.1
  7
SLDTEXTSTYLE3
 73
     1
 44
1.0
  0
MTEXT
  5
151
330
11F
100
AcDbEntity
  8
0
  6
Continuous
 62
   179
370
     0
100
AcDbMText
 10
-128.949400964
 20
-1.1021223902
 30
0.0
 40
2.5
 41
0.0
 71
     1
 72
     1
  1
>6 <=30
  7
SLDTEXTSTYLE3
 73
     1
 44
1.0
  0
MTEXT
  5
152
330
11F
100
AcDbEntity
  8
0
  6
Continuous
 62
   179
370
     0
100
AcDbMText
 10
-140.4983140075
 20
-1.1021223902
 30
0.0
 40
2.5
 41
0.0
 71
     1
 72
     1
  1
<=6
  7
SLDTEXTSTYLE3
 73
     1
 44
1.0
  0
MTEXT
  5
153
330
11F
100
AcDbEntity
  8
0
  6
Continuous
 62
   179
370
     0
100
AcDbMText
 10
-125.9059227031
 20
-13.1021223902
 30
0.0
 40
2.5
 41
0.0
 71
     1
 72
     1
  1
±0.5
  7
SLDTEXTSTYLE3
 73
     1
 44
1.0
  0
MTEXT
  5
154
330
11F
100
AcDbEntity
  8
0
  6
Continuous
 62
   179
370
     0
100
AcDbMText
 10
-140.9059227031
 20
-9.1021223902
 30
0.0
 40
2.5
 41
0.0
 71
     1
 72
     1
  1
±0.1
  7
SLDTEXTSTYLE3
 73
     1
 44
1.0
  0
MTEXT
  5
155
330
11F
100
AcDbEntity
  8
0
  6
Continuous
 62
   179
370
     0
100
AcDbMText
 10
-140.9059227031
 20
-17.1021223902
 30
0.0
 40
2.5
 41
0.0
 71
     1
 72
     1
  1
±0.5
  7
SLDTEXTSTYLE3
 73
     1
 44
1.0
  0
MTEXT
  5
156
330
11F
100
AcDbEntity
  8
0
  6
Continuous
 62
   179
370
     0
100
AcDbMText
 10
-140.9059227031
 20
-13.1021223902
 30
0.0
 40
2.5
 41
0.0
 71
     1
 72
     1
  1
±0.3
  7
SLDTEXTSTYLE3
 73
     1
 44
1.0
  0
MTEXT
  5
157
330
11F
100
AcDbEntity
  8
0
  6
Continuous
 62
   179
370
     0
100
AcDbMText
 10
-141.8841835727
 20
-5.1021223902
 30
0.0
 40
2.5
 41
0.0
 71
     1
 72
     1
  1
±0.05
  7
SLDTEXTSTYLE3
 73
     1
 44
1.0
  0
MTEXT
  5
158
330
11F
100
AcDbEntity
  8
0
  6
Continuous
 62
   179
370
     0
100
AcDbMText
 10
-174.7485158139
 20
-8.9932672184
 30
0.0
 40
2.5
 41
0.0
 71
     1
 72
     1
  1
Medium
  7
SLDTEXTSTYLE3
 73
     1
 44
1.0
  0
MTEXT
  5
159
330
11F
100
AcDbEntity
  8
0
  6
Continuous
 62
   179
370
     0
100
AcDbMText
 10
-174.7485158139
 20
-12.9932672184
 30
0.0
 40
2.5
 41
0.0
 71
     1
 72
     1
  1
Coarse
  7
SLDTEXTSTYLE3
 73
     1
 44
1.0
  0
MTEXT
  5
15A
330
11F
100
AcDbEntity
  8
0
  6
Continuous
 62
   179
370
     0
100
AcDbMText
 10
-151.7789943692
 20
-4.9932672184
 30
0.0
 40
2.5
 41
0.0
 71
     1
 72
     1
  1
(f)
  7
SLDTEXTSTYLE3
 73
     1
 44
1.0
  0
MTEXT
  5
15B
330
11F
100
AcDbEntity
  8
0
  6
Continuous
 62
   179
370
     0
100
AcDbMText
 10
-152.7844291518
 20
-8.9932672184
 30
0.0
 40
2.5
 41
0.0
 71
     1
 72
     1
  1
(m)
  7
SLDTEXTSTYLE3
 73
     1
 44
1.0
  0
MTEXT
  5
15C
330
11F
100
AcDbEntity
  8
0
  6
Continuous
 62
   179
370
     0
100
AcDbMText
 10
-152.1866030649
 20
-16.9932672184
 30
0.0
 40
2.5
 41
0.0
 71
     1
 72
     1
  1
(v)
  7
SLDTEXTSTYLE3
 73
     1
 44
1.0
  0
MTEXT
  5
15D
330
11F
100
AcDbEntity
  8
0
  6
Continuous
 62
   179
370
     0
100
AcDbMText
 10
-174.7485158139
 20
-16.9932672184
 30
0.0
 40
2.5
 41
0.0
 71
     1
 72
     1
  1
Very Coarse
  7
SLDTEXTSTYLE3
 73
     1
 44
1.0
  0
MTEXT
  5
15E
330
11F
100
AcDbEntity
  8
0
  6
Continuous
 62
   179
370
     0
100
AcDbMText
 10
-178.6122169322
 20
-18.8727771349
 30
0.0
 40
2.5
 41
0.0
 71
     1
 72
     1
  1
ISO 2768
  7
SLDTEXTSTYLE3
 11
6.123233995736766E-17
 21
1.0
 31
0.0
 73
     1
 44
1.0
  0
MTEXT
  5
15F
330
11F
100
AcDbEntity
  8
0
  6
Continuous
 62
   179
370
     0
100
AcDbMText
 10
-174.565631434
 20
-0.9932672184
 30
0.0
 40
2.5
 41
0.0
 71
     1
 72
     1
  1
Tolerance Class
  7
SLDTEXTSTYLE3
 73
     1
 44
1.0
  0
MTEXT
  5
160
330
11F
100
AcDbEntity
  8
0
  6
Continuous
 62
   179
370
     0
100
AcDbMText
 10
-174.7485158139
 20
-4.9932672184
 30
0.0
 40
2.5
 41
0.0
 71
     1
 72
     1
  1
Fine
  7
SLDTEXTSTYLE3
 73
     1
 44
1.0
  0
ENDBLK
  5
121
330
11F
100
AcDbEntity
  8
0
100
AcDbBlockEnd
  0
ENDSEC
  0
SECTION
  2
ENTITIES
  0
LINE
  5
161
330
1F
100
AcDbEntity
  8
0
  6
Continuous
 62
     7
370
    15
100
AcDbLine
 10
202.1859113894
 20
553.3269019284
 30
0.0
 11
179.1859113894
 21
553.3269019284
 31
0.0
  0
LINE
  5
162
330
1F
100
AcDbEntity
  8
0
  6
Continuous
 62
     7
370
    15
100
AcDbLine
 10
179.1859113894
 20
333.3269019284
 30
0.0
 11
202.1859113894
 21
333.3269019284
 31
0.0
  0
LINE
  5
163
330
1F
100
AcDbEntity
  8
0
  6
Continuous
 62
     7
370
    15
100
AcDbLine
 10
344.1859113894
 20
553.3269019284
 30
0.0
 11
321.1859113894
 21
553.3269019284
 31
0.0
  0
LINE
  5
164
330
1F
100
AcDbEntity
  8
0
  6
Continuous
 62
     7
370
    15
100
AcDbLine
 10
321.1859113894
 20
333.3269019284
 30
0.0
 11
344.1859113894
 21
333.3269019284
 31
0.0
  0
LINE
  5
165
330
1F
100
AcDbEntity
  8
0
  6
Continuous
 62
     7
370
    15
100
AcDbLine
 10
179.1859113894
 20
530.3269019284
 30
0.0
 11
176.6859113894
 21
530.3269019284
 31
0.0
  0
LINE
  5
166
330
1F
100
AcDbEntity
  8
0
  6
Continuous
 62
     7
370
    15
100
AcDbLine
 10
176.6859113894
 20
356.3269019284
 30
0.0
 11
179.1859113894
 21
356.3269019284
 31
0.0
  0
LINE
  5
167
330
1F
100
AcDbEntity
  8
0
  6
Continuous
 62
     7
370
    15
100
AcDbLine
 10
346.6859113894
 20
530.3269019284
 30
0.0
 11
344.1859113894
 21
530.3269019284
 31
0.0
  0
LINE
  5
168
330
1F
100
AcDbEntity
  8
0
  6
Continuous
 62
     7
370
    15
100
AcDbLine
 10
344.1859113894
 20
356.3269019284
 30
0.0
 11
346.6859113894
 21
356.3269019284
 31
0.0
  0
ARC
  5
169
330
1F
100
AcDbEntity
  8
0
  6
Continuous
 62
     7
370
    15
100
AcDbCircle
 10
201.1859113894
 20
519.3269019284
 30
0.0
 40
3.999999999999972
100
AcDbArc
 50
0.0
 51
75.5224878141
  0
ARC
  5
16A
330
1F
100
AcDbEntity
  8
0
  6
Continuous
 62
     7
370
    15
100
AcDbCircle
 10
201.1859113894
 20
367.3269019284
 30
0.0
 40
3.999999999999972
100
AcDbArc
 50
284.4775121859
 51
0.0
  0
ARC
  5
16B
330
1F
100
AcDbEntity
  8
0
  6
Continuous
 62
     7
370
    15
100
AcDbCircle
 10
212.1859113894
 20
519.3269019284
 30
0.0
 40
4.0
100
AcDbArc
 50
0.0
 51
180.0
  0
ARC
  5
16C
330
1F
100
AcDbEntity
  8
0
  6
Continuous
 62
     7
370
    15
100
AcDbCircle
 10
212.1859113894
 20
367.3269019284
 30
0.0
 40
4.0
100
AcDbArc
 50
180.0
 51
0.0
  0
ARC
  5
16D
330
1F
100
AcDbEntity
  8
0
  6
Continuous
 62
     7
370
    15
100
AcDbCircle
 10
256.1859113894
 20
519.3269019284
 30
0.0
 40
4.000000000000057
100
AcDbArc
 50
0.0
 51
180.0
  0
ARC
  5
16E
330
1F
100
AcDbEntity
  8
0
  6
Continuous
 62
     7
370
    15
100
AcDbCircle
 10
256.1859113894
 20
367.3269019284
 30
0.0
 40
4.0
100
AcDbArc
 50
180.0
 51
0.0
  0
ARC
  5
16F
330
1F
100
AcDbEntity
  8
0
  6
Continuous
 62
     7
370
    15
100
AcDbCircle
 10
245.1859113894
 20
519.3269019284
 30
0.0
 40
4.0
100
AcDbArc
 50
0.0
 51
180.0
  0
ARC
  5
170
330
1F
100
AcDbEntity
  8
0
  6
Continuous
 62
     7
370
    15
100
AcDbCircle
 10
245.1859113894
 20
367.3269019284
 30
0.0
 40
4.0
100
AcDbArc
 50
180.0
 51
0.0
  0
ARC
  5
171
330
1F
100
AcDbEntity
  8
0
  6
Continuous
 62
     7
370
    15
100
AcDbCircle
 10
300.1859113894
 20
519.3269019284
 30
0.0
 40
4.0
100
AcDbArc
 50
0.0
 51
180.0
  0
ARC
  5
172
330
1F
100
AcDbEntity
  8
0
  6
Continuous
 62
     7
370
    15
100
AcDbCircle
 10
300.1859113894
 20
367.3269019284
 30
0.0
 40
4.0
100
AcDbArc
 50
180.0
 51
0.0
  0
ARC
  5
173
330
1F
100
AcDbEntity
  8
0
  6
Continuous
 62
     7
370
    15
100
AcDbCircle
 10
311.1859113894
 20
519.3269019284
 30
0.0
 40
4.0
100
AcDbArc
 50
0.0
 51
180.0
  0
ARC
  5
174
330
1F
100
AcDbEntity
  8
0
  6
Continuous
 62
     7
370
    15
100
AcDbCircle
 10
311.1859113894
 20
367.3269019284
 30
0.0
 40
4.0
100
AcDbArc
 50
180.0
 51
0.0
  0
ARC
  5
175
330
1F
100
AcDbEntity
  8
0
  6
Continuous
 62
     7
370
    15
100
AcDbCircle
 10
289.1859113894
 20
519.3269019284
 30
0.0
 40
4.0
100
AcDbArc
 50
0.0
 51
180.0
  0
ARC
  5
176
330
1F
100
AcDbEntity
  8
0
  6
Continuous
 62
     7
370
    15
100
AcDbCircle
 10
289.1859113894
 20
367.3269019284
 30
0.0
 40
4.0
100
AcDbArc
 50
180.0
 51
0.0
  0
ARC
  5
177
330
1F
100
AcDbEntity
  8
0
  6
Continuous
 62
     7
370
    15
100
AcDbCircle
 10
278.1859113894
 20
519.3269019284
 30
0.0
 40
4.0
100
AcDbArc
 50
0.0
 51
180.0
  0
ARC
  5
178
330
1F
100
AcDbEntity
  8
0
  6
Continuous
 62
     7
370
    15
100
AcDbCircle
 10
278.1859113894
 20
367.3269019284
 30
0.0
 40
4.0
100
AcDbArc
 50
180.0
 51
0.0
  0
ARC
  5
179
330
1F
100
AcDbEntity
  8
0
  6
Continuous
 62
     7
370
    15
100
AcDbCircle
 10
234.1859113894
 20
519.3269019284
 30
0.0
 40
4.0
100
AcDbArc
 50
0.0
 51
180.0
  0
ARC
  5
17A
330
1F
100
AcDbEntity
  8
0
  6
Continuous
 62
     7
370
    15
100
AcDbCircle
 10
234.1859113894
 20
367.3269019284
 30
0.0
 40
4.0
100
AcDbArc
 50
180.0
 51
0.0
  0
ARC
  5
17B
330
1F
100
AcDbEntity
  8
0
  6
Continuous
 62
     7
370
    15
100
AcDbCircle
 10
267.1859113894
 20
519.3269019284
 30
0.0
 40
4.0
100
AcDbArc
 50
0.0
 51
180.0
  0
ARC
  5
17C
330
1F
100
AcDbEntity
  8
0
  6
Continuous
 62
     7
370
    15
100
AcDbCircle
 10
267.1859113894
 20
367.3269019284
 30
0.0
 40
4.0
100
AcDbArc
 50
180.0
 51
0.0
  0
ARC
  5
17D
330
1F
100
AcDbEntity
  8
0
  6
Continuous
 62
     7
370
    15
100
AcDbCircle
 10
223.1859113894
 20
519.3269019284
 30
0.0
 40
3.999999999999972
100
AcDbArc
 50
0.0
 51
180.0
  0
ARC
  5
17E
330
1F
100
AcDbEntity
  8
0
  6
Continuous
 62
     7
370
    15
100
AcDbCircle
 10
223.1859113894
 20
367.3269019284
 30
0.0
 40
4.0
100
AcDbArc
 50
180.0
 51
0.0
  0
ARC
  5
17F
330
1F
100
AcDbEntity
  8
0
  6
Continuous
 62
     7
370
    15
100
AcDbCircle
 10
322.1859113894
 20
519.3269019284
 30
0.0
 40
4.0
100
AcDbArc
 50
104.4775121859
 51
180.0
  0
ARC
  5
180
330
1F
100
AcDbEntity
  8
0
  6
Continuous
 62
     7
370
    15
100
AcDbCircle
 10
322.1859113894
 20
367.3269019284
 30
0.0
 40
4.0
100
AcDbArc
 50
180.0
 51
255.5224878141
  0
ARC
  5
181
330
1F
100
AcDbEntity
  8
0
  6
Continuous
 62
     7
370
    15
100
AcDbCircle
 10
228.6859113894
 20
493.3269019284
 30
0.0
 40
1.5
100
AcDbArc
 50
180.0
 51
0.0
  0
ARC
  5
182
330
1F
100
AcDbEntity
  8
0
  6
Continuous
 62
     7
370
    15
100
AcDbCircle
 10
228.6859113894
 20
393.3269019284
 30
0.0
 40
1.5
100
AcDbArc
 50
0.0
 51
180.0
  0
ARC
  5
183
330
1F
100
AcDbEntity
  8
0
  6
Continuous
 62
     7
370
    15
100
AcDbCircle
 10
239.6859113894
 20
493.3269019284
 30
0.0
 40
1.5
100
AcDbArc
 50
180.0
 51
0.0
  0
ARC
  5
184
330
1F
100
AcDbEntity
  8
0
  6
Continuous
 62
     7
370
    15
100
AcDbCircle
 10
239.6859113894
 20
393.3269019284
 30
0.0
 40
1.5
100
AcDbArc
 50
0.0
 51
180.0
  0
ARC
  5
185
330
1F
100
AcDbEntity
  8
0
  6
Continuous
 62
     7
370
    15
100
AcDbCircle
 10
217.6859113894
 20
493.3269019284
 30
0.0
 40
1.5
100
AcDbArc
 50
180.0
 51
0.0
  0
ARC
  5
186
330
1F
100
AcDbEntity
  8
0
  6
Continuous
 62
     7
370
    15
100
AcDbCircle
 10
217.6859113894
 20
393.3269019284
 30
0.0
 40
1.5
100
AcDbArc
 50
0.0
 51
180.0
  0
ARC
  5
187
330
1F
100
AcDbEntity
  8
0
  6
Continuous
 62
     7
370
    15
100
AcDbCircle
 10
206.6859113894
 20
493.3269019284
 30
0.0
 40
1.5
100
AcDbArc
 50
180.0
 51
0.0
  0
ARC
  5
188
330
1F
100
AcDbEntity
  8
0
  6
Continuous
 62
     7
370
    15
100
AcDbCircle
 10
206.6859113894
 20
393.3269019284
 30
0.0
 40
1.5
100
AcDbArc
 50
0.0
 51
180.0
  0
ARC
  5
189
330
1F
100
AcDbEntity
  8
0
  6
Continuous
 62
     7
370
    15
100
AcDbCircle
 10
283.6859113894
 20
493.3269019284
 30
0.0
 40
1.5
100
AcDbArc
 50
180.0
 51
0.0
  0
ARC
  5
18A
330
1F
100
AcDbEntity
  8
0
  6
Continuous
 62
     7
370
    15
100
AcDbCircle
 10
283.6859113894
 20
393.3269019284
 30
0.0
 40
1.5
100
AcDbArc
 50
0.0
 51
180.0
  0
ARC
  5
18B
330
1F
100
AcDbEntity
  8
0
  6
Continuous
 62
     7
370
    15
100
AcDbCircle
 10
250.6859113894
 20
493.3269019284
 30
0.0
 40
1.5
100
AcDbArc
 50
180.0
 51
0.0
  0
ARC
  5
18C
330
1F
100
AcDbEntity
  8
0
  6
Continuous
 62
     7
370
    15
100
AcDbCircle
 10
250.6859113894
 20
393.3269019284
 30
0.0
 40
1.5
100
AcDbArc
 50
0.0
 51
180.0
  0
ARC
  5
18D
330
1F
100
AcDbEntity
  8
0
  6
Continuous
 62
     7
370
    15
100
AcDbCircle
 10
261.6859113894
 20
493.3269019284
 30
0.0
 40
1.500000000000057
100
AcDbArc
 50
180.0
 51
0.0
  0
ARC
  5
18E
330
1F
100
AcDbEntity
  8
0
  6
Continuous
 62
     7
370
    15
100
AcDbCircle
 10
261.6859113894
 20
393.3269019284
 30
0.0
 40
1.500000000000057
100
AcDbArc
 50
0.0
 51
180.0
  0
ARC
  5
18F
330
1F
100
AcDbEntity
  8
0
  6
Continuous
 62
     7
370
    15
100
AcDbCircle
 10
272.6859113894
 20
493.3269019284
 30
0.0
 40
1.5
100
AcDbArc
 50
180.0
 51
0.0
  0
ARC
  5
190
330
1F
100
AcDbEntity
  8
0
  6
Continuous
 62
     7
370
    15
100
AcDbCircle
 10
272.6859113894
 20
393.3269019284
 30
0.0
 40
1.5
100
AcDbArc
 50
0.0
 51
180.0
  0
ARC
  5
191
330
1F
100
AcDbEntity
  8
0
  6
Continuous
 62
     7
370
    15
100
AcDbCircle
 10
294.6859113894
 20
493.3269019284
 30
0.0
 40
1.5
100
AcDbArc
 50
180.0
 51
0.0
  0
ARC
  5
192
330
1F
100
AcDbEntity
  8
0
  6
Continuous
 62
     7
370
    15
100
AcDbCircle
 10
294.6859113894
 20
393.3269019284
 30
0.0
 40
1.5
100
AcDbArc
 50
0.0
 51
180.0
  0
ARC
  5
193
330
1F
100
AcDbEntity
  8
0
  6
Continuous
 62
     7
370
    15
100
AcDbCircle
 10
305.6859113894
 20
493.3269019284
 30
0.0
 40
1.5
100
AcDbArc
 50
180.0
 51
0.0
  0
ARC
  5
194
330
1F
100
AcDbEntity
  8
0
  6
Continuous
 62
     7
370
    15
100
AcDbCircle
 10
305.6859113894
 20
393.3269019284
 30
0.0
 40
1.5
100
AcDbArc
 50
0.0
 51
180.0
  0
ARC
  5
195
330
1F
100
AcDbEntity
  8
0
  6
Continuous
 62
     7
370
    15
100
AcDbCircle
 10
316.6859113894
 20
493.3269019284
 30
0.0
 40
1.5
100
AcDbArc
 50
180.0
 51
0.0
  0
ARC
  5
196
330
1F
100
AcDbEntity
  8
0
  6
Continuous
 62
     7
370
    15
100
AcDbCircle
 10
316.6859113894
 20
393.3269019284
 30
0.0
 40
1.5
100
AcDbArc
 50
0.0
 51
180.0
  0
LINE
  5
197
330
1F
100
AcDbEntity
  8
0
  6
Continuous
 62
     7
370
    15
100
AcDbLine
 10
202.1859113894
 20
553.3269019284
 30
0.0
 11
202.1859113894
 21
333.3269019284
 31
0.0
  0
LINE
  5
198
330
1F
100
AcDbEntity
  8
0
  6
Continuous
 62
     7
370
    15
100
AcDbLine
 10
179.1859113894
 20
553.3269019284
 30
0.0
 11
179.1859113894
 21
333.3269019284
 31
0.0
  0
LINE
  5
199
330
1F
100
AcDbEntity
  8
0
  6
Continuous
 62
     7
370
    15
100
AcDbLine
 10
344.1859113894
 20
553.3269019284
 30
0.0
 11
344.1859113894
 21
333.3269019284
 31
0.0
  0
LINE
  5
19A
330
1F
100
AcDbEntity
  8
0
  6
Continuous
 62
     7
370
    15
100
AcDbLine
 10
321.1859113894
 20
553.3269019284
 30
0.0
 11
321.1859113894
 21
333.3269019284
 31
0.0
  0
LINE
  5
19B
330
1F
100
AcDbEntity
  8
0
  6
Continuous
 62
     7
370
    15
100
AcDbLine
 10
176.6859113894
 20
530.3269019284
 30
0.0
 11
176.6859113894
 21
356.3269019284
 31
0.0
  0
LINE
  5
19C
330
1F
100
AcDbEntity
  8
0
  6
Continuous
 62
     7
370
    15
100
AcDbLine
 10
346.6859113894
 20
530.3269019284
 30
0.0
 11
346.6859113894
 21
356.3269019284
 31
0.0
  0
LINE
  5
19D
330
1F
100
AcDbEntity
  8
0
  6
Continuous
 62
     7
370
    15
100
AcDbLine
 10
205.1859113894
 20
519.3269019284
 30
0.0
 11
205.1859113894
 21
367.326901933
 31
0.0
  0
LINE
  5
19E
330
1F
100
AcDbEntity
  8
0
  6
Continuous
 62
     7
370
    15
100
AcDbLine
 10
216.1859113894
 20
519.3269019284
 30
0.0
 11
216.1859113894
 21
367.326901933
 31
0.0
  0
LINE
  5
19F
330
1F
100
AcDbEntity
  8
0
  6
Continuous
 62
     7
370
    15
100
AcDbLine
 10
208.1859113894
 20
519.3269019284
 30
0.0
 11
208.1859113894
 21
367.326901933
 31
0.0
  0
LINE
  5
1A0
330
1F
100
AcDbEntity
  8
0
  6
Continuous
 62
     7
370
    15
100
AcDbLine
 10
260.1859113894
 20
519.3269019284
 30
0.0
 11
260.1859113894
 21
367.326901933
 31
0.0
  0
LINE
  5
1A1
330
1F
100
AcDbEntity
  8
0
  6
Continuous
 62
     7
370
    15
100
AcDbLine
 10
252.1859113894
 20
519.3269019284
 30
0.0
 11
252.1859113894
 21
367.326901933
 31
0.0
  0
LINE
  5
1A2
330
1F
100
AcDbEntity
  8
0
  6
Continuous
 62
     7
370
    15
100
AcDbLine
 10
249.1859113894
 20
519.3269019284
 30
0.0
 11
249.1859113894
 21
367.326901933
 31
0.0
  0
LINE
  5
1A3
330
1F
100
AcDbEntity
  8
0
  6
Continuous
 62
     7
370
    15
100
AcDbLine
 10
241.1859113894
 20
519.3269019284
 30
0.0
 11
241.1859113894
 21
367.326901933
 31
0.0
  0
LINE
  5
1A4
330
1F
100
AcDbEntity
  8
0
  6
Continuous
 62
     7
370
    15
100
AcDbLine
 10
304.1859113894
 20
519.3269019284
 30
0.0
 11
304.1859113894
 21
367.326901933
 31
0.0
  0
LINE
  5
1A5
330
1F
100
AcDbEntity
  8
0
  6
Continuous
 62
     7
370
    15
100
AcDbLine
 10
296.1859113894
 20
519.3269019284
 30
0.0
 11
296.1859113894
 21
367.326901933
 31
0.0
  0
LINE
  5
1A6
330
1F
100
AcDbEntity
  8
0
  6
Continuous
 62
     7
370
    15
100
AcDbLine
 10
315.1859113894
 20
519.3269019284
 30
0.0
 11
315.1859113894
 21
367.326901933
 31
0.0
  0
LINE
  5
1A7
330
1F
100
AcDbEntity
  8
0
  6
Continuous
 62
     7
370
    15
100
AcDbLine
 10
307.1859113894
 20
519.3269019284
 30
0.0
 11
307.1859113894
 21
367.326901933
 31
0.0
  0
LINE
  5
1A8
330
1F
100
AcDbEntity
  8
0
  6
Continuous
 62
     7
370
    15
100
AcDbLine
 10
293.1859113894
 20
519.3269019284
 30
0.0
 11
293.1859113894
 21
367.326901933
 31
0.0
  0
LINE
  5
1A9
330
1F
100
AcDbEntity
  8
0
  6
Continuous
 62
     7
370
    15
100
AcDbLine
 10
285.1859113894
 20
519.3269019284
 30
0.0
 11
285.1859113894
 21
367.326901933
 31
0.0
  0
LINE
  5
1AA
330
1F
100
AcDbEntity
  8
0
  6
Continuous
 62
     7
370
    15
100
AcDbLine
 10
282.1859113894
 20
519.3269019284
 30
0.0
 11
282.1859113894
 21
367.326901933
 31
0.0
  0
LINE
  5
1AB
330
1F
100
AcDbEntity
  8
0
  6
Continuous
 62
     7
370
    15
100
AcDbLine
 10
274.1859113894
 20
519.3269019284
 30
0.0
 11
274.1859113894
 21
367.326901933
 31
0.0
  0
LINE
  5
1AC
330
1F
100
AcDbEntity
  8
0
  6
Continuous
 62
     7
370
    15
100
AcDbLine
 10
238.1859113894
 20
519.3269019284
 30
0.0
 11
238.1859113894
 21
367.326901933
 31
0.0
  0
LINE
  5
1AD
330
1F
100
AcDbEntity
  8
0
  6
Continuous
 62
     7
370
    15
100
AcDbLine
 10
230.1859113894
 20
519.3269019284
 30
0.0
 11
230.1859113894
 21
367.326901933
 31
0.0
  0
LINE
  5
1AE
330
1F
100
AcDbEntity
  8
0
  6
Continuous
 62
     7
370
    15
100
AcDbLine
 10
271.1859113894
 20
519.3269019284
 30
0.0
 11
271.1859113894
 21
367.326901933
 31
0.0
  0
LINE
  5
1AF
330
1F
100
AcDbEntity
  8
0
  6
Continuous
 62
     7
370
    15
100
AcDbLine
 10
263.1859113894
 20
519.3269019284
 30
0.0
 11
263.1859113894
 21
367.326901933
 31
0.0
  0
LINE
  5
1B0
330
1F
100
AcDbEntity
  8
0
  6
Continuous
 62
     7
370
    15
100
AcDbLine
 10
227.1859113894
 20
519.3269019284
 30
0.0
 11
227.1859113894
 21
367.326901933
 31
0.0
  0
LINE
  5
1B1
330
1F
100
AcDbEntity
  8
0
  6
Continuous
 62
     7
370
    15
100
AcDbLine
 10
219.1859113894
 20
519.3269019284
 30
0.0
 11
219.1859113894
 21
367.326901933
 31
0.0
  0
LINE
  5
1B2
330
1F
100
AcDbEntity
  8
0
  6
Continuous
 62
     7
370
    15
100
AcDbLine
 10
318.1859113894
 20
519.3269019284
 30
0.0
 11
318.1859113894
 21
367.326901933
 31
0.0
  0
CIRCLE
  5
1B3
330
1F
100
AcDbEntity
  8
0
  6
Continuous
 62
     7
370
    15
100
AcDbCircle
 10
608.9472985043
 20
443.3269019284
 30
0.0
 40
46.00000000000011
  0
CIRCLE
  5
1B4
330
1F
100
AcDbEntity
  8
0
  6
Continuous
 62
     7
370
    15
100
AcDbCircle
 10
608.9472985043
 20
443.3269019284
 30
0.0
 40
70.49999999999739
  0
CIRCLE
  5
1B5
330
1F
100
AcDbEntity
  8
0
  6
Continuous
 62
     7
370
    15
100
AcDbCircle
 10
608.9472985043
 20
443.3269019284
 30
0.0
 40
87.0
  0
CIRCLE
  5
1B6
330
1F
100
AcDbEntity
  8
0
  6
Continuous
 62
     7
370
    15
100
AcDbCircle
 10
608.9472985043
 20
443.3269019284
 30
0.0
 40
67.67157287525112
  0
CIRCLE
  5
1B7
330
1F
100
AcDbEntity
  8
0
  6
Continuous
 62
     7
370
    15
100
AcDbCircle
 10
608.9472985043
 20
443.3269019284
 30
0.0
 40
61.67157287525248
  0
CIRCLE
  5
1B8
330
1F
100
AcDbEntity
  8
0
  6
Continuous
 62
     7
370
    15
100
AcDbCircle
 10
608.9472985043
 20
540.8269019284
 30
0.0
 40
6.5
  0
CIRCLE
  5
1B9
330
1F
100
AcDbEntity
  8
0
  6
Continuous
 62
     7
370
    15
100
AcDbCircle
 10
677.89020967
 20
512.2698130941
 30
0.0
 40
6.499999999999972
  0
CIRCLE
  5
1BA
330
1F
100
AcDbEntity
  8
0
  6
Continuous
 62
     7
370
    15
100
AcDbCircle
 10
540.0043873386
 20
512.2698130941
 30
0.0
 40
6.499999999999932
  0
CIRCLE
  5
1BB
330
1F
100
AcDbEntity
  8
0
  6
Continuous
 62
     7
370
    15
100
AcDbCircle
 10
511.4472985043
 20
443.3269019284
 30
0.0
 40
6.500000000000057
  0
CIRCLE
  5
1BC
330
1F
100
AcDbEntity
  8
0
  6
Continuous
 62
     7
370
    15
100
AcDbCircle
 10
540.0043873386
 20
374.3839907627
 30
0.0
 40
6.500000000000012
  0
CIRCLE
  5
1BD
330
1F
100
AcDbEntity
  8
0
  6
Continuous
 62
     7
370
    15
100
AcDbCircle
 10
608.9472985043
 20
345.8269019284
 30
0.0
 40
6.5
  0
CIRCLE
  5
1BE
330
1F
100
AcDbEntity
  8
0
  6
Continuous
 62
     7
370
    15
100
AcDbCircle
 10
677.89020967
 20
374.3839907627
 30
0.0
 40
6.500000000000012
  0
CIRCLE
  5
1BF
330
1F
100
AcDbEntity
  8
0
  6
Continuous
 62
     7
370
    15
100
AcDbCircle
 10
706.4472985043
 20
443.3269019284
 30
0.0
 40
6.500000000000114
  0
CIRCLE
  5
1C0
330
1F
100
AcDbEntity
  8
0
  6
Continuous
 62
     7
370
    15
100
AcDbCircle
 10
608.9472985043
 20
443.3269019284
 30
0.0
 40
110.0
  0
CIRCLE
  5
1C1
330
1F
100
AcDbEntity
  8
0
  6
Continuous
 62
     7
370
    15
100
AcDbCircle
 10
608.9472985043
 20
443.3269019284
 30
0.0
 40
60.49999999999909
  0
CIRCLE
  5
1C2
330
1F
100
AcDbEntity
  8
0
  6
Continuous
 62
     7
370
    15
100
AcDbCircle
 10
608.9472985043
 20
443.3269019284
 30
0.0
 40
59.0
  0
CIRCLE
  5
1C3
330
1F
100
AcDbEntity
  8
0
  6
Continuous
 62
     7
370
    15
100
AcDbCircle
 10
608.9472985043
 20
443.3269019284
 30
0.0
 40
50.0
  0
LINE
  5
1C4
330
1F
100
AcDbEntity
  8
0
  6
Continuous
 62
     7
370
    15
100
AcDbLine
 10
734.3720704082
 20
214.0988763023
 30
0.0
 11
718.1086144409
 21
223.4875695883
 31
0.0
  0
LINE
  5
1C5
330
1F
100
AcDbEntity
  8
0
  6
Continuous
 62
     7
370
    15
100
AcDbLine
 10
608.1175538509
 20
32.9568198645
 30
0.0
 11
624.3810098182
 21
23.5681265785
 31
0.0
  0
LINE
  5
1C6
330
1F
100
AcDbEntity
  8
0
  6
Continuous
 62
     7
370
    15
100
AcDbLine
 10
724.6407719358
 20
193.1592423278
 30
0.0
 11
722.8730049829
 21
194.1797524675
 31
0.0
  0
LINE
  5
1C7
330
1F
100
AcDbEntity
  8
0
  6
Continuous
 62
     7
370
    15
100
AcDbLine
 10
635.8800752435
 20
43.4872504133
 30
0.0
 11
637.6478421965
 21
42.4667402735
 31
0.0
  0
SPLINE
  5
1C8
330
1F
100
AcDbEntity
  8
0
  6
Continuous
 62
     7
370
    15
100
AcDbSpline
210
0.0
220
0.0
230
1.0
 70
     8
 71
     3
 72
    10
 73
     6
 74
     0
 42
0.000000001
 43
0.00000001
 40
0.0
 40
0.0
 40
0.0
 40
0.0
 40
0.3640328163071511
 40
0.9136705695998267
 40
1.0
 40
1.0
 40
1.0
 40
1.0
 10
675.7930844471489
 20
170.6649712525752
 30
0.0
 10
676.3419223896841
 20
171.0445054917744
 30
0.0
 10
677.7194275296354
 20
171.997082427089
 30
0.0
 10
679.228606890965
 20
172.916337975674
 30
0.0
 10
680.1857851464978
 20
173.472273753665
 30
0.0
 10
680.3157174066998
 20
173.5477393127122
 30
0.0
  0
SPLINE
  5
1C9
330
1F
100
AcDbEntity
  8
0
  6
Continuous
 62
     7
370
    15
100
AcDbSpline
210
0.0
220
0.0
230
1.0
 70
     8
 71
     3
 72
    32
 73
    28
 74
     0
 42
0.000000001
 43
0.00000001
 40
0.0
 40
0.0
 40
0.0
 40
0.0
 40
0.0194342160582924
 40
0.0612438413155937
 40
0.1030889213617526
 40
0.1449694465907141
 40
0.1868838758001531
 40
0.2288296124667077
 40
0.2708033484608063
 40
0.3128013075388869
 40
0.3548194141074087
 40
0.3968534070166593
 40
0.438898913549307
 40
0.4809514952245306
 40
0.5230066744066518
 40
0.5650592726394538
 40
0.6071039479824906
 40
0.6491361780678893
 40
0.6911514504870525
 40
0.7331452895393551
 40
0.775113302710893
 40
0.8170512557772942
 40
0.8589551883270367
 40
0.9008215850718739
 40
0.942647622890027
 40
0.9844315191756421
 40
1.0
 40
1.0
 40
1.0
 40
1.0
 10
632.9552792345788
 20
98.62558846030163
 30
0.0
 10
633.0092257061548
 20
99.12636563977784
 30
0.0
 10
633.179229432306
 20
100.7044852831079
 30
0.0
 10
633.6231354777261
 20
103.4322621355898
 30
0.0
 10
634.2792226692453
 20
106.7923636632914
 30
0.0
 10
635.0888138082427
 20
110.2006360683825
 30
0.0
 10
636.0393914880984
 20
113.6405098056997
 30
0.0
 10
637.13111984196
 20
117.1015521181979
 30
0.0
 10
638.3600348973683
 20
120.5715660058679
 30
0.0
 10
639.7225770694132
 20
124.0387794065903
 30
0.0
 10
641.2144003798635
 20
127.4913219192422
 30
0.0
 10
642.8307181527496
 20
130.9174246897786
 30
0.0
 10
644.5662372484725
 20
134.3054228644404
 30
0.0
 10
646.4152029573803
 20
137.6438083724684
 30
0.0
 10
648.3714038972622
 20
140.9212496796603
 30
0.0
 10
650.4281900239206
 20
144.1266304597587
 30
0.0
 10
652.5785053026451
 20
147.249111823245
 30
0.0
 10
654.8149237763031
 20
150.2781903266257
 30
0.0
 10
657.129678516586
 20
153.2037296535545
 30
0.0
 10
659.5146708588126
 20
156.0160100203861
 30
0.0
 10
661.9614986036404
 20
158.7056523843941
 30
0.0
 10
664.4614695782561
 20
161.2640916541675
 30
0.0
 10
667.0056785378678
 20
163.6820086926123
 30
0.0
 10
669.58486036668
 20
165.9553775085483
 30
0.0
 10
672.1900943979726
 20
168.063137223091
 30
0.0
 10
674.2632568037106
 20
169.6356373664037
 30
0.0
 10
675.4664688119778
 20
170.4452101948658
 30
0.0
 10
675.7930844471489
 20
170.6649712525752
 30
0.0
  0
SPLINE
  5
1CA
330
1F
100
AcDbEntity
  8
0
  6
Continuous
 62
     7
370
    15
100
AcDbSpline
210
0.0
220
0.0
230
1.0
 70
     8
 71
     3
 72
    26
 73
    22
 74
     0
 42
0.000000001
 43
0.00000001
 40
0.0
 40
0.0
 40
0.0
 40
0.0
 40
0.0393371507345045
 40
0.0957702630487087
 40
0.1521726231666374
 40
0.2085475050338175
 40
0.2648986948663026
 40
0.3212303174902729
 40
0.377546716997843
 40
0.433852377140627
 40
0.4901518700032418
 40
0.5464498239253288
 40
0.6027504247995509
 40
0.6590572821309212
 40
0.715375095444815
 40
0.7717085596738253
 40
0.828062338236827
 40
0.8844410199283239
 40
0.9408490508739279
 40
0.9972906307758179
 40
1.0
 40
1.0
 40
1.0
 40
1.0
 10
629.0615819574526
 20
189.258598986346
 30
0.0
 10
628.4036258443454
 20
188.6334551361878
 30
0.0
 10
626.8017652914018
 20
187.1114793485412
 30
0.0
 10
624.3209673862859
 20
184.5322334928092
 30
0.0
 10
621.619699752749
 20
181.5539558926764
 30
0.0
 10
618.9933184831856
 20
178.4502869107143
 30
0.0
 10
616.4460789844992
 20
175.2363278117117
 30
0.0
 10
613.9851937613454
 20
171.9189846163033
 30
0.0
 10
611.6168494258081
 20
168.5076550663985
 30
0.0
 10
609.347253521792
 20
165.0113441427312
 30
0.0
 10
607.1823351830933
 20
161.4394112224184
 30
0.0
 10
605.1278084110096
 20
157.8013518239614
 30
0.0
 10
603.1891551817632
 20
154.1068453437337
 30
0.0
 10
601.3715533054194
 20
150.3656834942529
 30
0.0
 10
599.6800383135525
 20
146.5877709550178
 30
0.0
 10
598.1188184044353
 20
142.7829546692489
 30
0.0
 10
596.6937883208655
 20
138.9615025889876
 30
0.0
 10
595.4031513101827
 20
135.1322831979731
 30
0.0
 10
594.2724157872642
 20
131.3094461524664
 30
0.0
 10
593.5566904150165
 20
128.7010464550076
 30
0.0
 10
593.2615900835593
 20
127.3789418148626
 30
0.0
 10
593.248073212437
 20
127.3183837058874
 30
0.0
  0
SPLINE
  5
1CB
330
1F
100
AcDbEntity
  8
0
  6
Continuous
 62
     7
370
    15
100
AcDbSpline
210
0.0
220
0.0
230
1.0
 70
     8
 71
     3
 72
    18
 73
    14
 74
     0
 42
0.000000001
 43
0.00000001
 40
0.0
 40
0.0
 40
0.0
 40
0.0
 40
0.0651614146848156
 40
0.1633131825125172
 40
0.2608817896583062
 40
0.3573098980365209
 40
0.4523771282998679
 40
0.54614277847124
 40
0.638816285101861
 40
0.73065116565129
 40
0.8218860296507771
 40
0.9127206863287393
 40
1.0
 40
1.0
 40
1.0
 40
1.0
 10
643.8710746174743
 20
69.50072267589772
 30
0.0
 10
643.4958925799468
 20
69.71593705978079
 30
0.0
 10
642.5555788549223
 20
70.25532599300792
 30
0.0
 10
641.176728538181
 20
71.33273730625176
 30
0.0
 10
639.7239736363442
 20
72.70290681007013
 30
0.0
 10
638.3987690202057
 20
74.25586571099011
 30
0.0
 10
637.2006010302413
 20
75.97294679999919
 30
0.0
 10
636.1330591974701
 20
77.84839644409497
 30
0.0
 10
635.1972851152193
 20
79.87531975456697
 30
0.0
 10
634.3936084260832
 20
82.04736137650482
 30
0.0
 10
633.7275730131395
 20
84.36231477985518
 30
0.0
 10
633.1937950681012
 20
86.77203742722965
 30
0.0
 10
632.956050236097
 20
88.47537770687944
 30
0.0
 10
632.8395506390945
 20
89.31004761101418
 30
0.0
  0
SPLINE
  5
1CC
330
1F
100
AcDbEntity
  8
0
  6
Continuous
 62
     7
370
    15
100
AcDbSpline
210
0.0
220
0.0
230
1.0
 70
     8
 71
     3
 72
    20
 73
    16
 74
     0
 42
0.000000001
 43
0.00000001
 40
0.0
 40
0.0
 40
0.0
 40
0.0
 40
0.056017899320656
 40
0.1358556690932148
 40
0.2156886646895279
 40
0.2955682229311076
 40
0.375577775341305
 40
0.455831453086595
 40
0.5364787053935095
 40
0.617705133293537
 40
0.699724496559781
 40
0.7827535466288339
 40
0.8669588078973323
 40
0.9523693404540945
 40
1.0
 40
1.0
 40
1.0
 40
1.0
 10
678.1124839281188
 20
172.2010544640112
 30
0.0
 10
678.6905989846973
 20
172.501699247205
 30
0.0
 10
680.0926545558061
 20
173.2308286625439
 30
0.0
 10
682.288238360452
 20
174.18037035407
 30
0.0
 10
684.6904587463231
 20
175.0760354255904
 30
0.0
 10
687.0436615980748
 20
175.7808629482428
 30
0.0
 10
689.3407214633633
 20
176.3029913981595
 30
0.0
 10
691.5743744384713
 20
176.6407668094202
 30
0.0
 10
693.738963770897
 20
176.7956388591848
 30
0.0
 10
695.8303391325633
 20
176.7684436518897
 30
0.0
 10
697.8452256804139
 20
176.5585776856092
 30
0.0
 10
699.7834034627542
 20
176.1677300321963
 30
0.0
 10
701.6366995512986
 20
175.582272628805
 30
0.0
 10
703.1547929942006
 20
174.9523637866431
 30
0.0
 10
704.0125872113563
 20
174.4431029840873
 30
0.0
 10
704.3196898738629
 20
174.260780294977
 30
0.0
  0
SPLINE
  5
1CD
330
1F
100
AcDbEntity
  8
0
  6
Continuous
 62
     7
370
    15
100
AcDbSpline
210
0.0
220
0.0
230
1.0
 70
     8
 71
     3
 72
    43
 73
    39
 74
     0
 42
0.000000001
 43
0.00000001
 40
0.0
 40
0.0
 40
0.0
 40
0.0
 40
0.0149882553142272
 40
0.0433060050208989
 40
0.0716115927500649
 40
0.0999036978439111
 40
0.1281796872349986
 40
0.1564384027548237
 40
0.1846797715905285
 40
0.2129045018079046
 40
0.2411138514728375
 40
0.2693094580323019
 40
0.2974932151427478
 40
0.3256671858147169
 40
0.3538335427234967
 40
0.3819945283943368
 40
0.4101524295317914
 40
0.4383095609760754
 40
0.4664680162798224
 40
0.4946296007183634
 40
0.5227966647350871
 40
0.550971556476327
 40
0.5791566083269925
 40
0.6073541153490024
 40
0.6355663012491657
 40
0.6637952664868686
 40
0.6920429116152477
 40
0.7203108270608417
 40
0.7486001383774509
 40
0.7769112938326161
 40
0.8052437796120983
 40
0.8335957481532579
 40
0.8619635492437168
 40
0.8903411648847198
 40
0.9187164372671185
 40
0.9470747620187507
 40
0.9753978821995832
 40
1.0
 40
1.0
 40
1.0
 40
1.0
 10
638.4858296826754
 20
206.8060216683888
 30
0.0
 10
637.9528595371462
 20
206.4931067985238
 30
0.0
 10
636.4129332872664
 20
205.5889927010928
 30
0.0
 10
633.8760184756226
 20
203.9572053644309
 30
0.0
 10
630.8881923098245
 20
201.8595149891961
 30
0.0
 10
627.9299925424624
 20
199.594431983142
 30
0.0
 10
625.008818618356
 20
197.1717611616212
 30
0.0
 10
622.1321725171458
 20
194.5977112394676
 30
0.0
 10
619.3073665667732
 20
191.8798496995056
 30
0.0
 10
616.5415810205781
 20
189.0257458687179
 30
0.0
 10
613.8418496070722
 20
186.0433255772615
 30
0.0
 10
611.2150570125903
 20
182.94076580764
 30
0.0
 10
608.6679276559462
 20
179.7265096856509
 30
0.0
 10
606.2070129423977
 20
176.4092460363071
 30
0.0
 10
603.8386764815672
 20
172.997895176381
 30
0.0
 10
601.5690785574534
 20
169.5015899781245
 30
0.0
 10
599.4041604267344
 20
165.9296554601349
 30
0.0
 10
597.3496348424383
 20
162.2915967279497
 30
0.0
 10
595.4109766536944
 20
158.5970891801466
 30
0.0
 10
593.5933934308616
 20
154.8559309353097
 30
0.0
 10
591.9018087642
 20
151.0780050412124
 30
0.0
 10
590.3408490065682
 20
147.2732385905105
 30
0.0
 10
588.9148474853253
 20
143.4516004278197
 30
0.0
 10
587.627838373162
 20
139.6230759718954
 30
0.0
 10
586.4835526398542
 20
135.7976433425873
 30
0.0
 10
585.4854160831295
 20
131.9852516039552
 30
0.0
 10
584.6365491452083
 20
128.1958019816653
 30
0.0
 10
583.9397684426193
 20
124.4391334642032
 30
0.0
 10
583.397587837032
 20
120.7250129749628
 30
0.0
 10
583.0122228358699
 20
117.063135630643
 30
0.0
 10
582.7855771553174
 20
113.4631211135849
 30
0.0
 10
582.7192798697017
 20
109.9345645837029
 30
0.0
 10
582.8145022391542
 20
106.4869280465621
 30
0.0
 10
583.072536002261
 20
103.1301947487443
 30
0.0
 10
583.4923985279493
 20
99.87298027019688
 30
0.0
 10
584.0793707358184
 20
96.72946316364278
 30
0.0
 10
584.7811001080887
 20
93.82434506923589
 30
0.0
 10
585.3669942823157
 20
92.03250724255219
 30
0.0
 10
585.639345206803
 20
91.19957749159042
 30
0.0
  0
SPLINE
  5
1CE
330
1F
100
AcDbEntity
  8
0
  6
Continuous
 62
     7
370
    15
100
AcDbSpline
210
0.0
220
0.0
230
1.0
 70
     8
 71
     3
 72
    14
 73
    10
 74
     0
 42
0.000000001
 43
0.00000001
 40
0.0
 40
0.0
 40
0.0
 40
0.0
 40
0.1537421863838122
 40
0.320240158913501
 40
0.4872372685965425
 40
0.6545885102387005
 40
0.8221675546361635
 40
0.9812584883080077
 40
1.0
 40
1.0
 40
1.0
 40
1.0
 10
656.4266838851719
 20
213.8309128423914
 30
0.0
 10
655.5216278923672
 20
213.6371767428736
 30
0.0
 10
653.6364246064076
 20
213.2336305155424
 30
0.0
 10
650.7349703021456
 20
212.371567549539
 30
0.0
 10
647.736626828839
 20
211.3060904275079
 30
0.0
 10
644.7192938998384
 20
210.0403397130817
 30
0.0
 10
641.74496884651
 20
208.6085715602343
 30
0.0
 10
639.6665209738735
 20
207.484995933162
 30
0.0
 10
638.598397695092
 20
206.8707555950615
 30
0.0
 10
638.4858296826754
 20
206.8060216683888
 30
0.0
  0
SPLINE
  5
1CF
330
1F
100
AcDbEntity
  8
0
  6
Continuous
 62
     7
370
    15
100
AcDbSpline
210
0.0
220
0.0
230
1.0
 70
     8
 71
     3
 72
    49
 73
    45
 74
     0
 42
0.000000001
 43
0.00000001
 40
0.0
 40
0.0
 40
0.0
 40
0.0
 40
0.0130099686321991
 40
0.0375900833750109
 40
0.0621596413890682
 40
0.0867174963290244
 40
0.1112613626637039
 40
0.1357902350902487
 40
0.1603040504063064
 40
0.184803423220685
 40
0.2092894455482568
 40
0.2337635387108053
 40
0.2582273464227223
 40
0.2826826593996052
 40
0.307131363547225
 40
0.3315754054018936
 40
0.3560167698480346
 40
0.3804574661921332
 40
0.4048993116606439
 40
0.4293438732521898
 40
0.4537931911771981
 40
0.4782493036522245
 40
0.5027142352127367
 40
0.5271899779974462
 40
0.5516784622080454
 40
0.5761815110661305
 40
0.6007007742724925
 40
0.6252376323346683
 40
0.6497930622455955
 40
0.6743674531063784
 40
0.6989603589206653
 40
0.7235701759839939
 40
0.7481937358723149
 40
0.7728258148972575
 40
0.7974558599482452
 40
0.8220711942713956
 40
0.8466559706441917
 40
0.871190601665123
 40
0.8956523275572027
 40
0.9200166227697606
 40
0.9442595604216206
 40
0.9683610010388288
 40
0.992308139445003
 40
0.9999999999999999
 40
0.9999999999999999
 40
0.9999999999999999
 40
0.9999999999999999
 10
630.7076550896235
 20
211.2962662834137
 30
0.0
 10
630.1746849440941
 20
210.9833514135487
 30
0.0
 10
628.6347586942144
 20
210.0792373161177
 30
0.0
 10
626.0978438825706
 20
208.4474499794558
 30
0.0
 10
623.1100177167725
 20
206.349759604221
 30
0.0
 10
620.1518179494104
 20
204.0846765981669
 30
0.0
 10
617.2306440253041
 20
201.6620057766461
 30
0.0
 10
614.3539979240937
 20
199.0879558544925
 30
0.0
 10
611.5291919737213
 20
196.3700943145305
 30
0.0
 10
608.7634064275261
 20
193.5159904837427
 30
0.0
 10
606.0636750140202
 20
190.5335701922864
 30
0.0
 10
603.4368824195384
 20
187.4310104226651
 30
0.0
 10
600.8897530628943
 20
184.2167543006759
 30
0.0
 10
598.4288383493459
 20
180.8994906513322
 30
0.0
 10
596.0605018885153
 20
177.488139791406
 30
0.0
 10
593.7909039644017
 20
173.9918345931497
 30
0.0
 10
591.6259858336826
 20
170.4199000751602
 30
0.0
 10
589.5714602493863
 20
166.7818413429749
 30
0.0
 10
587.6328020606431
 20
163.0873337951722
 30
0.0
 10
585.8152188378078
 20
159.3461755503335
 30
0.0
 10
584.1236341711551
 20
155.568249656243
 30
0.0
 10
582.5626744134906
 20
151.7634832055149
 30
0.0
 10
581.136672892369
 20
147.9418450429216
 30
0.0
 10
579.8496637797525
 20
144.1133205866333
 30
0.0
 10
578.7053780481373
 20
140.2878879586842
 30
0.0
 10
577.7072414850903
 20
136.4754962149757
 30
0.0
 10
576.8583745707876
 20
132.6860466116502
 30
0.0
 10
576.1615937799575
 20
128.9293780233356
 30
0.0
 10
575.6194135040647
 20
125.2152577988204
 30
0.0
 10
575.2340472710509
 20
121.5533794653965
 30
0.0
 10
575.0074061929456
 20
117.9533686438316
 30
0.0
 10
574.9410917135598
 20
114.4247983083682
 30
0.0
 10
575.0363783018593
 20
110.977213335166
 30
0.0
 10
575.2941722969915
 20
107.6202875178357
 30
0.0
 10
575.7149294591131
 20
104.3637913794683
 30
0.0
 10
576.2985662169636
 20
101.2175961036852
 30
0.0
 10
577.0443437748229
 20
98.19152717215862
 30
0.0
 10
577.9508494134994
 20
95.29550776433008
 30
0.0
 10
579.015453734941
 20
92.5389813147639
 30
0.0
 10
580.235715359903
 20
89.93255403565742
 30
0.0
 10
581.6037348920777
 20
87.48098086158679
 30
0.0
 10
583.1269616550317
 20
85.20795049727434
 30
0.0
 10
584.3875269772219
 20
83.54376096876196
 30
0.0
 10
585.1855255251687
 20
82.69690274274942
 30
0.0
 10
585.3795295630786
 20
82.49102026864414
 30
0.0
  0
SPLINE
  5
1D0
330
1F
100
AcDbEntity
  8
0
  6
Continuous
 62
     7
370
    15
100
AcDbSpline
210
0.0
220
0.0
230
1.0
 70
     8
 71
     3
 72
    20
 73
    16
 74
     0
 42
0.000000001
 43
0.00000001
 40
0.0
 40
0.0
 40
0.0
 40
0.0
 40
0.0377861617365815
 40
0.1226384971811837
 40
0.2079847086182229
 40
0.2938619951058853
 40
0.3802657291134982
 40
0.4671561895857118
 40
0.5544687591385796
 40
0.6421253185327905
 40
0.7300446597787243
 40
0.8181504416679706
 40
0.9063761553824786
 40
0.990133114488981
 40
1.0
 40
1.0
 40
1.0
 40
1.0
 10
663.8158322114174
 20
218.4101827973437
 30
0.0
 10
663.4381554505264
 20
218.4958058318525
 30
0.0
 10
662.2123704475716
 20
218.7737033423078
 30
0.0
 10
660.057241673438
 20
219.0297953970965
 30
0.0
 10
657.3586086156048
 20
219.1854399360869
 30
0.0
 10
654.5859887913426
 20
219.1265345277098
 30
0.0
 10
651.7520336366603
 20
218.8669619504944
 30
0.0
 10
648.8632415207172
 20
218.4023926780266
 30
0.0
 10
645.9286541695182
 20
217.734528244927
 30
0.0
 10
642.9572439352772
 20
216.8647094614954
 30
0.0
 10
639.9583316572459
 20
215.7955556328314
 30
0.0
 10
636.9411518671146
 20
214.5307947953743
 30
0.0
 10
633.966785583937
 20
213.0987601361953
 30
0.0
 10
631.8883465642558
 20
211.9752417338917
 30
0.0
 10
630.8202231195288
 20
211.3610003231324
 30
0.0
 10
630.7076550896235
 20
211.2962662834137
 30
0.0
  0
SPLINE
  5
1D1
330
1F
100
AcDbEntity
  8
0
  6
Continuous
 62
     7
370
    15
100
AcDbSpline
210
0.0
220
0.0
230
1.0
 70
     8
 71
     3
 72
    84
 73
    80
 74
     0
 42
0.000000001
 43
0.00000001
 40
0.0
 40
0.0
 40
0.0
 40
0.0
 40
0.0067265170542695
 40
0.0195634351056408
 40
0.0323890911704168
 40
0.0452144461858109
 40
0.0580549185987913
 40
0.0709360039211491
 40
0.0838938606000302
 40
0.0969771076134939
 40
0.1102465360825829
 40
0.1237691536977526
 40
0.1375999520301399
 40
0.1517442330325428
 40
0.1661092152590156
 40
0.1804508047335079
 40
0.194546356485503
 40
0.2083195543787353
 40
0.2217942964379038
 40
0.2350367916162775
 40
0.248116652430957
 40
0.2610918493578011
 40
0.2740059805898509
 40
0.2868899597615962
 40
0.2997647253587661
 40
0.3126405920976735
 40
0.3255266523724142
 40
0.3384284474059898
 40
0.3513485815286537
 40
0.3642876684874161
 40
0.3772450014538413
 40
0.3902190183084832
 40
0.4032076184245693
 40
0.4162083733910811
 40
0.4292186630834559
 40
0.4422357600339058
 40
0.4552568787916053
 40
0.4682792024927804
 40
0.4812993162054203
 40
0.4943140096540347
 40
0.507320436118388
 40
0.5203157652148399
 40
0.5332972169801076
 40
0.5462621233675796
 40
0.5592080308319108
 40
0.5721328628638075
 40
0.5850351681273431
 40
0.5979144885578757
 40
0.6107718922401988
 40
0.6236107271767607
 40
0.6364376615824592
 40
0.6492622390027759
 40
0.6620975686060009
 40
0.6749671229027933
 40
0.687904550582915
 40
0.7009556693573398
 40
0.7141788494237534
 40
0.7276407440269157
 40
0.7414014375590925
 40
0.7554812591993371
 40
0.7698120476683163
 40
0.7841847346592257
 40
0.7983448493482751
 40
0.8121888319429287
 40
0.8257236451651625
 40
0.8390105862692145
 40
0.8521204577493404
 40
0.8651142650008049
 40
0.8780386727031263
 40
0.8909271361306395
 40
0.9038025367200248
 40
0.9166773025267042
 40
0.9295605447179662
 40
0.9424586031733941
 40
0.9553746306445737
 40
0.9683096093119471
 40
0.9812630744276095
 40
0.9942336189043306
 40
1.0
 40
1.0
 40
1.0
 40
1.0
 10
669.7091156889016
 20
162.9317135077267
 30
0.0
 10
670.0833977536079
 20
163.1432432442943
 30
0.0
 10
671.1719615415248
 20
163.7584573648958
 30
0.0
 10
672.9581801063636
 20
164.6433930270858
 30
0.0
 10
675.0460160587841
 20
165.5239275809396
 30
0.0
 10
677.0856962092228
 20
166.2204657192241
 30
0.0
 10
679.0674266616195
 20
166.7361401819297
 30
0.0
 10
680.9826166052611
 20
167.0715376290756
 30
0.0
 10
682.8248161090369
 20
167.2289780953911
 30
0.0
 10
684.5899947558723
 20
167.2104496920704
 30
0.0
 10
686.2767487285516
 20
167.016818210395
 30
0.0
 10
687.8857569459394
 20
166.6463989324208
 30
0.0
 10
689.4179313863725
 20
166.0941048240763
 30
0.0
 10
690.8711216655315
 20
165.3523789228842
 30
0.0
 10
692.2355738233788
 20
164.41608849357
 30
0.0
 10
693.4960485753764
 20
163.2879860956493
 30
0.0
 10
694.6380722914012
 20
161.9796576640656
 30
0.0
 10
695.6536043059035
 20
160.5050719204168
 30
0.0
 10
696.5404154363123
 20
158.8747855565122
 30
0.0
 10
697.2981192352172
 20
157.0958871649018
 30
0.0
 10
697.9258456552451
 20
155.173805363166
 30
0.0
 10
698.4216088556698
 20
153.1140922379949
 30
0.0
 10
698.7826032264994
 20
150.9233755942546
 30
0.0
 10
699.0057313791476
 20
148.6096850792807
 30
0.0
 10
699.0880658596386
 20
146.182652476119
 30
0.0
 10
699.0272476409905
 20
143.653145363106
 30
0.0
 10
698.8216874101
 20
141.0330306892317
 30
0.0
 10
698.4706248749544
 20
138.334746592367
 30
0.0
 10
697.9741875892047
 20
135.5714023417316
 30
0.0
 10
697.3334259355264
 20
132.7566499865457
 30
0.0
 10
696.550314905208
 20
129.9045305567578
 30
0.0
 10
695.6277359277498
 20
127.0293397614136
 30
0.0
 10
694.5694470131988
 20
124.1455107826707
 30
0.0
 10
693.380046580649
 20
121.2675111578081
 30
0.0
 10
692.0649343236462
 20
118.409750752805
 30
0.0
 10
690.6302710864729
 20
115.5864981187621
 30
0.0
 10
689.0829388307059
 20
112.8118029199454
 30
0.0
 10
687.4305256642306
 20
110.0994626805942
 30
0.0
 10
685.6812853464336
 20
107.462931126108
 30
0.0
 10
683.8440844233287
 20
104.9152170755736
 30
0.0
 10
681.9283306893162
 20
102.4687764668887
 30
0.0
 10
679.9439374453335
 20
100.1354593662661
 30
0.0
 10
677.9012979107473
 20
97.92645998210348
 30
0.0
 10
675.8112396105412
 20
95.85223819877203
 30
0.0
 10
673.6849726934608
 20
93.92243626711927
 30
0.0
 10
671.5340288719307
 20
92.14579006274006
 30
0.0
 10
669.3701863652217
 20
90.5300350301348
 30
0.0
 10
667.205374578821
 20
89.08180832659934
 30
0.0
 10
665.0515502786725
 20
87.8065511499403
 30
0.0
 10
662.9205349349744
 20
86.70841936988165
 30
0.0
 10
660.823901241101
 20
85.79026096216899
 30
0.0
 10
658.7728411790936
 20
85.05360576154428
 30
0.0
 10
656.7776814816161
 20
84.49858296668133
 30
0.0
 10
654.8473604067278
 20
84.12405630698377
 30
0.0
 10
652.9888178877262
 20
83.92801792005478
 30
0.0
 10
651.2066421501324
 20
83.90832466900459
 30
0.0
 10
649.5027974694788
 20
84.06375335676591
 30
0.0
 10
647.8769553016118
 20
84.3953257564892
 30
0.0
 10
646.3280146689152
 20
84.907379216659
 30
0.0
 10
644.8571418124768
 20
85.6071585680439
 30
0.0
 10
643.4721194587115
 20
86.50095005061524
 30
0.0
 10
642.1876219042384
 20
87.58795490530073
 30
0.0
 10
641.0187673075761
 20
88.85831588141475
 30
0.0
 10
639.9753472788236
 20
90.29769939487096
 30
0.0
 10
639.0604327517634
 20
91.89475362521551
 30
0.0
 10
638.2745516959395
 20
93.64174871610578
 30
0.0
 10
637.6183644673373
 20
95.53307179163102
 30
0.0
 10
637.0936206185178
 20
97.56330705919075
 30
0.0
 10
636.7029910950114
 20
99.72610532383862
 30
0.0
 10
636.4495526932845
 20
102.0137500828065
 30
0.0
 10
636.3363090370303
 20
104.4169507058045
 30
0.0
 10
636.3657515400016
 20
106.9250851112476
 30
0.0
 10
636.539698689197
 20
109.5264879154252
 30
0.0
 10
636.858908886936
 20
112.2088268664801
 30
0.0
 10
637.3241497266015
 20
114.9591431397624
 30
0.0
 10
637.9319659099739
 20
117.7638525581647
 30
0.0
 10
638.6903336228343
 20
120.609123791407
 30
0.0
 10
639.398727660437
 20
122.947499441629
 30
0.0
 10
639.9019934947476
 20
124.3335320243831
 30
0.0
 10
640.0568760330729
 20
124.7600903758211
 30
0.0
  0
SPLINE
  5
1D2
330
1F
100
AcDbEntity
  8
0
  6
Continuous
 62
     7
370
    15
100
AcDbSpline
210
0.0
220
0.0
230
1.0
 70
     8
 71
     3
 72
    15
 73
    11
 74
     0
 42
0.000000001
 43
0.00000001
 40
0.0
 40
0.0
 40
0.0
 40
0.0
 40
0.0336091652731878
 40
0.1740316467730499
 40
0.3142813374783905
 40
0.4543310743436491
 40
0.5941573206291615
 40
0.7337426194928287
 40
0.8730792548365498
 40
1.0
 40
1.0
 40
1.0
 40
1.0
 10
654.5771130997014
 20
149.9211262279125
 30
0.0
 10
654.7335876437157
 20
150.1097975699359
 30
0.0
 10
655.5438286107708
 20
151.0867568036544
 30
0.0
 10
657.0709741086413
 20
152.7350397562658
 30
0.0
 10
659.1473603659196
 20
154.8469682845198
 30
0.0
 10
661.2678354955327
 20
156.8068571788306
 30
0.0
 10
663.4141558779638
 20
158.6187983269433
 30
0.0
 10
665.5760398339692
 20
160.2675377367911
 30
0.0
 10
667.6794412414258
 20
161.7187785393593
 30
0.0
 10
669.0539220845437
 20
162.5401693195616
 30
0.0
 10
669.7091156889016
 20
162.9317135077267
 30
0.0
  0
SPLINE
  5
1D3
330
1F
100
AcDbEntity
  8
0
  6
Continuous
 62
     7
370
    15
100
AcDbSpline
210
0.0
220
0.0
230
1.0
 70
     8
 71
     3
 72
    53
 73
    49
 74
     0
 42
0.000000001
 43
0.00000001
 40
0.0
 40
0.0
 40
0.0
 40
0.0
 40
0.011915272164513
 40
0.0344271448119765
 40
0.0569293490044397
 40
0.0794208348533758
 40
0.1018995091388266
 40
0.1243644511470315
 40
0.1468156029936629
 40
0.169253527572567
 40
0.1916792250133166
 40
0.214093997043564
 40
0.2364993490708095
 40
0.2588969211346421
 40
0.2812884404552618
 40
0.3036756897817735
 40
0.326060486984672
 40
0.3484446723015675
 40
0.370829910052218
 40
0.3932176353834382
 40
0.4156097168364384
 40
0.4380080211263235
 40
0.460414402438286
 40
0.4828306852867039
 40
0.5052586374605086
 40
0.5276999287701485
 40
0.5501560701058069
 40
0.572628325815111
 40
0.59511759068399
 40
0.6176242210734487
 40
0.6401478085145605
 40
0.6626868842432053
 40
0.6852385464357182
 40
0.7077980109400048
 40
0.7303556126148
 40
0.7528997413650346
 40
0.7754158833994269
 40
0.7978860994571915
 40
0.8202895448349541
 40
0.8426037576329515
 40
0.8648068242471405
 40
0.8868802997972777
 40
0.9088124565716327
 40
0.9306011857037282
 40
0.952255833441409
 40
0.9737974691201718
 40
0.9952574649191195
 40
1.0
 40
1.0
 40
1.0
 40
1.0
 10
622.9294804965714
 20
215.7865108984386
 30
0.0
 10
622.3965103510421
 20
215.4735960285736
 30
0.0
 10
620.8565841011623
 20
214.5694819311425
 30
0.0
 10
618.3196692895186
 20
212.9376945944807
 30
0.0
 10
615.3318431237205
 20
210.8400042192459
 30
0.0
 10
612.3736433563583
 20
208.5749212131917
 30
0.0
 10
609.452469432252
 20
206.1522503916709
 30
0.0
 10
606.5758233310418
 20
203.5782004695174
 30
0.0
 10
603.7510173806692
 20
200.8603389295554
 30
0.0
 10
600.9852318344741
 20
198.0062350987677
 30
0.0
 10
598.2855004209683
 20
195.0238148073115
 30
0.0
 10
595.6587078264864
 20
191.92125503769
 30
0.0
 10
593.1115784698425
 20
188.7069989157008
 30
0.0
 10
590.6506637562939
 20
185.3897352663571
 30
0.0
 10
588.2823272954633
 20
181.978384406431
 30
0.0
 10
586.0127293713496
 20
178.4820792081746
 30
0.0
 10
583.8478112406306
 20
174.9101446901849
 30
0.0
 10
581.7932856563341
 20
171.2720859579995
 30
0.0
 10
579.854627467591
 20
167.5775784101969
 30
0.0
 10
578.0370442447557
 20
163.8364201653581
 30
0.0
 10
576.345459578103
 20
160.0584942712678
 30
0.0
 10
574.7844998204384
 20
156.2537278205396
 30
0.0
 10
573.3584982993169
 20
152.4320896579464
 30
0.0
 10
572.0714891867001
 20
148.6035652016575
 30
0.0
 10
570.9272034550864
 20
144.7781325737103
 30
0.0
 10
569.9290668920337
 20
140.9657408299948
 30
0.0
 10
569.0801999777526
 20
137.1762912266953
 30
0.0
 10
568.3834191868422
 20
133.419622638284
 30
0.0
 10
567.8412389112493
 20
129.7055024141302
 30
0.0
 10
567.4558726771153
 20
126.0436240793566
 30
0.0
 10
567.229231603195
 20
122.443613262834
 30
0.0
 10
567.1629171081754
 20
118.915042908534
 30
0.0
 10
567.2582037548664
 20
115.4674580056868
 30
0.0
 10
567.5159975319882
 20
112.1105319256784
 30
0.0
 10
567.9367555075629
 20
108.854036767431
 30
0.0
 10
568.5203892326372
 20
105.7078378374921
 30
0.0
 10
569.2661780862925
 20
102.6817825161348
 30
0.0
 10
570.1726417039877
 20
99.7857124777301
 30
0.0
 10
571.2374021268456
 20
97.02937411288619
 30
0.0
 10
572.4570847295972
 20
94.42224917687133
 30
0.0
 10
573.8272488819131
 20
91.97326002985564
 30
0.0
 10
575.3425419515046
 20
89.69067045368035
 30
0.0
 10
576.996504384013
 20
87.58117381649355
 30
0.0
 10
578.7831917285893
 20
85.65216790054447
 30
0.0
 10
580.6925127303373
 20
83.90271276819934
 30
0.0
 10
582.7290176176789
 20
82.35701138222133
 30
0.0
 10
584.2963255549985
 20
81.30755590063596
 30
0.0
 10
585.2147715738026
 20
80.83475209032216
 30
0.0
 10
585.3810059915407
 20
80.74917682024343
 30
0.0
  0
SPLINE
  5
1D4
330
1F
100
AcDbEntity
  8
0
  6
Continuous
 62
     7
370
    15
100
AcDbSpline
210
0.0
220
0.0
230
1.0
 70
     8
 71
     3
 72
    24
 73
    20
 74
     0
 42
0.000000001
 43
0.00000001
 40
0.0
 40
0.0
 40
0.0
 40
0.0
 40
0.0255832329014598
 40
0.0886087829424195
 40
0.1516306718676323
 40
0.2147601513961141
 40
0.2781096565392852
 40
0.3417691874478176
 40
0.4057992433848103
 40
0.4702277325343096
 40
0.5350511831423523
 40
0.6002397949242742
 40
0.6657450893988458
 40
0.7315084584664528
 40
0.7974689767265277
 40
0.8635693700275415
 40
0.9297597408606886
 40
0.9925974777256479
 40
1.0
 40
1.0
 40
1.0
 40
1.0
 10
665.398112032512
 20
219.2398800761394
 30
0.0
 10
665.1081399308854
 20
219.4224115152196
 30
0.0
 10
664.1038073232215
 20
220.0546181142807
 30
0.0
 10
662.2702422045697
 20
220.9380374770763
 30
0.0
 10
659.910531261517
 20
221.8888743358695
 30
0.0
 10
657.4517058606214
 20
222.631720159973
 30
0.0
 10
654.907811769903
 20
223.1797297596255
 30
0.0
 10
652.281714825191
 20
223.5272739533697
 30
0.0
 10
649.5797180502357
 20
223.6737284329586
 30
0.0
 10
646.8080078195474
 20
223.6173081381247
 30
0.0
 10
643.9738067117298
 20
223.3570635888498
 30
0.0
 10
641.0850810572944
 20
222.892675896812
 30
0.0
 10
638.1504757664437
 20
222.2247624505355
 30
0.0
 10
635.179070368179
 20
221.3549568795438
 30
0.0
 10
632.1801567881993
 20
220.2857994938074
 30
0.0
 10
629.1629773485906
 20
219.0210396140182
 30
0.0
 10
626.1886109710413
 20
217.5890046970046
 30
0.0
 10
624.1101719716237
 20
216.4654863500636
 30
0.0
 10
623.0420485265167
 20
215.8512449382667
 30
0.0
 10
622.9294804965714
 20
215.7865108984386
 30
0.0
  0
LINE
  5
1D5
330
1F
100
AcDbEntity
  8
0
  6
Continuous
 62
     7
370
    15
100
AcDbLine
 10
633.9629074797
 20
272.0638522417
 30
0.0
 11
617.6994515124
 21
281.4525455277
 31
0.0
  0
LINE
  5
1D6
330
1F
100
AcDbEntity
  8
0
  6
Continuous
 62
     7
370
    15
100
AcDbLine
 10
507.7083909224
 20
90.9217958039
 30
0.0
 11
523.9718468897
 21
81.533102518
 31
0.0
  0
SPLINE
  5
1D7
330
1F
100
AcDbEntity
  8
0
  6
Continuous
 62
     7
370
    15
100
AcDbSpline
210
0.0
220
0.0
230
1.0
 70
     8
 71
     3
 72
    49
 73
    45
 74
     0
 42
0.000000001
 43
0.00000001
 40
0.0
 40
0.0
 40
0.0
 40
0.0
 40
0.0107817226109555
 40
0.036781933559523
 40
0.0622187376141637
 40
0.0872171200371955
 40
0.1119084911331332
 40
0.1364022840643259
 40
0.1607808008658424
 40
0.1851023984293935
 40
0.2094066031634504
 40
0.2337128865663597
 40
0.2580384127104268
 40
0.282393641981691
 40
0.3067834906774778
 40
0.331209117392317
 40
0.3556691878181867
 40
0.3801607530803628
 40
0.4046798477425241
 40
0.4292218875970497
 40
0.4537819265310696
 40
0.4783548157956581
 40
0.5029352971850161
 40
0.527518053193879
 40
0.5520966373198886
 40
0.5766649893989069
 40
0.6012177355644429
 40
0.6257495327892435
 40
0.6502551332265603
 40
0.6747295002991734
 40
0.6991680023524007
 40
0.7235667194774371
 40
0.7479229119299968
 40
0.7722357150033204
 40
0.796507144963356
 40
0.8207435219668766
 40
0.8449574338671396
 40
0.8691668963927839
 40
0.8933966562397861
 40
0.9176910233958029
 40
0.9421135178246612
 40
0.9667506314333041
 40
0.9917125519547961
 40
1.0
 40
1.0
 40
1.0
 40
1.0
 10
686.3876962096225
 20
166.9580549465599
 30
0.0
 10
686.5438823451698
 20
166.7843053860693
 30
0.0
 10
687.0767126050375
 20
166.1915573604921
 30
0.0
 10
687.8716465066356
 20
164.9881185726505
 30
0.0
 10
688.7632263108048
 20
163.3669051311122
 30
0.0
 10
689.5196860405831
 20
161.5856397621884
 30
0.0
 10
690.1477393891697
 20
159.6641799777227
 30
0.0
 10
690.6434161108175
 20
157.6043023172387
 30
0.0
 10
691.004433475003
 20
155.4136294208677
 30
0.0
 10
691.2275554911248
 20
153.0999272304826
 30
0.0
 10
691.3098916134908
 20
150.6728977511673
 30
0.0
 10
691.2490729549046
 20
148.143389801124
 30
0.0
 10
691.0435128420172
 20
145.5232753517637
 30
0.0
 10
690.6924502751981
 20
142.8249911946366
 30
0.0
 10
690.196012997953
 20
140.0616469601819
 30
0.0
 10
689.5552513419909
 20
137.2468946006509
 30
0.0
 10
688.7721403122858
 20
134.3947751720297
 30
0.0
 10
687.8495613346629
 20
131.5195843763723
 30
0.0
 10
686.7912724201561
 20
128.6357553977135
 30
0.0
 10
685.6018719875944
 20
125.7577557728282
 30
0.0
 10
684.2867597305948
 20
122.8999953678311
 30
0.0
 10
682.8520964934207
 20
120.0767427337867
 30
0.0
 10
681.3047642376539
 20
117.3020475349703
 30
0.0
 10
679.6523510711788
 20
114.5897072956195
 30
0.0
 10
677.9031107533807
 20
111.9531757411316
 30
0.0
 10
676.0659098302799
 20
109.4054616906036
 30
0.0
 10
674.1501560962524
 20
106.9590210818947
 30
0.0
 10
672.1657628523262
 20
104.6257039813618
 30
0.0
 10
670.1231233175288
 20
102.416704596865
 30
0.0
 10
668.0330650181094
 20
100.342482814778
 30
0.0
 10
665.9067980980993
 20
98.41268087849141
 30
0.0
 10
663.7558542874764
 20
96.63603469136336
 30
0.0
 10
661.5920117401671
 20
95.02027959454371
 30
0.0
 10
659.4272001048895
 20
93.57205313002737
 30
0.0
 10
657.2733752421415
 20
92.29679506355076
 30
0.0
 10
655.142361993802
 20
91.19866659754895
 30
0.0
 10
653.0457204896661
 20
90.28049583698538
 30
0.0
 10
650.9946895736772
 20
89.54388673422471
 30
0.0
 10
648.9994209199399
 20
88.98869161219274
 30
0.0
 10
647.0695083141353
 20
88.6148109945036
 30
0.0
 10
645.2094282495026
 20
88.4163407979045
 30
0.0
 10
643.4330712474266
 20
88.40585056302095
 30
0.0
 10
642.1011085788386
 20
88.49874173660946
 30
0.0
 10
641.3981315494829
 20
88.65083600709491
 30
0.0
 10
641.2229136172665
 20
88.68874570039007
 30
0.0
  0
SPLINE
  5
1D8
330
1F
100
AcDbEntity
  8
0
  6
Continuous
 62
     7
370
    15
100
AcDbSpline
210
0.0
220
0.0
230
1.0
 70
     8
 71
     3
 72
    54
 73
    50
 74
     0
 42
0.000000001
 43
0.00000001
 40
0.0
 40
0.0
 40
0.0
 40
0.0
 40
0.011524381275492
 40
0.033297732318816
 40
0.0550617320892332
 40
0.0768153651407252
 40
0.0985566069232388
 40
0.1202845669278298
 40
0.1419991891691204
 40
0.1637010180747292
 40
0.1853910209641096
 40
0.2070704568606006
 40
0.2287407817854989
 40
0.250403581975465
 40
0.2720605279877368
 40
0.2937133440867773
 40
0.3153637885062562
 40
0.3370136411131874
 40
0.3586645116278664
 40
0.3803177881158681
 40
0.4019752778192762
 40
0.4236387862139798
 40
0.4453101066570133
 40
0.4669910038079683
 40
0.4886831874619195
 40
0.5103882726497282
 40
0.5321077206955064
 40
0.5538427544688602
 40
0.5755942394014819
 40
0.5973625201636432
 40
0.6191472016866006
 40
0.6409468633903185
 40
0.6627586986479824
 40
0.6845780802557857
 40
0.7063956601458414
 40
0.7282002091023715
 40
0.7499776894716635
 40
0.7717107505060241
 40
0.7933792313307348
 40
0.8149614069282398
 40
0.8364360825893745
 40
0.8577854185342669
 40
0.8789980717889956
 40
0.9000720026702859
 40
0.9210162508141709
 40
0.9418511943582366
 40
0.9626071762899036
 40
0.9833217440111048
 40
1.0
 40
1.0
 40
1.0
 40
1.0
 10
615.1513059035194
 20
220.2767555134635
 30
0.0
 10
614.6183357579902
 20
219.9638406435985
 30
0.0
 10
613.0784095081103
 20
219.0597265461675
 30
0.0
 10
610.5414946964665
 20
217.4279392095056
 30
0.0
 10
607.5536685306685
 20
215.3302488342709
 30
0.0
 10
604.5954687633064
 20
213.0651658282167
 30
0.0
 10
601.6742948392
 20
210.6424950066959
 30
0.0
 10
598.7976487379898
 20
208.0684450845423
 30
0.0
 10
595.9728427876172
 20
205.3505835445803
 30
0.0
 10
593.207057241422
 20
202.4964797137926
 30
0.0
 10
590.5073258279161
 20
199.5140594223362
 30
0.0
 10
587.8805332334342
 20
196.4114996527147
 30
0.0
 10
585.3334038767903
 20
193.1972435307255
 30
0.0
 10
582.8724891632417
 20
189.8799798813818
 30
0.0
 10
580.5041527024111
 20
186.4686290214556
 30
0.0
 10
578.2345547782975
 20
182.9723238231992
 30
0.0
 10
576.0696366475785
 20
179.4003893052097
 30
0.0
 10
574.0151110632822
 20
175.7623305730243
 30
0.0
 10
572.0764528745389
 20
172.0678230252216
 30
0.0
 10
570.2588696517035
 20
168.3266647803828
 30
0.0
 10
568.567284985051
 20
164.5487388862924
 30
0.0
 10
567.0063252273865
 20
160.7439724355643
 30
0.0
 10
565.580323706265
 20
156.9223342729711
 30
0.0
 10
564.2933145936481
 20
153.0938098166823
 30
0.0
 10
563.1490288620344
 20
149.2683771887349
 30
0.0
 10
562.1508922989816
 20
145.4559854450195
 30
0.0
 10
561.3020253847006
 20
141.6665358417201
 30
0.0
 10
560.6052445937898
 20
137.9098672533081
 30
0.0
 10
560.0630643181985
 20
134.195747029157
 30
0.0
 10
559.6776980840588
 20
130.5338686943728
 30
0.0
 10
559.45105701016
 20
126.9338578778897
 30
0.0
 10
559.3847425150597
 20
123.4052875234416
 30
0.0
 10
559.4800291620529
 20
119.9577026211475
 30
0.0
 10
559.7378229380462
 20
116.6007765390741
 30
0.0
 10
560.1585809178316
 20
113.3442813885318
 30
0.0
 10
560.7422146272073
 20
110.1980824298655
 30
0.0
 10
561.488003539333
 20
107.1720272155055
 30
0.0
 10
562.3944669395157
 20
104.2759567790649
 30
0.0
 10
563.4592281703981
 20
101.5196198928629
 30
0.0
 10
564.6789077759701
 20
98.91248947216751
 30
0.0
 10
566.0490830294344
 20
96.463520639669
 30
0.0
 10
567.5643350320291
 20
94.18085591305281
 30
0.0
 10
569.2184492691321
 20
92.0716370702782
 30
0.0
 10
571.0045755317728
 20
90.1416044039404
 30
0.0
 10
572.9159717129895
 20
88.39594674071826
 30
0.0
 10
574.9447902076911
 20
86.83617966106874
 30
0.0
 10
577.088012424964
 20
85.47241456549995
 30
0.0
 10
579.181172594886
 20
84.35646472804932
 30
0.0
 10
580.602395927915
 20
83.78840313218066
 30
0.0
 10
581.2363016941503
 20
83.53503160862816
 30
0.0
  0
SPLINE
  5
1D9
330
1F
100
AcDbEntity
  8
0
  6
Continuous
 62
     7
370
    15
100
AcDbSpline
210
0.0
220
0.0
230
1.0
 70
     8
 71
     3
 72
    25
 73
    21
 74
     0
 42
0.000000001
 43
0.00000001
 40
0.0
 40
0.0
 40
0.0
 40
0.0
 40
0.0568602666132026
 40
0.1142429661491482
 40
0.1715339797544708
 40
0.2288216653597694
 40
0.2862071521696904
 40
0.3437926450164728
 40
0.4016599551632174
 40
0.4598640771970909
 40
0.5184303800065935
 40
0.5773557077239446
 40
0.6366129715174852
 40
0.6961581038411963
 40
0.7559378291991745
 40
0.8158967656399746
 40
0.8759828502432067
 40
0.9361507255489953
 40
0.993271014627293
 40
1.0
 40
1.0
 40
1.0
 40
1.0
 10
660.9295159707136
 20
221.441962477599
 30
0.0
 10
660.2628544698705
 20
221.9543374590864
 30
0.0
 10
658.9234061730159
 20
222.9837951305377
 30
0.0
 10
656.76202180856
 20
224.2969554268043
 30
0.0
 10
654.4967782956509
 20
225.4360934754697
 30
0.0
 10
652.1310922389243
 20
226.377022239759
 30
0.0
 10
649.6738715699928
 20
227.1225290736477
 30
0.0
 10
647.1295453806233
 20
227.6698221556734
 30
0.0
 10
644.5035650338264
 20
228.0175596952224
 30
0.0
 10
641.8015367505991
 20
228.1639619269457
 30
0.0
 10
639.0298350401642
 20
228.1075557606252
 30
0.0
 10
636.1956316284792
 20
227.8473073910152
 30
0.0
 10
633.3069065965951
 20
227.3829207313091
 30
0.0
 10
630.3723011377022
 20
226.71500700638
 30
0.0
 10
627.4008957847367
 20
225.8452015105044
 30
0.0
 10
624.4019821925613
 20
224.776044104545
 30
0.0
 10
621.3848027562359
 20
223.5112842302003
 30
0.0
 10
618.4104363778024
 20
222.0792493117208
 30
0.0
 10
616.331997378575
 20
220.9557309650947
 30
0.0
 10
615.2638739334648
 20
220.341489553292
 30
0.0
 10
615.1513059035194
 20
220.2767555134635
 30
0.0
  0
SPLINE
  5
1DA
330
1F
100
AcDbEntity
  8
0
  6
Continuous
 62
     7
370
    15
100
AcDbSpline
210
0.0
220
0.0
230
1.0
 70
     8
 71
     3
 72
    43
 73
    39
 74
     0
 42
0.000000001
 43
0.00000001
 40
0.0
 40
0.0
 40
0.0
 40
0.0
 40
0.016940281243621
 40
0.0458303584129766
 40
0.0744892597434416
 40
0.1030132825258829
 40
0.1314707070959023
 40
0.1599077812291503
 40
0.1883472875037049
 40
0.2168093086995588
 40
0.2453060839653088
 40
0.2738433656023789
 40
0.3024225092214091
 40
0.3310419536186263
 40
0.3596982484705144
 40
0.3883867540281953
 40
0.4171021065509758
 40
0.4458385188518281
 40
0.4745899666499127
 40
0.5033502975946489
 40
0.5321132899522637
 40
0.5608714010087509
 40
0.5896175400841751
 40
0.6183454194994514
 40
0.6470487876588678
 40
0.6757215043324246
 40
0.7043576764855076
 40
0.7329518848621072
 40
0.7614995429827024
 40
0.789997445216325
 40
0.8184445798149873
 40
0.8468433059056336
 40
0.8752010183719334
 40
0.9035324456001955
 40
0.9318586668487819
 40
0.9602086369276008
 40
0.9886342006271984
 40
1.0
 40
1.0
 40
1.0
 40
1.0
 10
681.2873190490717
 20
167.068916592311
 30
0.0
 10
681.4367133783286
 20
166.7314865933467
 30
0.0
 10
681.8408858685159
 20
165.8186010532883
 30
0.0
 10
682.3662459538748
 20
164.149530485109
 30
0.0
 10
682.866123204094
 20
162.0958471048779
 30
0.0
 10
683.2260237133545
 20
159.903527246157
 30
0.0
 10
683.4494437986116
 20
157.5902646013498
 30
0.0
 10
683.5317001702799
 20
155.1631175182227
 30
0.0
 10
683.4709028807815
 20
152.633641079956
 30
0.0
 10
683.2653370361323
 20
150.0135181782928
 30
0.0
 10
682.9142760077889
 20
147.3152362898682
 30
0.0
 10
682.4178383174548
 20
144.5518914462548
 30
0.0
 10
681.7770767724204
 20
141.7371392503024
 30
0.0
 10
680.9939657129295
 20
138.885019777758
 30
0.0
 10
680.0713867433032
 20
136.0098289938926
 30
0.0
 10
679.0130978266501
 20
133.1260000120687
 30
0.0
 10
677.8236973946642
 20
130.2480003880327
 30
0.0
 10
676.5085851375103
 20
127.3902399828082
 30
0.0
 10
675.0739219003767
 20
124.5669873488232
 30
0.0
 10
673.5265896446019
 20
121.7922921499969
 30
0.0
 10
671.8741764781182
 20
119.0799519106264
 30
0.0
 10
670.1249361603631
 20
116.4434203562267
 30
0.0
 10
668.2877352370992
 20
113.8957063053659
 30
0.0
 10
666.3719815036798
 20
111.4492656978988
 30
0.0
 10
664.3875882574872
 20
109.1159485927374
 30
0.0
 10
662.3449487311344
 20
106.9069492254862
 30
0.0
 10
660.2548904002604
 20
104.8327273791625
 30
0.0
 10
658.1286235973806
 20
102.9029256820792
 30
0.0
 10
655.9776793506916
 20
101.1262786044182
 30
0.0
 10
653.8138384265651
 20
99.51052682245718
 30
0.0
 10
651.6490207494644
 20
98.06228801934961
 30
0.0
 10
649.4952183791462
 20
96.78707588683866
 30
0.0
 10
647.3641213594836
 20
95.68877634331847
 30
0.0
 10
645.2677921054731
 20
94.77124325892648
 30
0.0
 10
643.2155959472294
 20
94.03225450229266
 30
0.0
 10
641.2246833065763
 20
93.48595521575339
 30
0.0
 10
639.6708693849515
 20
93.16083632790433
 30
0.0
 10
638.8148125456084
 20
93.07991051830287
 30
0.0
 10
638.5702928926881
 20
93.0567952881375
 30
0.0
  0
SPLINE
  5
1DB
330
1F
100
AcDbEntity
  8
0
  6
Continuous
 62
     7
370
    15
100
AcDbSpline
210
0.0
220
0.0
230
1.0
 70
     8
 71
     3
 72
    54
 73
    50
 74
     0
 42
0.000000001
 43
0.00000001
 40
0.0
 40
0.0
 40
0.0
 40
0.0
 40
0.011524381275492
 40
0.033297732318816
 40
0.0550617320892332
 40
0.0768153651407252
 40
0.0985566069232388
 40
0.1202845669278297
 40
0.1419991891691203
 40
0.1637010180747292
 40
0.1853910209641095
 40
0.2070704568606006
 40
0.2287407817854989
 40
0.2504035819754649
 40
0.2720605279877367
 40
0.2937133440867773
 40
0.3153637885062562
 40
0.3370136411131874
 40
0.3586645116278662
 40
0.3803177881158669
 40
0.4019752778192742
 40
0.4236387862139803
 40
0.4453101066570113
 40
0.4669910038079656
 40
0.4886831874619177
 40
0.5103882726497243
 40
0.5321077206955037
 40
0.5538427544688586
 40
0.5755942394014799
 40
0.5973625201636408
 40
0.6191472016865978
 40
0.6409468633903138
 40
0.6627586986479801
 40
0.6845780802557817
 40
0.7063956601458371
 40
0.7282002091023667
 40
0.749977689471657
 40
0.7717107505060188
 40
0.7933792313307308
 40
0.8149614069282357
 40
0.8364360825893702
 40
0.8577854185342652
 40
0.8789980717889923
 40
0.9000720026702826
 40
0.9210162508141692
 40
0.9418511943582333
 40
0.9626071762899003
 40
0.9833217440111021
 40
1.0
 40
1.0
 40
1.0
 40
1.0
 10
607.3731313104674
 20
224.7670001284884
 30
0.0
 10
606.8401611649381
 20
224.4540852586234
 30
0.0
 10
605.3002349150584
 20
223.5499711611924
 30
0.0
 10
602.7633201034146
 20
221.9181838245305
 30
0.0
 10
599.7754939376165
 20
219.8204934492957
 30
0.0
 10
596.8172941702544
 20
217.5554104432416
 30
0.0
 10
593.896120246148
 20
215.1327396217208
 30
0.0
 10
591.0194741449378
 20
212.5586896995672
 30
0.0
 10
588.1946681945651
 20
209.8408281596052
 30
0.0
 10
585.4288826483701
 20
206.9867243288174
 30
0.0
 10
582.7291512348642
 20
204.0043040373611
 30
0.0
 10
580.1023586403822
 20
200.9017442677396
 30
0.0
 10
577.5552292837383
 20
197.6874881457504
 30
0.0
 10
575.0943145701897
 20
194.3702244964067
 30
0.0
 10
572.7259781093591
 20
190.9588736364805
 30
0.0
 10
570.4563801852454
 20
187.4625684382241
 30
0.0
 10
568.2914620545265
 20
183.8906339202346
 30
0.0
 10
566.2369364702301
 20
180.2525751880492
 30
0.0
 10
564.2982782814869
 20
176.5580676402466
 30
0.0
 10
562.4806950586517
 20
172.8169093954079
 30
0.0
 10
560.789110391999
 20
169.0389835013175
 30
0.0
 10
559.2281506343345
 20
165.2342170505895
 30
0.0
 10
557.802149113213
 20
161.4125788879963
 30
0.0
 10
556.5151400005963
 20
157.5840544317076
 30
0.0
 10
555.3708542689825
 20
153.7586218037603
 30
0.0
 10
554.3727177059297
 20
149.9462300600449
 30
0.0
 10
553.5238507916488
 20
146.1567804567455
 30
0.0
 10
552.8270700007379
 20
142.4001118683333
 30
0.0
 10
552.2848897251464
 20
138.6859916441823
 30
0.0
 10
551.8995234910068
 20
135.0241133093981
 30
0.0
 10
551.672882417108
 20
131.4241024929152
 30
0.0
 10
551.6065679220077
 20
127.895532138467
 30
0.0
 10
551.7018545690008
 20
124.447947236173
 30
0.0
 10
551.9596483449941
 20
121.0910211540996
 30
0.0
 10
552.3804063247795
 20
117.8345260035574
 30
0.0
 10
552.9640400341551
 20
114.6883270448911
 30
0.0
 10
553.7098289462808
 20
111.6622718305311
 30
0.0
 10
554.6162923464635
 20
108.7662013940905
 30
0.0
 10
555.6810535773458
 20
106.0098645078884
 30
0.0
 10
556.9007331829179
 20
103.4027340871929
 30
0.0
 10
558.2709084363821
 20
100.9537652546943
 30
0.0
 10
559.7861604389769
 20
98.67110052807801
 30
0.0
 10
561.44027467608
 20
96.56188168530339
 30
0.0
 10
563.2264009387206
 20
94.63184901896555
 30
0.0
 10
565.1377971199372
 20
92.8861913557434
 30
0.0
 10
567.1666156146389
 20
91.32642427609383
 30
0.0
 10
569.3098378319116
 20
89.96265918052504
 30
0.0
 10
571.4029980018338
 20
88.84670934307432
 30
0.0
 10
572.824221334863
 20
88.27864774720562
 30
0.0
 10
573.4581271010983
 20
88.02527622365304
 30
0.0
  0
SPLINE
  5
1DC
330
1F
100
AcDbEntity
  8
0
  6
Continuous
 62
     7
370
    15
100
AcDbSpline
210
0.0
220
0.0
230
1.0
 70
     8
 71
     3
 72
    25
 73
    21
 74
     0
 42
0.000000001
 43
0.00000001
 40
0.0
 40
0.0
 40
0.0
 40
0.0
 40
0.0568602666131802
 40
0.114242966149125
 40
0.1715339797544511
 40
0.2288216653597528
 40
0.2862071521696723
 40
0.3437926450164528
 40
0.4016599551631977
 40
0.4598640771970716
 40
0.5184303800065784
 40
0.5773557077239247
 40
0.6366129715174687
 40
0.696158103841183
 40
0.7559378291991613
 40
0.8158967656399567
 40
0.8759828502431921
 40
0.9361507255489758
 40
0.9932710146272739
 40
1.0
 40
1.0
 40
1.0
 40
1.0
 10
653.1513413776615
 20
225.932207092624
 30
0.0
 10
652.4846798768186
 20
226.4445820741111
 30
0.0
 10
651.1452315799644
 20
227.4740397455623
 30
0.0
 10
648.9838472155087
 20
228.7872000418288
 30
0.0
 10
646.7186037025996
 20
229.9263380904943
 30
0.0
 10
644.3529176458729
 20
230.8672668547836
 30
0.0
 10
641.8956969769415
 20
231.6127736886724
 30
0.0
 10
639.351370787572
 20
232.1600667706982
 30
0.0
 10
636.7253904407752
 20
232.5078043102471
 30
0.0
 10
634.0233621575479
 20
232.6542065419707
 30
0.0
 10
631.2516604471128
 20
232.5978003756501
 30
0.0
 10
628.4174570354278
 20
232.3375520060402
 30
0.0
 10
625.5287320035438
 20
231.8731653463342
 30
0.0
 10
622.5941265446509
 20
231.205251621405
 30
0.0
 10
619.6227211916854
 20
230.3354461255295
 30
0.0
 10
616.62380759951
 20
229.2662887195702
 30
0.0
 10
613.6066281631847
 20
228.0015288452256
 30
0.0
 10
610.6322617847512
 20
226.5694939267461
 30
0.0
 10
608.5538227855237
 20
225.4459755801199
 30
0.0
 10
607.485699340413
 20
224.8317341683172
 30
0.0
 10
607.3731313104674
 20
224.7670001284884
 30
0.0
  0
SPLINE
  5
1DD
330
1F
100
AcDbEntity
  8
0
  6
Continuous
 62
     7
370
    15
100
AcDbSpline
210
0.0
220
0.0
230
1.0
 70
     8
 71
     3
 72
    37
 73
    33
 74
     0
 42
0.000000001
 43
0.00000001
 40
0.0
 40
0.0
 40
0.0
 40
0.0
 40
0.0187831118708921
 40
0.0532786837848901
 40
0.0877495872699734
 40
0.1222234389524635
 40
0.1567245828126033
 40
0.1912678549234727
 40
0.2258602281201205
 40
0.2605033456490811
 40
0.2951953150475684
 40
0.32993195389624
 40
0.3647076379759823
 40
0.3995158654579926
 40
0.4343496212195261
 40
0.4692016027370411
 40
0.5040643522431847
 40
0.5389303278655602
 40
0.5737903864635877
 40
0.6086359328441548
 40
0.6434593451971605
 40
0.6782530454521112
 40
0.7130095905340004
 40
0.7477218370135713
 40
0.782383215767362
 40
0.816988167148405
 40
0.8515328053492103
 40
0.8860159039472871
 40
0.920440322633365
 40
0.9548150253507807
 40
0.9891578655812472
 40
1.0
 40
1.0
 40
1.0
 40
1.0
 10
675.2300175472432
 20
165.5589537177829
 30
0.0
 10
675.2989191564585
 20
165.1665589991131
 30
0.0
 10
675.4943599904842
 20
164.0535232956273
 30
0.0
 10
675.6671467797566
 20
162.0763350277749
 30
0.0
 10
675.7546299164067
 20
159.6544803389425
 30
0.0
 10
675.6924321225525
 20
157.1235858110377
 30
0.0
 10
675.4872419306973
 20
154.5038432790123
 30
0.0
 10
675.1360800725066
 20
151.8054592946814
 30
0.0
 10
674.6396694555259
 20
149.0421418643649
 30
0.0
 10
673.9989006404253
 20
146.2273823070607
 30
0.0
 10
673.2157915330565
 20
143.3752648111499
 30
0.0
 10
672.2932120393451
 20
140.5000734966191
 30
0.0
 10
671.2349232633591
 20
137.6162446572272
 30
0.0
 10
670.0455227936299
 20
134.7382449949791
 30
0.0
 10
668.7304105465934
 20
131.880484599979
 30
0.0
 10
667.2957473067742
 20
129.0572319633498
 30
0.0
 10
665.7484150516161
 20
126.2825367648673
 30
0.0
 10
664.096001885352
 20
123.5701965267672
 30
0.0
 10
662.3467615661016
 20
120.9336649669434
 30
0.0
 10
660.5095606485953
 20
118.3859509364953
 30
0.0
 10
658.5938068936612
 20
115.9395102528728
 30
0.0
 10
656.6094137276699
 20
113.6061934315677
 30
0.0
 10
654.5667739024864
 20
111.3971930066732
 30
0.0
 10
652.4767166847057
 20
109.3229750998894
 30
0.0
 10
650.3504457369066
 20
107.393158732811
 30
0.0
 10
648.1995169213944
 20
105.6165662702733
 30
0.0
 10
646.0356185573158
 20
104.0006111927324
 30
0.0
 10
643.8710146836271
 20
102.5531290979266
 30
0.0
 10
641.7164163684206
 20
101.2750999004349
 30
0.0
 10
639.5882837842123
 20
100.1872922985419
 30
0.0
 10
637.9613477209151
 20
99.44874760783384
 30
0.0
 10
637.0651091437472
 20
99.13416900449823
 30
0.0
 10
636.8500567020814
 20
99.05868587035671
 30
0.0
  0
SPLINE
  5
1DE
330
1F
100
AcDbEntity
  8
0
  6
Continuous
 62
     7
370
    15
100
AcDbSpline
210
0.0
220
0.0
230
1.0
 70
     8
 71
     3
 72
    54
 73
    50
 74
     0
 42
0.000000001
 43
0.00000001
 40
0.0
 40
0.0
 40
0.0
 40
0.0
 40
0.011524381275492
 40
0.033297732318816
 40
0.0550617320892332
 40
0.0768153651407252
 40
0.0985566069232388
 40
0.1202845669278297
 40
0.1419991891691203
 40
0.1637010180747292
 40
0.1853910209641095
 40
0.2070704568606006
 40
0.2287407817854989
 40
0.2504035819754649
 40
0.2720605279877367
 40
0.2937133440867773
 40
0.3153637885062562
 40
0.3370136411131874
 40
0.3586645116278662
 40
0.3803177881158669
 40
0.4019752778192742
 40
0.4236387862139803
 40
0.4453101066570113
 40
0.4669910038079656
 40
0.4886831874619177
 40
0.5103882726497243
 40
0.5321077206955037
 40
0.5538427544688586
 40
0.5755942394014799
 40
0.5973625201636408
 40
0.6191472016865978
 40
0.6409468633903138
 40
0.6627586986479801
 40
0.6845780802557817
 40
0.7063956601458371
 40
0.7282002091023667
 40
0.749977689471657
 40
0.7717107505060188
 40
0.7933792313307308
 40
0.8149614069282357
 40
0.8364360825893702
 40
0.8577854185342652
 40
0.8789980717889923
 40
0.9000720026702826
 40
0.9210162508141692
 40
0.9418511943582333
 40
0.9626071762899003
 40
0.9833217440111021
 40
1.0
 40
1.0
 40
1.0
 40
1.0
 10
599.5949567174154
 20
229.2572447435133
 30
0.0
 10
599.0619865718861
 20
228.9443298736483
 30
0.0
 10
597.5220603220063
 20
228.0402157762173
 30
0.0
 10
594.9851455103626
 20
226.4084284395554
 30
0.0
 10
591.9973193445645
 20
224.3107380643206
 30
0.0
 10
589.0391195772024
 20
222.0456550582664
 30
0.0
 10
586.1179456530961
 20
219.6229842367457
 30
0.0
 10
583.2412995518857
 20
217.0489343145921
 30
0.0
 10
580.4164936015131
 20
214.3310727746301
 30
0.0
 10
577.6507080553182
 20
211.4769689438424
 30
0.0
 10
574.9509766418122
 20
208.494548652386
 30
0.0
 10
572.3241840473303
 20
205.3919888827645
 30
0.0
 10
569.7770546906862
 20
202.1777327607754
 30
0.0
 10
567.3161399771377
 20
198.8604691114316
 30
0.0
 10
564.9478035163071
 20
195.4491182515054
 30
0.0
 10
562.6782055921934
 20
191.952813053249
 30
0.0
 10
560.5132874614744
 20
188.3808785352595
 30
0.0
 10
558.4587618771782
 20
184.7428198030741
 30
0.0
 10
556.5201036884349
 20
181.0483122552715
 30
0.0
 10
554.7025204655996
 20
177.3071540104328
 30
0.0
 10
553.010935798947
 20
173.5292281163424
 30
0.0
 10
551.4499760412825
 20
169.7244616656143
 30
0.0
 10
550.023974520161
 20
165.9028235030212
 30
0.0
 10
548.7369654075443
 20
162.0742990467325
 30
0.0
 10
547.5926796759305
 20
158.2488664187852
 30
0.0
 10
546.5945431128778
 20
154.4364746750698
 30
0.0
 10
545.7456761985968
 20
150.6470250717704
 30
0.0
 10
545.0488954076859
 20
146.8903564833582
 30
0.0
 10
544.5067151320944
 20
143.1762362592072
 30
0.0
 10
544.1213488979547
 20
139.514357924423
 30
0.0
 10
543.894707824056
 20
135.9143471079401
 30
0.0
 10
543.8283933289556
 20
132.3857767534919
 30
0.0
 10
543.9236799759489
 20
128.9381918511979
 30
0.0
 10
544.1814737519421
 20
125.5812657691245
 30
0.0
 10
544.6022317317277
 20
122.3247706185823
 30
0.0
 10
545.1858654411031
 20
119.178571659916
 30
0.0
 10
545.9316543532289
 20
116.152516445556
 30
0.0
 10
546.8381177534116
 20
113.2564460091154
 30
0.0
 10
547.9028789842938
 20
110.5001091229133
 30
0.0
 10
549.1225585898658
 20
107.8929787022178
 30
0.0
 10
550.4927338433301
 20
105.4440098697192
 30
0.0
 10
552.007985845925
 20
103.1613451431029
 30
0.0
 10
553.662100083028
 20
101.0521263003283
 30
0.0
 10
555.4482263456687
 20
99.12209363399046
 30
0.0
 10
557.3596225268852
 20
97.3764359707683
 30
0.0
 10
559.3884410215868
 20
95.81666889111874
 30
0.0
 10
561.5316632388597
 20
94.45290379554994
 30
0.0
 10
563.6248234087818
 20
93.33695395809924
 30
0.0
 10
565.0460467418109
 20
92.76889236223053
 30
0.0
 10
565.6799525080463
 20
92.51552083867794
 30
0.0
  0
SPLINE
  5
1DF
330
1F
100
AcDbEntity
  8
0
  6
Continuous
 62
     7
370
    15
100
AcDbSpline
210
0.0
220
0.0
230
1.0
 70
     8
 71
     3
 72
    25
 73
    21
 74
     0
 42
0.000000001
 43
0.00000001
 40
0.0
 40
0.0
 40
0.0
 40
0.0
 40
0.0568602666131743
 40
0.1142429661491213
 40
0.1715339797544473
 40
0.2288216653597483
 40
0.2862071521696697
 40
0.3437926450164524
 40
0.4016599551631953
 40
0.4598640771970672
 40
0.518430380006573
 40
0.5773557077239185
 40
0.6366129715174653
 40
0.6961581038411748
 40
0.7559378291991552
 40
0.8158967656399496
 40
0.8759828502431799
 40
0.9361507255489698
 40
0.9932710146272749
 40
1.0
 40
1.0
 40
1.0
 40
1.0
 10
645.3731667846095
 20
230.4224517076489
 30
0.0
 10
644.7065052837668
 20
230.934826689136
 30
0.0
 10
643.3670569869124
 20
231.9642843605871
 30
0.0
 10
641.2056726224569
 20
233.2774446568536
 30
0.0
 10
638.9404291095477
 20
234.4165827055191
 30
0.0
 10
636.5747430528211
 20
235.3575114698085
 30
0.0
 10
634.1175223838895
 20
236.1030183036973
 30
0.0
 10
631.5731961945202
 20
236.650311385723
 30
0.0
 10
628.9472158477232
 20
236.9980489252721
 30
0.0
 10
626.2451875644961
 20
237.1444511569955
 30
0.0
 10
623.4734858540611
 20
237.088044990675
 30
0.0
 10
620.639282442376
 20
236.8277966210651
 30
0.0
 10
617.7505574104922
 20
236.3634099613591
 30
0.0
 10
614.8159519515991
 20
235.69549623643
 30
0.0
 10
611.8445465986338
 20
234.8256907405545
 30
0.0
 10
608.8456330064585
 20
233.7565333345953
 30
0.0
 10
605.8284535701332
 20
232.4917734602507
 30
0.0
 10
602.8540871916995
 20
231.0597385417712
 30
0.0
 10
600.7756481924717
 20
229.936220195145
 30
0.0
 10
599.7075247473612
 20
229.321978783342
 30
0.0
 10
599.5949567174154
 20
229.2572447435133
 30
0.0
  0
SPLINE
  5
1E0
330
1F
100
AcDbEntity
  8
0
  6
Continuous
 62
     7
370
    15
100
AcDbSpline
210
0.0
220
0.0
230
1.0
 70
     8
 71
     3
 72
    30
 73
    26
 74
     0
 42
0.000000001
 43
0.00000001
 40
0.0
 40
0.0
 40
0.0
 40
0.0
 40
0.0039656663710193
 40
0.049260126554183
 40
0.0946098943637568
 40
0.1400241240121542
 40
0.1855049728181314
 40
0.2310499562820245
 40
0.2766535835590285
 40
0.3223084709528363
 40
0.3680060826065767
 40
0.4137372087908811
 40
0.4594922624653006
 40
0.505261452779193
 40
0.5510348784655066
 40
0.5968005360492663
 40
0.6425471414225083
 40
0.6882646883728138
 40
0.7339432281108437
 40
0.7795729890746479
 40
0.8251445930890217
 40
0.8706494159500111
 40
0.9160801587341658
 40
0.9614317200003976
 40
1.0
 40
1.0
 40
1.0
 40
1.0
 10
667.895828698044
 20
161.8213950046369
 30
0.0
 10
667.894198609276
 20
161.7476950663686
 30
0.0
 10
667.873950214303
 20
160.8322201003799
 30
0.0
 10
667.6994437171102
 20
158.9878097744971
 30
0.0
 10
667.3604893979601
 20
156.2973895694018
 30
0.0
 10
666.8608009914528
 20
153.5319338217643
 30
0.0
 10
666.2209123682679
 20
150.7177484714406
 30
0.0
 10
665.4375669161233
 20
147.8654767923051
 30
0.0
 10
664.5150508737803
 20
144.990326871303
 30
0.0
 10
663.456745067055
 20
142.1064869215111
 30
0.0
 10
662.2673491672276
 20
139.2284902409981
 30
0.0
 10
660.9522356942675
 20
136.3707290444244
 30
0.0
 10
659.5175727833537
 20
133.5474766291707
 30
0.0
 10
657.9702404394528
 20
130.7727813473732
 30
0.0
 10
656.3178272990959
 20
128.0604412210598
 30
0.0
 10
654.5685869649778
 20
125.4239092975198
 30
0.0
 10
652.7313860810187
 20
122.8761966093067
 30
0.0
 10
650.8156322068718
 20
120.4297509251499
 30
0.0
 10
648.8312394836369
 20
118.096452740627
 30
0.0
 10
646.7885980091766
 20
115.8873828759208
 30
0.0
 10
644.6985469345555
 20
113.8134236203912
 30
0.0
 10
642.5722531109875
 20
111.8826440919592
 30
0.0
 10
640.4214094599763
 20
110.1096373958579
 30
0.0
 10
638.3638115308012
 20
108.5606005187304
 30
0.0
 10
637.0271824347203
 20
107.6864591426816
 30
0.0
 10
636.4128880741059
 20
107.2847170892869
 30
0.0
  0
SPLINE
  5
1E1
330
1F
100
AcDbEntity
  8
0
  6
Continuous
 62
     7
370
    15
100
AcDbSpline
210
0.0
220
0.0
230
1.0
 70
     8
 71
     3
 72
    54
 73
    50
 74
     0
 42
0.000000001
 43
0.00000001
 40
0.0
 40
0.0
 40
0.0
 40
0.0
 40
0.011524381275492
 40
0.0332977323188161
 40
0.0550617320892333
 40
0.0768153651407253
 40
0.0985566069232375
 40
0.1202845669278286
 40
0.1419991891691207
 40
0.1637010180747282
 40
0.1853910209641073
 40
0.2070704568606002
 40
0.228740781785497
 40
0.2504035819754654
 40
0.272060527987736
 40
0.2937133440867768
 40
0.3153637885062565
 40
0.3370136411131875
 40
0.3586645116278682
 40
0.3803177881158686
 40
0.4019752778192752
 40
0.423638786213981
 40
0.4453101066570133
 40
0.4669910038079686
 40
0.4886831874619187
 40
0.5103882726497275
 40
0.5321077206955063
 40
0.5538427544688604
 40
0.5755942394014824
 40
0.597362520163644
 40
0.6191472016866003
 40
0.640946863390317
 40
0.6627586986479814
 40
0.6845780802557851
 40
0.7063956601458399
 40
0.7282002091023702
 40
0.7499776894716613
 40
0.7717107505060224
 40
0.793379231330735
 40
0.8149614069282405
 40
0.8364360825893753
 40
0.8577854185342679
 40
0.8789980717889955
 40
0.9000720026702848
 40
0.9210162508141718
 40
0.9418511943582364
 40
0.9626071762899034
 40
0.9833217440111053
 40
0.9999999999999999
 40
0.9999999999999999
 40
0.9999999999999999
 40
0.9999999999999999
 10
591.8167821243634
 20
233.7474893585382
 30
0.0
 10
591.2838119788341
 20
233.4345744886732
 30
0.0
 10
589.7438857289543
 20
232.5304603912422
 30
0.0
 10
587.2069709173106
 20
230.8986730545803
 30
0.0
 10
584.2191447515124
 20
228.8009826793455
 30
0.0
 10
581.2609449841505
 20
226.5358996732914
 30
0.0
 10
578.3397710600441
 20
224.1132288517707
 30
0.0
 10
575.4631249588339
 20
221.5391789296171
 30
0.0
 10
572.6383190084613
 20
218.8213173896551
 30
0.0
 10
569.8725334622662
 20
215.9672135588674
 30
0.0
 10
567.1728020487603
 20
212.984793267411
 30
0.0
 10
564.5460094542784
 20
209.8822334977897
 30
0.0
 10
561.9988800976344
 20
206.6679773758003
 30
0.0
 10
559.5379653840857
 20
203.3507137264566
 30
0.0
 10
557.1696289232551
 20
199.9393628665304
 30
0.0
 10
554.9000309991414
 20
196.443057668274
 30
0.0
 10
552.7351128684224
 20
192.8711231502844
 30
0.0
 10
550.6805872841261
 20
189.2330644180989
 30
0.0
 10
548.7419290953828
 20
185.5385568702962
 30
0.0
 10
546.9243458725475
 20
181.7973986254574
 30
0.0
 10
545.2327612058949
 20
178.0194727313671
 30
0.0
 10
543.6718014482304
 20
174.214706280639
 30
0.0
 10
542.2457999271089
 20
170.3930681180458
 30
0.0
 10
540.9587908144921
 20
166.564543661757
 30
0.0
 10
539.8145050828783
 20
162.7391110338097
 30
0.0
 10
538.8163685198257
 20
158.9267192900943
 30
0.0
 10
537.9675016055447
 20
155.1372696867948
 30
0.0
 10
537.2707208146338
 20
151.3806010983828
 30
0.0
 10
536.7285405390423
 20
147.6664808742316
 30
0.0
 10
536.3431743049027
 20
144.0046025394475
 30
0.0
 10
536.1165332310039
 20
140.4045917229645
 30
0.0
 10
536.0502187359036
 20
136.8760213685165
 30
0.0
 10
536.1455053828968
 20
133.4284364662223
 30
0.0
 10
536.4032991588901
 20
130.071510384149
 30
0.0
 10
536.8240571386757
 20
126.8150152336067
 30
0.0
 10
537.4076908480513
 20
123.6688162749404
 30
0.0
 10
538.153479760177
 20
120.6427610605804
 30
0.0
 10
539.0599431603597
 20
117.7466906241398
 30
0.0
 10
540.1247043912421
 20
114.9903537379376
 30
0.0
 10
541.3443839968141
 20
112.3832233172422
 30
0.0
 10
542.7145592502784
 20
109.9342544847436
 30
0.0
 10
544.2298112528732
 20
107.6515897581274
 30
0.0
 10
545.8839254899761
 20
105.5423709153529
 30
0.0
 10
547.6700517526168
 20
103.6123382490151
 30
0.0
 10
549.5814479338335
 20
101.866680585793
 30
0.0
 10
551.6102664285352
 20
100.3069135061434
 30
0.0
 10
553.7534886458079
 20
98.94314841057465
 30
0.0
 10
555.8466488157301
 20
97.82719857312404
 30
0.0
 10
557.267872148759
 20
97.25913697725538
 30
0.0
 10
557.9017779149943
 20
97.00576545370286
 30
0.0
  0
SPLINE
  5
1E2
330
1F
100
AcDbEntity
  8
0
  6
Continuous
 62
     7
370
    15
100
AcDbSpline
210
0.0
220
0.0
230
1.0
 70
     8
 71
     3
 72
    25
 73
    21
 74
     0
 42
0.000000001
 43
0.00000001
 40
0.0
 40
0.0
 40
0.0
 40
0.0
 40
0.0568602666131842
 40
0.1142429661491279
 40
0.1715339797544548
 40
0.2288216653597546
 40
0.286207152169679
 40
0.3437926450164606
 40
0.4016599551632024
 40
0.459864077197077
 40
0.5184303800065809
 40
0.5773557077239283
 40
0.6366129715174771
 40
0.6961581038411875
 40
0.7559378291991659
 40
0.815896765639965
 40
0.8759828502431923
 40
0.93615072554898
 40
0.9932710146272838
 40
1.0
 40
1.0
 40
1.0
 40
1.0
 10
637.5949921915575
 20
234.9126963226738
 30
0.0
 10
636.9283306907147
 20
235.425071304161
 30
0.0
 10
635.5888823938603
 20
236.4545289756121
 30
0.0
 10
633.4274980294047
 20
237.7676892718787
 30
0.0
 10
631.1622545164954
 20
238.9068273205441
 30
0.0
 10
628.7965684597688
 20
239.8477560848335
 30
0.0
 10
626.3393477908372
 20
240.5932629187222
 30
0.0
 10
623.7950216014677
 20
241.140556000748
 30
0.0
 10
621.1690412546709
 20
241.488293540297
 30
0.0
 10
618.4670129714438
 20
241.6346957720205
 30
0.0
 10
615.6953112610088
 20
241.5782896056999
 30
0.0
 10
612.8611078493236
 20
241.31804123609
 30
0.0
 10
609.9723828174397
 20
240.8536545763839
 30
0.0
 10
607.0377773585466
 20
240.1857408514547
 30
0.0
 10
604.0663720055811
 20
239.3159353555793
 30
0.0
 10
601.0674584134058
 20
238.2467779496199
 30
0.0
 10
598.0502789770806
 20
236.9820180752754
 30
0.0
 10
595.075912598647
 20
235.5499831567957
 30
0.0
 10
592.9974735994194
 20
234.4264648101697
 30
0.0
 10
591.929350154309
 20
233.8122233983668
 30
0.0
 10
591.8167821243634
 20
233.7474893585382
 30
0.0
  0
SPLINE
  5
1E3
330
1F
100
AcDbEntity
  8
0
  6
Continuous
 62
     7
370
    15
100
AcDbSpline
210
0.0
220
0.0
230
1.0
 70
     8
 71
     3
 72
    21
 73
    17
 74
     0
 42
0.000000001
 43
0.00000001
 40
0.0
 40
0.0
 40
0.0
 40
0.0
 40
0.0356039106484337
 40
0.114300936433787
 40
0.1930864205057875
 40
0.2719456327521951
 40
0.3508626801760539
 40
0.4298210186642206
 40
0.5088037523934562
 40
0.5877937949977232
 40
0.6667704323839538
 40
0.7457141918525242
 40
0.8246078059358339
 40
0.9034341062598346
 40
0.9821762302872941
 40
1.0
 40
1.0
 40
1.0
 40
1.0
 10
657.9912532355521
 20
153.6447429933081
 30
0.0
 10
657.8759228799979
 20
153.2148674623788
 30
0.0
 10
657.505672326084
 20
151.8348174948243
 30
0.0
 10
656.7318924981244
 20
149.4796340058774
 30
0.0
 10
655.6799078818086
 20
146.5969830615529
 30
0.0
 10
654.4888157299503
 20
143.7186675542341
 30
0.0
 10
653.1741575586203
 20
140.8609910565451
 30
0.0
 10
651.7393715063084
 20
138.0377190160102
 30
0.0
 10
650.1920760735478
 20
135.2630174650944
 30
0.0
 10
648.5396384879786
 20
132.5507220544595
 30
0.0
 10
646.7904590006308
 20
129.9140175869913
 30
0.0
 10
644.9530393108807
 20
127.3669499516717
 30
0.0
 10
643.0380990511063
 20
124.9180988570633
 30
0.0
 10
641.0506744369952
 20
122.5937661386765
 30
0.0
 10
639.5423481418899
 20
120.928670301228
 30
0.0
 10
638.68594732523
 20
120.084775720446
 30
0.0
 10
638.5278760813704
 20
119.9290128305986
 30
0.0
  0
SPLINE
  5
1E4
330
1F
100
AcDbEntity
  8
0
  6
Continuous
 62
     7
370
    15
100
AcDbSpline
210
0.0
220
0.0
230
1.0
 70
     8
 71
     3
 72
    54
 73
    50
 74
     0
 42
0.000000001
 43
0.00000001
 40
0.0
 40
0.0
 40
0.0
 40
0.0
 40
0.011524381275492
 40
0.033297732318816
 40
0.0550617320892333
 40
0.0768153651407253
 40
0.0985566069232376
 40
0.1202845669278299
 40
0.1419991891691206
 40
0.1637010180747265
 40
0.1853910209641056
 40
0.2070704568605986
 40
0.2287407817854957
 40
0.2504035819754624
 40
0.2720605279877345
 40
0.2937133440867737
 40
0.3153637885062539
 40
0.3370136411131858
 40
0.3586645116278658
 40
0.3803177881158658
 40
0.4019752778192737
 40
0.4236387862139793
 40
0.4453101066570115
 40
0.4669910038079655
 40
0.4886831874619173
 40
0.5103882726497233
 40
0.5321077206955036
 40
0.5538427544688579
 40
0.5755942394014786
 40
0.5973625201636403
 40
0.6191472016865953
 40
0.6409468633903123
 40
0.6627586986479792
 40
0.6845780802557817
 40
0.7063956601458365
 40
0.7282002091023655
 40
0.7499776894716581
 40
0.7717107505060166
 40
0.7933792313307308
 40
0.8149614069282352
 40
0.8364360825893704
 40
0.857785418534265
 40
0.878998071788994
 40
0.9000720026702831
 40
0.9210162508141698
 40
0.9418511943582355
 40
0.962607176289902
 40
0.983321744011103
 40
1.0
 40
1.0
 40
1.0
 40
1.0
 10
584.0386075313114
 20
238.2377339735631
 30
0.0
 10
583.505637385782
 20
237.9248191036981
 30
0.0
 10
581.9657111359023
 20
237.0207050062671
 30
0.0
 10
579.4287963242585
 20
235.3889176696052
 30
0.0
 10
576.4409701584606
 20
233.2912272943704
 30
0.0
 10
573.4827703910984
 20
231.0261442883163
 30
0.0
 10
570.561596466992
 20
228.6034734667955
 30
0.0
 10
567.6849503657818
 20
226.0294235446419
 30
0.0
 10
564.8601444154092
 20
223.31156200468
 30
0.0
 10
562.0943588692144
 20
220.4574581738925
 30
0.0
 10
559.3946274557085
 20
217.4750378824362
 30
0.0
 10
556.7678348612266
 20
214.3724781128148
 30
0.0
 10
554.2207055045825
 20
211.1582219908255
 30
0.0
 10
551.759790791034
 20
207.8409583414818
 30
0.0
 10
549.3914543302034
 20
204.4296074815557
 30
0.0
 10
547.1218564060897
 20
200.9333022832992
 30
0.0
 10
544.9569382753707
 20
197.3613677653097
 30
0.0
 10
542.9024126910742
 20
193.7233090331241
 30
0.0
 10
540.9637545023311
 20
190.0288014853214
 30
0.0
 10
539.1461712794957
 20
186.2876432404826
 30
0.0
 10
537.4545866128431
 20
182.5097173463923
 30
0.0
 10
535.8936268551786
 20
178.7049508956642
 30
0.0
 10
534.4676253340571
 20
174.883312733071
 30
0.0
 10
533.1806162214402
 20
171.0547882767823
 30
0.0
 10
532.0363304898265
 20
167.2293556488351
 30
0.0
 10
531.0381939267737
 20
163.4169639051196
 30
0.0
 10
530.1893270124928
 20
159.6275143018202
 30
0.0
 10
529.4925462215818
 20
155.8708457134082
 30
0.0
 10
528.9503659459905
 20
152.1567254892571
 30
0.0
 10
528.5649997118508
 20
148.494847154473
 30
0.0
 10
528.338358637952
 20
144.8948363379901
 30
0.0
 10
528.2720441428517
 20
141.366265983542
 30
0.0
 10
528.3673307898447
 20
137.9186810812477
 30
0.0
 10
528.6251245658381
 20
134.5617549991743
 30
0.0
 10
529.0458825456236
 20
131.3052598486321
 30
0.0
 10
529.6295162549991
 20
128.1590608899658
 30
0.0
 10
530.3753051671247
 20
125.1330056756059
 30
0.0
 10
531.2817685673075
 20
122.2369352391652
 30
0.0
 10
532.3465297981897
 20
119.4805983529631
 30
0.0
 10
533.5662094037618
 20
116.8734679322676
 30
0.0
 10
534.9363846572262
 20
114.4244990997689
 30
0.0
 10
536.451636659821
 20
112.1418343731526
 30
0.0
 10
538.1057508969241
 20
110.032615530378
 30
0.0
 10
539.8918771595647
 20
108.1025828640401
 30
0.0
 10
541.8032733407814
 20
106.356925200818
 30
0.0
 10
543.8320918354831
 20
104.7971581211684
 30
0.0
 10
545.9753140527558
 20
103.4333930255996
 30
0.0
 10
548.068474222678
 20
102.317443188149
 30
0.0
 10
549.4896975557069
 20
101.7493815922803
 30
0.0
 10
550.1236033219424
 20
101.4960100687277
 30
0.0
  0
SPLINE
  5
1E5
330
1F
100
AcDbEntity
  8
0
  6
Continuous
 62
     7
370
    15
100
AcDbSpline
210
0.0
220
0.0
230
1.0
 70
     8
 71
     3
 72
    25
 73
    21
 74
     0
 42
0.000000001
 43
0.00000001
 40
0.0
 40
0.0
 40
0.0
 40
0.0
 40
0.0568602666131965
 40
0.1142429661491444
 40
0.1715339797544671
 40
0.2288216653597698
 40
0.286207152169687
 40
0.3437926450164704
 40
0.4016599551632153
 40
0.4598640771970888
 40
0.5184303800065926
 40
0.5773557077239408
 40
0.6366129715174825
 40
0.6961581038411988
 40
0.755937829199175
 40
0.8158967656399722
 40
0.8759828502432013
 40
0.936150725548987
 40
0.9932710146272828
 40
1.0
 40
1.0
 40
1.0
 40
1.0
 10
629.8168175985055
 20
239.4029409376986
 30
0.0
 10
629.1501560976626
 20
239.915315919186
 30
0.0
 10
627.8107078008079
 20
240.9447735906372
 30
0.0
 10
625.6493234363521
 20
242.2579338869039
 30
0.0
 10
623.3840799234429
 20
243.3970719355692
 30
0.0
 10
621.0183938667163
 20
244.3380006998585
 30
0.0
 10
618.5611731977848
 20
245.0835075337473
 30
0.0
 10
616.0168470084153
 20
245.630800615773
 30
0.0
 10
613.3908666616184
 20
245.978538155322
 30
0.0
 10
610.6888383783913
 20
246.1249403870453
 30
0.0
 10
607.9171366679562
 20
246.0685342207248
 30
0.0
 10
605.0829332562712
 20
245.8082858511148
 30
0.0
 10
602.1942082243872
 20
245.3438991914088
 30
0.0
 10
599.2596027654942
 20
244.6759854664795
 30
0.0
 10
596.2881974125287
 20
243.8061799706041
 30
0.0
 10
593.2892838203534
 20
242.7370225646447
 30
0.0
 10
590.2721043840281
 20
241.4722626903
 30
0.0
 10
587.2977380055949
 20
240.0402277718205
 30
0.0
 10
585.2192990063672
 20
238.9167094251945
 30
0.0
 10
584.151175561257
 20
238.3024680133917
 30
0.0
 10
584.0386075313114
 20
238.2377339735632
 30
0.0
  0
SPLINE
  5
1E6
330
1F
100
AcDbEntity
  8
0
  6
Continuous
 62
     7
370
    15
100
AcDbSpline
210
0.0
220
0.0
230
1.0
 70
     8
 71
     3
 72
    21
 73
    17
 74
     0
 42
0.000000001
 43
0.00000001
 40
0.0
 40
0.0
 40
0.0
 40
0.0
 40
0.0147293016756512
 40
0.093672384083236
 40
0.1724544469808363
 40
0.2510024074604421
 40
0.3292375126166492
 40
0.4070829319050845
 40
0.4844739963563045
 40
0.5613695878377154
 40
0.6377623125240621
 40
0.7136849389780953
 40
0.7892113376828725
 40
0.8644515015721911
 40
0.9395415394885244
 40
1.0
 40
1.0
 40
1.0
 40
1.0
 10
521.7700054851098
 20
133.253557484815
 30
0.0
 10
521.8055594210274
 20
133.0576711765309
 30
0.0
 10
522.0316680318952
 20
131.8119137122399
 30
0.0
 10
522.6061970464561
 20
129.6295405501851
 30
0.0
 10
523.5011743918984
 20
126.7255011636919
 30
0.0
 10
524.5689999612051
 20
123.9712902955525
 30
0.0
 10
525.7878632601673
 20
121.363593526642
 30
0.0
 10
527.158255646509
 20
118.914775339521
 30
0.0
 10
528.6734499672277
 20
116.6320705935945
 30
0.0
 10
530.3275795142988
 20
114.522862372776
 30
0.0
 10
532.1137017143865
 20
112.5928268878653
 30
0.0
 10
534.0250989741697
 20
110.8471699729455
 30
0.0
 10
536.0539171821317
 20
109.2874026943579
 30
0.0
 10
538.1971394758384
 20
107.9236376518185
 30
0.0
 10
540.2902996264979
 20
106.8076878010036
 30
0.0
 10
541.7115229616901
 20
106.2396262066357
 30
0.0
 10
542.3454287288903
 20
105.9862546837526
 30
0.0
  0
SPLINE
  5
1E7
330
1F
100
AcDbEntity
  8
0
  6
Continuous
 62
     7
370
    15
100
AcDbSpline
210
0.0
220
0.0
230
1.0
 70
     8
 71
     3
 72
    20
 73
    16
 74
     0
 42
0.000000001
 43
0.00000001
 40
0.0
 40
0.0
 40
0.0
 40
0.0
 40
0.0758257097535159
 40
0.1523481071859128
 40
0.228748237327327
 40
0.3051439294317954
 40
0.38167004381876
 40
0.4584628752051922
 40
0.535631522571097
 40
0.6132493236592096
 40
0.6913501090174815
 40
0.7699296701550137
 40
0.8489518829027021
 40
0.9283579812161067
 40
1.0
 40
1.0
 40
1.0
 40
1.0
 10
622.0386430054534
 20
243.8931855527236
 30
0.0
 10
621.3719815044471
 20
244.4055605325727
 30
0.0
 10
620.0325332072644
 20
245.4350182007326
 30
0.0
 10
617.8711488452891
 20
246.7481785218436
 30
0.0
 10
615.605905322952
 20
247.8873164760696
 30
0.0
 10
613.240219301459
 20
248.8282455932986
 30
0.0
 10
610.7829985006513
 20
249.5737511061726
 30
0.0
 10
608.2386728060969
 20
250.1210491447994
 30
0.0
 10
605.6126905989532
 20
250.468768049112
 30
0.0
 10
602.9106693191392
 20
250.6152404345611
 30
0.0
 10
600.1389412297591
 20
250.5585700283205
 30
0.0
 10
597.3048371586103
 20
250.2993167604944
 30
0.0
 10
594.4157383043039
 20
249.8311854928645
 30
0.0
 10
591.582019340903
 20
249.1995219865448
 30
0.0
 10
589.7024339520816
 20
248.6251547961422
 30
0.0
 10
588.8109478857897
 20
248.352732829987
 30
0.0
  0
LWPOLYLINE
  5
1E8
330
1F
100
AcDbEntity
  8
0
  6
Continuous
 62
     7
370
    15
100
AcDbPolyline
 90
      134
 70
   128
 43
0.0
 10
679.3765401132
 20
208.6529907479
 10
675.703341944
 20
206.4322873796
 10
672.0383401162
 20
204.0161168669
 10
668.3897126819
 20
201.4098706307
 10
664.7656011558
 20
198.6193642257
 10
661.1740923477
 20
195.6508243627
 10
657.6232003182
 20
192.5108750149
 10
654.1208484958
 20
189.2065226372
 10
650.6748519969
 20
185.7451405317
 10
647.2929001872
 20
182.1344523954
 10
643.9825395237
 20
178.3825150854
 10
640.7511567153
 20
174.4977006409
 10
637.6059622407
 20
170.4886776021
 10
634.5539742585
 20
166.3643916668
 10
631.6020029475
 20
162.1340457299
 10
628.7566353098
 20
157.8070793471
 10
626.0242204732
 20
153.3931476724
 10
623.4108555238
 20
148.9020999134
 10
620.9223719005
 20
144.3439573537
 10
618.5643223834
 20
139.7288909917
 10
616.341968703
 20
135.067198845
 10
614.2602697994
 20
130.3692829716
 10
612.3238707569
 20
125.645626259
 10
610.5370924388
 20
120.9067690321
 10
608.9039218462
 20
116.1632855345
 10
607.4280032214
 20
111.4257603328
 10
606.1126299159
 20
106.704764698
 10
604.960737042
 20
102.0108330176
 10
603.9748949229
 20
97.3544392884
 10
603.1573033581
 20
92.7459737457
 10
602.5097867139
 20
88.1957196781
 10
602.0337898532
 20
83.7138304817
 10
601.7303749111
 20
79.3103070038
 10
601.600218925
 20
74.9949752272
 10
601.6436123238
 20
70.7774643444
 10
601.8604582799
 20
66.6671852714
 10
602.250272925
 20
62.6733096479
 10
602.8121864304
 20
58.8047493723
 10
603.5449449473
 20
55.0701367151
 10
604.4469134049
 20
51.4778050576
 10
605.5160791588
 20
48.0357702963
 10
606.7500564823
 20
44.7517129568
 10
608.1460918894
 20
41.632961055
 10
609.7010702792
 20
38.686473746
 10
611.4115218868
 20
35.9188257951
 10
613.2736300261
 20
33.3361929071
 10
615.2832396054
 20
30.9443379458
 10
617.4358664002
 20
28.748598075
 10
619.7267070582
 20
26.7538728488
 10
622.1506498182
 20
24.9646132792
 10
624.7022859161
 20
23.384811904
 10
627.375921654
 20
22.0179938778
 10
630.1655911051
 20
20.867209106
 10
633.065069426
 20
19.9350254395
 10
636.0678867469
 20
19.2235229445
 10
639.1673426081
 20
18.7342892613
 10
642.3565209117
 20
18.4684160616
 10
645.6283053538
 20
18.4264966123
 10
648.9753953039
 20
18.6086244523
 10
652.3903220957
 20
19.0143931831
 10
655.8654656921
 20
19.6428973759
 10
659.3930716889
 20
20.4927345922
 10
662.9652686177
 20
21.5620085128
 10
666.5740855105
 20
22.8483331695
 10
670.2114696855
 20
24.348838269
 10
673.8693047163
 20
26.0601755977
 10
677.5394285428
 20
27.9785264928
 10
681.2136516836
 20
30.0996103635
 10
684.8837755101
 20
32.4186942421
 10
688.541610541
 20
34.9306033457
 10
692.178994716
 20
37.6297326229
 10
695.7878116087
 20
40.5100592609
 10
699.3600085375
 20
43.5651561246
 10
702.8876145343
 20
46.7882060984
 10
706.3627581307
 20
50.1720172974
 10
709.7776849225
 20
53.7090391158
 10
713.1247748726
 20
57.3913790747
 10
716.3965593147
 20
61.210820434
 10
719.5857376183
 20
65.1588405263
 10
722.6851934795
 20
69.2266297752
 10
725.6880108004
 20
73.4051113521
 10
728.5874891213
 20
77.6849614309
 10
731.3771585724
 20
82.0566299925
 10
734.0507943103
 20
86.5103621349
 10
736.6024304082
 20
91.0362198401
 10
739.0263731682
 20
95.62410415
 10
741.3172138262
 20
100.2637777006
 10
743.469840621
 20
104.9448875661
 10
745.4794502003
 20
109.6569883599
 10
747.3415583396
 20
114.3895655426
 10
749.0520099473
 20
119.132058884
 10
750.606988337
 20
123.8738860269
 10
752.0030237441
 20
128.604466101
 10
753.2370010676
 20
133.3132433322
 10
754.3061668215
 20
137.9897105974
 10
755.2081352791
 20
142.6234328694
 10
755.940893796
 20
147.204070502
 10
756.5028073014
 20
151.7214023014
 10
756.8926219465
 20
156.1653483342
 10
757.1094679026
 20
160.5259924189
 10
757.1528613014
 20
164.7936042535
 10
757.0227053153
 20
168.9586611273
 10
756.7192903732
 20
173.0118691697
 10
756.2432935125
 20
176.9441840888
 10
755.5957768683
 20
180.7468313523
 10
754.7781853035
 20
184.4113257672
 10
753.7923431844
 20
187.9294904136
 10
752.6404503105
 20
191.2934748905
 10
751.325077005
 20
194.4957728331
 10
749.8491583802
 20
197.5292386626
 10
748.2159877877
 20
200.3871035305
 10
746.4292094695
 20
203.0629904228
 10
744.492810427
 20
205.5509283896
 10
742.4111115234
 20
207.8453658683
 10
740.188757843
 20
209.9411830719
 10
737.8307083259
 20
211.8337034125
 10
735.3422247027
 20
213.5187039373
 10
732.7288597532
 20
214.9924247513
 10
729.9964449166
 20
216.251577407
 10
727.1510772789
 20
217.2933522426
 10
724.1991059679
 20
218.1154246509
 10
721.1471179857
 20
218.7159602671
 10
718.0019235111
 20
219.0936190613
 10
714.7705407028
 20
219.2475583292
 10
711.4601800392
 20
219.1774345719
 10
708.0782282295
 20
218.883404263
 10
704.6322317307
 20
218.3661234991
 10
701.1298799082
 20
217.6267465359
 10
697.5789878787
 20
216.6669232125
 10
693.9874790706
 20
215.48879527
 10
690.3633675445
 20
214.0949915725
 10
686.7147401103
 20
212.4886222411
 10
683.0497382824
 20
210.673271714
 10
679.3765401132
 20
208.6529907479
  0
LWPOLYLINE
  5
1E9
330
1F
100
AcDbEntity
  8
0
  6
Continuous
 62
     7
370
    15
100
AcDbPolyline
 90
       16
 70
   128
 43
0.0
 10
679.3765401132
 20
189.8725520745
 10
682.6231892209
 20
191.6478034221
 10
685.8607893352
 20
193.2201082503
 10
689.0803166839
 20
194.5850842636
 10
692.2727978669
 20
195.7389270289
 10
695.4293348665
 20
196.6784205797
 10
698.541129848
 20
197.4009463788
 10
701.5995096805
 20
197.9044906172
 10
704.595950111
 20
198.1876498268
 10
707.5220995226
 20
198.2496347922
 10
710.369802212
 20
198.0902727501
 10
713.1311211211
 20
197.7100078711
 10
715.7983599588
 20
197.1099000217
 10
718.3640846521
 20
196.2916218099
 10
720.821144066
 20
195.2574539241
 10
722.8730049829
 20
194.1797524675
  0
LWPOLYLINE
  5
1EA
330
1F
100
AcDbEntity
  8
0
  6
Continuous
 62
     7
370
    15
100
AcDbPolyline
 90
       46
 70
   128
 43
0.0
 10
635.8800752435
 20
43.4872504133
 10
634.4649874871
 20
44.3591260589
 10
632.3088431517
 20
45.9191114891
 10
630.2838849297
 20
47.6823224018
 10
628.3957567428
 20
49.6438444119
 10
626.6497211429
 20
51.7982104058
 10
625.0506446444
 20
54.139415779
 10
623.6029841603
 20
56.6609351723
 10
622.31077458
 20
59.3557406589
 10
621.1776175234
 20
62.2163213326
 10
620.2066713024
 20
65.2347042419
 10
619.4006421184
 20
68.4024766122
 10
618.7617765191
 20
71.710809294
 10
618.2918551376
 20
75.1504813705
 10
617.9921877292
 20
78.7119058588
 10
617.8636095205
 20
82.3851564301
 10
617.9064788822
 20
86.1599950762
 10
618.1206763296
 20
90.0259006448
 10
618.505604856
 20
93.9720981636
 10
619.0601915966
 20
97.9875888724
 10
619.7828908187
 20
102.0611808784
 10
620.6716882299
 20
106.1815203501
 10
621.7241065925
 20
110.3371231622
 10
622.9372126276
 20
114.5164069045
 10
624.3076251912
 20
118.7077231636
 10
625.8315246977
 20
122.8993899893
 10
627.5046637658
 20
127.0797244544
 10
629.3223790569
 20
131.2370752169
 10
631.2796042724
 20
135.3598549946
 10
633.3708842746
 20
139.4365728609
 10
635.590390291
 20
143.4558662718
 10
637.9319361604
 20
147.4065327357
 10
640.3889955744
 20
151.2775610366
 10
642.9547202676
 20
155.0581619244
 10
645.6219591053
 20
158.7377981862
 10
648.3832780144
 20
162.306214016
 10
651.2309807038
 20
165.7534635986
 10
654.1571301154
 20
169.0699388313
 10
657.1535705459
 20
172.2463961027
 10
660.2119503785
 20
175.2739820567
 10
663.3237453599
 20
178.1442582683
 10
666.4802823595
 20
180.8492247627
 10
669.6727635425
 20
183.3813423134
 10
672.8922908912
 20
185.7335534544
 10
676.1298910055
 20
187.8993021514
 10
679.3765401132
 20
189.8725520745
  0
LWPOLYLINE
  5
1EB
330
1F
100
AcDbEntity
  8
0
  6
Continuous
 62
     7
370
    15
100
AcDbPolyline
 90
       33
 70
   128
 43
0.0
 10
679.3765401132
 20
203.7537458765
 10
678.4798671305
 20
203.1341251641
 10
677.6176527877
 20
202.3343512925
 10
676.8230314984
 20
201.3851591232
 10
676.1265401132
 20
200.3230255788
 10
675.5549444053
 20
199.1887678559
 10
675.1302104774
 20
198.0259748427
 10
674.8686606159
 20
196.8793320225
 10
674.7803460355
 20
195.7929042359
 10
674.8686606159
 20
194.8084422934
 10
675.1302104774
 20
193.9637785154
 10
675.5549444053
 20
193.2913728572
 10
676.1265401132
 20
192.8170654912
 10
676.8230314984
 20
192.5590837834
 10
677.6176527877
 20
192.5273418262
 10
678.4798671305
 20
192.7230594452
 10
679.3765401132
 20
193.138715322
 10
680.2732130959
 20
193.7583360345
 10
681.1354274387
 20
194.5581099061
 10
681.930048728
 20
195.5073020754
 10
682.6265401132
 20
196.5694356198
 10
683.1981358211
 20
197.7036933427
 10
683.6228697491
 20
198.8664863559
 10
683.8844196105
 20
200.0131291761
 10
683.9727341909
 20
201.0995569627
 10
683.8844196105
 20
202.0840189052
 10
683.6228697491
 20
202.9286826832
 10
683.1981358211
 20
203.6010883413
 10
682.6265401132
 20
204.0753957074
 10
681.930048728
 20
204.3333774152
 10
681.1354274387
 20
204.3651193724
 10
680.2732130959
 20
204.1694017534
 10
679.3765401132
 20
203.7537458765
  0
LWPOLYLINE
  5
1EC
330
1F
100
AcDbEntity
  8
0
  6
Continuous
 62
     7
370
    15
100
AcDbPolyline
 90
       33
 70
   128
 43
0.0
 10
630.6265401132
 20
152.2929414105
 10
629.7298671305
 20
151.673320698
 10
628.8676527877
 20
150.8735468265
 10
628.0730314984
 20
149.9243546571
 10
627.3765401132
 20
148.8622211128
 10
626.8049444053
 20
147.7279633899
 10
626.3802104774
 20
146.5651703766
 10
626.1186606159
 20
145.4185275564
 10
626.0303460355
 20
144.3320997698
 10
626.1186606159
 20
143.3476378274
 10
626.3802104774
 20
142.5029740494
 10
626.8049444053
 20
141.8305683912
 10
627.3765401132
 20
141.3562610252
 10
628.0730314984
 20
141.0982793174
 10
628.8676527877
 20
141.0665373602
 10
629.7298671305
 20
141.2622549791
 10
630.6265401132
 20
141.677910856
 10
631.5232130959
 20
142.2975315685
 10
632.3854274387
 20
143.09730544
 10
633.180048728
 20
144.0464976094
 10
633.8765401132
 20
145.1086311537
 10
634.4481358211
 20
146.2428888766
 10
634.8728697491
 20
147.4056818899
 10
635.1344196105
 20
148.5523247101
 10
635.2227341909
 20
149.6387524967
 10
635.1344196105
 20
150.6232144392
 10
634.8728697491
 20
151.4678782171
 10
634.4481358211
 20
152.1402838753
 10
633.8765401132
 20
152.6145912413
 10
633.180048728
 20
152.8725729491
 10
632.3854274387
 20
152.9043149063
 10
631.5232130959
 20
152.7085972874
 10
630.6265401132
 20
152.2929414105
  0
LWPOLYLINE
  5
1ED
330
1F
100
AcDbEntity
  8
0
  6
Continuous
 62
     7
370
    15
100
AcDbPolyline
 90
       33
 70
   128
 43
0.0
 10
728.1265401132
 20
208.5784933389
 10
727.2298671305
 20
207.9588726264
 10
726.3676527877
 20
207.1590987548
 10
725.5730314984
 20
206.2099065855
 10
724.8765401132
 20
205.1477730411
 10
724.3049444053
 20
204.0135153182
 10
723.8802104774
 20
202.850722305
 10
723.6186606159
 20
201.7040794848
 10
723.5303460355
 20
200.6176516982
 10
723.6186606159
 20
199.6331897557
 10
723.8802104774
 20
198.7885259777
 10
724.3049444053
 20
198.1161203195
 10
724.8765401132
 20
197.6418129535
 10
725.5730314984
 20
197.3838312457
 10
726.3676527877
 20
197.3520892885
 10
727.2298671305
 20
197.5478069075
 10
728.1265401132
 20
197.9634627843
 10
729.0232130959
 20
198.5830834968
 10
729.8854274387
 20
199.3828573684
 10
730.680048728
 20
200.3320495377
 10
731.3765401132
 20
201.3941830821
 10
731.9481358211
 20
202.528440805
 10
732.3728697491
 20
203.6912338182
 10
732.6344196105
 20
204.8378766384
 10
732.7227341909
 20
205.924304425
 10
732.6344196105
 20
206.9087663675
 10
732.3728697491
 20
207.7534301455
 10
731.9481358211
 20
208.4258358036
 10
731.3765401132
 20
208.9001431697
 10
730.680048728
 20
209.1581248775
 10
729.8854274387
 20
209.1898668347
 10
729.0232130959
 20
208.9941492157
 10
728.1265401132
 20
208.5784933389
  0
LWPOLYLINE
  5
1EE
330
1F
100
AcDbEntity
  8
0
  6
Continuous
 62
     7
370
    15
100
AcDbPolyline
 90
       33
 70
   128
 43
0.0
 10
748.3194512789
 20
163.940912169
 10
747.4227782962
 20
163.3212914566
 10
746.5605639534
 20
162.521517585
 10
745.7659426641
 20
161.5723254156
 10
745.0694512789
 20
160.5101918713
 10
744.497855571
 20
159.3759341484
 10
744.073121643
 20
158.2131411352
 10
743.8115717816
 20
157.066498315
 10
743.7232572012
 20
155.9800705284
 10
743.8115717816
 20
154.9956085859
 10
744.073121643
 20
154.1509448079
 10
744.497855571
 20
153.4785391497
 10
745.0694512789
 20
153.0042317837
 10
745.7659426641
 20
152.7462500759
 10
746.5605639534
 20
152.7145081187
 10
747.4227782962
 20
152.9102257377
 10
748.3194512789
 20
153.3258816145
 10
749.2161242616
 20
153.945502327
 10
750.0783386044
 20
154.7452761986
 10
750.8729598937
 20
155.6944683679
 10
751.5694512789
 20
156.7566019123
 10
752.1410469868
 20
157.8908596351
 10
752.5657809147
 20
159.0536526484
 10
752.8273307762
 20
160.2002954686
 10
752.9156453566
 20
161.2867232552
 10
752.8273307762
 20
162.2711851977
 10
752.5657809147
 20
163.1158489757
 10
752.1410469868
 20
163.7882546338
 10
751.5694512789
 20
164.2625619999
 10
750.8729598937
 20
164.5205437077
 10
750.0783386044
 20
164.5522856649
 10
749.2161242616
 20
164.3565680459
 10
748.3194512789
 20
163.940912169
  0
LWPOLYLINE
  5
1EF
330
1F
100
AcDbEntity
  8
0
  6
Continuous
 62
     7
370
    15
100
AcDbPolyline
 90
       33
 70
   128
 43
0.0
 10
728.1265401132
 20
95.9890920249
 10
727.2298671305
 20
95.3694713124
 10
726.3676527877
 20
94.5696974408
 10
725.5730314985
 20
93.6205052715
 10
724.8765401132
 20
92.5583717271
 10
724.3049444053
 20
91.4241140042
 10
723.8802104774
 20
90.261320991
 10
723.6186606159
 20
89.1146781708
 10
723.5303460355
 20
88.0282503842
 10
723.6186606159
 20
87.0437884417
 10
723.8802104774
 20
86.1991246637
 10
724.3049444053
 20
85.5267190055
 10
724.8765401132
 20
85.0524116395
 10
725.5730314985
 20
84.7944299317
 10
726.3676527877
 20
84.7626879745
 10
727.2298671305
 20
84.9584055935
 10
728.1265401132
 20
85.3740614703
 10
729.0232130959
 20
85.9936821828
 10
729.8854274387
 20
86.7934560544
 10
730.680048728
 20
87.7426482237
 10
731.3765401132
 20
88.8047817681
 10
731.9481358211
 20
89.939039491
 10
732.3728697491
 20
91.1018325042
 10
732.6344196105
 20
92.2484753244
 10
732.7227341909
 20
93.334903111
 10
732.6344196105
 20
94.3193650535
 10
732.3728697491
 20
95.1640288315
 10
731.9481358211
 20
95.8364344896
 10
731.3765401132
 20
96.3107418557
 10
730.680048728
 20
96.5687235635
 10
729.8854274387
 20
96.6004655207
 10
729.0232130959
 20
96.4047479017
 10
728.1265401132
 20
95.9890920249
  0
LWPOLYLINE
  5
1F0
330
1F
100
AcDbEntity
  8
0
  6
Continuous
 62
     7
370
    15
100
AcDbPolyline
 90
       33
 70
   128
 43
0.0
 10
679.3765401132
 20
44.5282875588
 10
678.4798671305
 20
43.9086668464
 10
677.6176527877
 20
43.1088929748
 10
676.8230314984
 20
42.1597008054
 10
676.1265401132
 20
41.0975672611
 10
675.5549444053
 20
39.9633095382
 10
675.1302104774
 20
38.800516525
 10
674.8686606159
 20
37.6538737048
 10
674.7803460355
 20
36.5674459181
 10
674.8686606159
 20
35.5829839757
 10
675.1302104774
 20
34.7383201977
 10
675.5549444053
 20
34.0659145395
 10
676.1265401132
 20
33.5916071735
 10
676.8230314984
 20
33.3336254657
 10
677.6176527877
 20
33.3018835085
 10
678.4798671305
 20
33.4976011275
 10
679.3765401132
 20
33.9132570043
 10
680.2732130959
 20
34.5328777168
 10
681.1354274387
 20
35.3326515884
 10
681.930048728
 20
36.2818437577
 10
682.6265401132
 20
37.343977302
 10
683.1981358211
 20
38.4782350249
 10
683.6228697491
 20
39.6410280382
 10
683.8844196105
 20
40.7876708584
 10
683.9727341909
 20
41.874098645
 10
683.8844196105
 20
42.8585605875
 10
683.6228697491
 20
43.7032243654
 10
683.1981358211
 20
44.3756300236
 10
682.6265401132
 20
44.8499373896
 10
681.930048728
 20
45.1079190974
 10
681.1354274387
 20
45.1396610547
 10
680.2732130959
 20
44.9439434357
 10
679.3765401132
 20
44.5282875588
  0
LWPOLYLINE
  5
1F1
330
1F
100
AcDbEntity
  8
0
  6
Continuous
 62
     7
370
    15
100
AcDbPolyline
 90
       33
 70
   128
 43
0.0
 10
630.6265401132
 20
39.7035400965
 10
629.7298671305
 20
39.0839193841
 10
628.8676527877
 20
38.2841455125
 10
628.0730314984
 20
37.3349533431
 10
627.3765401132
 20
36.2728197988
 10
626.8049444053
 20
35.1385620759
 10
626.3802104774
 20
33.9757690626
 10
626.1186606159
 20
32.8291262424
 10
626.0303460355
 20
31.7426984558
 10
626.1186606159
 20
30.7582365134
 10
626.3802104774
 20
29.9135727354
 10
626.8049444053
 20
29.2411670772
 10
627.3765401132
 20
28.7668597112
 10
628.0730314984
 20
28.5088780034
 10
628.8676527877
 20
28.4771360462
 10
629.7298671305
 20
28.6728536652
 10
630.6265401132
 20
29.088509542
 10
631.5232130959
 20
29.7081302545
 10
632.3854274387
 20
30.507904126
 10
633.180048728
 20
31.4570962954
 10
633.8765401132
 20
32.5192298397
 10
634.4481358211
 20
33.6534875626
 10
634.8728697491
 20
34.8162805759
 10
635.1344196105
 20
35.9629233961
 10
635.2227341909
 20
37.0493511827
 10
635.1344196105
 20
38.0338131252
 10
634.8728697491
 20
38.8784769031
 10
634.4481358211
 20
39.5508825613
 10
633.8765401132
 20
40.0251899273
 10
633.180048728
 20
40.2831716351
 10
632.3854274387
 20
40.3149135923
 10
631.5232130959
 20
40.1191959734
 10
630.6265401132
 20
39.7035400965
  0
LWPOLYLINE
  5
1F2
330
1F
100
AcDbEntity
  8
0
  6
Continuous
 62
     7
370
    15
100
AcDbPolyline
 90
       33
 70
   128
 43
0.0
 10
610.4336289475
 20
84.3411212663
 10
609.5369559648
 20
83.7215005539
 10
608.674741622
 20
82.9217266823
 10
607.8801203328
 20
81.9725345129
 10
607.1836289475
 20
80.9104009686
 10
606.6120332397
 20
79.7761432457
 10
606.1872993117
 20
78.6133502325
 10
605.9257494502
 20
77.4667074123
 10
605.8374348698
 20
76.3802796256
 10
605.9257494502
 20
75.3958176832
 10
606.1872993117
 20
74.5511539052
 10
606.6120332397
 20
73.878748247
 10
607.1836289475
 20
73.404440881
 10
607.8801203328
 20
73.1464591732
 10
608.674741622
 20
73.114717216
 10
609.5369559648
 20
73.310434835
 10
610.4336289475
 20
73.7260907118
 10
611.3303019302
 20
74.3457114243
 10
612.192516273
 20
75.1454852959
 10
612.9871375623
 20
76.0946774652
 10
613.6836289475
 20
77.1568110095
 10
614.2552246554
 20
78.2910687324
 10
614.6799585834
 20
79.4538617457
 10
614.9415084448
 20
80.6005045659
 10
615.0298230252
 20
81.6869323525
 10
614.9415084448
 20
82.671394295
 10
614.6799585834
 20
83.5160580729
 10
614.2552246554
 20
84.1884637311
 10
613.6836289475
 20
84.6627710971
 10
612.9871375623
 20
84.9207528049
 10
612.192516273
 20
84.9524947622
 10
611.3303019302
 20
84.7567771432
 10
610.4336289475
 20
84.3411212663
  0
LWPOLYLINE
  5
1F3
330
1F
100
AcDbEntity
  8
0
  6
Continuous
 62
     7
370
    15
100
AcDbPolyline
 90
       51
 70
   128
 43
0.0
 10
663.1130841459
 20
218.0416840338
 10
659.4398859767
 20
215.8209806656
 10
655.7748841489
 20
213.4048101528
 10
652.1262567147
 20
210.7985639167
 10
648.5021451885
 20
208.0080575117
 10
644.9106363804
 20
205.0395176487
 10
641.3597443509
 20
201.8995683009
 10
637.8573925285
 20
198.5952159231
 10
634.4113960296
 20
195.1338338176
 10
631.0294442199
 20
191.5231456813
 10
627.7190835564
 20
187.7712083713
 10
624.487700748
 20
183.8863939269
 10
621.3425062734
 20
179.877370888
 10
618.2905182913
 20
175.7530849528
 10
615.3385469802
 20
171.5227390158
 10
612.4931793425
 20
167.195772633
 10
609.7607645059
 20
162.7818409584
 10
607.1473995565
 20
158.2907931994
 10
604.6589159332
 20
153.7326506397
 10
602.3008664161
 20
149.1175842776
 10
600.0785127357
 20
144.455892131
 10
597.9968138322
 20
139.7579762576
 10
596.0604147896
 20
135.0343195449
 10
594.2736364715
 20
130.2954623181
 10
592.6404658789
 20
125.5519788205
 10
591.1645472541
 20
120.8144536187
 10
589.8491739486
 20
116.093457984
 10
588.6972810747
 20
111.3995263035
 10
587.7114389556
 20
106.7431325744
 10
586.8938473908
 20
102.1346670317
 10
586.2463307466
 20
97.5844129641
 10
585.7703338859
 20
93.1025237677
 10
585.4669189438
 20
88.6990002898
 10
585.3367629577
 20
84.3836685131
 10
585.3801563565
 20
80.1661576303
 10
585.5970023126
 20
76.0558785573
 10
585.9868169577
 20
72.0620029339
 10
586.5487304631
 20
68.1934426582
 10
587.28148898
 20
64.4588300011
 10
588.1834574376
 20
60.8664983436
 10
589.2526231915
 20
57.4244635823
 10
590.486600515
 20
54.1404062427
 10
591.8826359221
 20
51.021654341
 10
593.4376143119
 20
48.075167032
 10
595.1480659196
 20
45.307519081
 10
597.0101740588
 20
42.724886193
 10
599.0197836381
 20
40.3330312318
 10
601.1724104329
 20
38.1372913609
 10
603.4632510909
 20
36.1425661347
 10
605.8871938509
 20
34.3533065652
 10
608.1175538509
 20
32.9568198645
  0
LWPOLYLINE
  5
1F4
330
1F
100
AcDbEntity
  8
0
  6
Continuous
 62
     7
370
    15
100
AcDbPolyline
 90
       18
 70
   128
 43
0.0
 10
718.1086144409
 20
223.4875695883
 10
716.4654037859
 20
224.3811180372
 10
713.7329889493
 20
225.640270693
 10
710.8876213116
 20
226.6820455285
 10
707.9356500006
 20
227.5041179369
 10
704.8836620185
 20
228.1046535531
 10
701.7384675438
 20
228.4823123473
 10
698.5070847355
 20
228.6362516151
 10
695.1967240719
 20
228.5661278578
 10
691.8147722622
 20
228.2720975489
 10
688.3687757634
 20
227.7548167851
 10
684.8664239409
 20
227.0154398219
 10
681.3155319114
 20
226.0556164984
 10
677.7240231033
 20
224.8774885559
 10
674.0999115772
 20
223.4836848585
 10
670.451284143
 20
221.8773155271
 10
666.7862823152
 20
220.0619649999
 10
663.1130841459
 20
218.0416840338
  0
LWPOLYLINE
  5
1F5
330
1F
100
AcDbEntity
  8
0
  6
Continuous
 62
     7
370
    15
100
AcDbPolyline
 90
      120
 70
   128
 43
0.0
 10
681.1443070662
 20
188.8520419347
 10
677.8976579585
 20
186.8787920117
 10
674.6600578442
 20
184.7130433146
 10
671.4405304954
 20
182.3608321736
 10
668.2480493125
 20
179.828714623
 10
665.0915123129
 20
177.1237481285
 10
661.9797173314
 20
174.2534719169
 10
658.9213374989
 20
171.2258859629
 10
655.9248970684
 20
168.0494286915
 10
652.9987476568
 20
164.7329534588
 10
650.1510449674
 20
161.2857038762
 10
647.3897260583
 20
157.7172880465
 10
644.7224872206
 20
154.0376517846
 10
642.1567625273
 20
150.2570508968
 10
639.6997031134
 20
146.3860225959
 10
637.358157244
 20
142.435356132
 10
635.1386512275
 20
138.4160627211
 10
633.0473712253
 20
134.3393448548
 10
631.0901460098
 20
130.2165650771
 10
629.2724307187
 20
126.0592143146
 10
627.5992916506
 20
121.8788798495
 10
626.0753921442
 20
117.6872130238
 10
624.7049795806
 20
113.4958967648
 10
623.4918735454
 20
109.3166130224
 10
622.4394551829
 20
105.1610102103
 10
621.5506577717
 20
101.0406707387
 10
620.8279585496
 20
96.9670787326
 10
620.273371809
 20
92.9515880238
 10
619.8884432826
 20
89.005390505
 10
619.6742458352
 20
85.1394849365
 10
619.6313764735
 20
81.3646462904
 10
619.7599546821
 20
77.6913957191
 10
620.0596220906
 20
74.1299712307
 10
620.5295434721
 20
70.6902991542
 10
621.1684090713
 20
67.3819664725
 10
621.9744382554
 20
64.2141941021
 10
622.9453844764
 20
61.1958111928
 10
624.078541533
 20
58.3352305192
 10
625.3707511133
 20
55.6404250326
 10
626.8184115974
 20
53.1189056392
 10
628.4174880959
 20
50.777700266
 10
630.1635236958
 20
48.6233342721
 10
632.0516518827
 20
46.661812262
 10
634.0766101047
 20
44.8986013493
 10
636.2327544401
 20
43.3386159191
 10
638.5140753278
 20
41.9862039306
 10
640.9142143174
 20
40.8451347986
 10
643.4264817911
 20
39.9185888874
 10
646.0438756087
 20
39.2091486466
 10
648.7591006243
 20
38.7187914134
 10
651.5645890188
 20
38.4488839014
 10
654.4525213928
 20
38.4001783912
 10
657.4148485608
 20
38.5728106338
 10
660.4433139858
 20
38.9662994722
 10
663.5294767913
 20
39.5795481825
 10
666.6647352881
 20
40.4108475304
 10
669.8403509485
 20
41.4578805356
 10
673.0474727621
 20
42.7177289294
 10
676.277161905
 20
44.1868812882
 10
679.5204166545
 20
45.861242821
 10
682.7681974778
 20
47.7361467818
 10
686.0114522273
 20
49.8063674771
 10
689.2411413703
 20
52.0661348305
 10
692.4482631838
 20
54.509150465
 10
695.6238788442
 20
57.1286052578
 10
698.759137341
 20
59.9171983188
 10
701.8453001466
 20
62.8671573388
 10
704.8737655715
 20
65.9702602529
 10
707.8360927395
 20
69.2178581569
 10
710.7240251135
 20
72.6008994128
 10
713.529513508
 20
76.1099548778
 10
716.2447385237
 20
79.7352441852
 10
718.8621323413
 20
83.4666630032
 10
721.3743998149
 20
87.2938111985
 10
723.7745388046
 20
91.2060218225
 10
726.0558596923
 20
95.1923908426
 10
728.2120040276
 20
99.2418075334
 10
730.2369622497
 20
103.3429854441
 10
732.1250904366
 20
107.4844938565
 10
733.8711260365
 20
111.6547896438
 10
735.470202535
 20
115.8422494436
 10
736.9178630191
 20
120.0352020544
 10
738.2100725994
 20
124.2219609653
 10
739.343229656
 20
128.3908569282
 10
740.3141758769
 20
132.5302704824
 10
741.120205061
 20
136.6286643399
 10
741.7590706603
 20
140.6746155419
 10
742.2289920417
 20
144.6568472968
 10
742.5286594502
 20
148.5642604103
 10
742.6572376589
 20
152.3859642214
 10
742.6143682972
 20
156.1113069561
 10
742.4001708498
 20
159.7299054159
 10
742.0152423234
 20
163.2316739181
 10
741.4606555827
 20
166.6068524056
 10
740.7379563606
 20
169.8460336507
 10
739.8491589494
 20
172.9401894743
 10
738.7967405869
 20
175.8806959091
 10
737.5836345518
 20
178.6593572364
 10
736.2132219882
 20
181.2684288286
 10
734.6893224817
 20
183.7006387352
 10
733.0161834136
 20
185.949207951
 10
731.1984681225
 20
188.0078693103
 10
729.241242907
 20
189.8708849546
 10
727.1499629048
 20
191.5330623252
 10
724.9304568884
 20
192.9897686357
 10
722.588911019
 20
194.2369437843
 10
720.131851605
 20
195.2711116702
 10
717.5661269118
 20
196.0893898819
 10
714.8988880741
 20
196.6894977314
 10
712.137569165
 20
197.0697626103
 10
709.2898664756
 20
197.2291246524
 10
706.363717064
 20
197.1671396871
 10
703.3672766335
 20
196.8839804774
 10
700.3088968009
 20
196.380436239
 10
697.1971018195
 20
195.6579104399
 10
694.0405648199
 20
194.7184168892
 10
690.8480836369
 20
193.5645741238
 10
687.6285562882
 20
192.1995981105
 10
684.3909561739
 20
190.6272932823
 10
681.1443070662
 20
188.8520419347
  0
LWPOLYLINE
  5
1F6
330
1F
100
AcDbEntity
  8
0
  6
Continuous
 62
     7
370
    15
100
AcDbPolyline
 90
      108
 70
   128
 43
0.0
 10
681.1443070662
 20
175.3791185386
 10
678.2186690392
 20
173.5909624726
 10
675.3031162926
 20
171.6105281849
 10
672.4076993407
 20
169.4446426428
 10
669.5423992855
 20
167.1007721024
 10
666.7170934099
 20
164.5869963711
 10
663.9415211285
 20
161.9119809546
 10
661.225250414
 20
159.084947185
 10
658.5776448143
 20
156.1156404336
 10
656.0078311742
 20
153.0142965158
 10
653.5246681739
 20
149.7916064066
 10
651.1367157906
 20
146.4586793864
 10
648.8522057908
 20
143.027004745
 10
646.6790133538
 20
139.5084121759
 10
644.6246299241
 20
135.9150309966
 10
642.696137387
 20
132.2592483365
 10
640.9001836557
 20
128.5536664356
 10
639.2429597549
 20
124.8110592025
 10
637.7301784785
 20
121.0443281796
 10
636.3670546972
 20
117.266458069
 10
635.1582873809
 20
113.4904719718
 10
634.108043401
 20
109.7293864941
 10
633.2199431661
 20
105.9961668768
 10
632.4970481416
 20
102.3036823013
 10
631.9418502964
 20
98.6646615268
 10
631.5562635126
 20
95.0916490119
 10
631.3416169877
 20
91.5969616708
 10
631.2986506526
 20
88.1926464148
 10
631.4275126213
 20
84.8904386238
 10
631.7277586799
 20
81.7017216922
 10
632.1983538179
 20
78.6374877878
 10
632.8376757965
 20
75.7082999596
 10
633.6435207404
 20
72.924255725
 10
634.6131107351
 20
70.2949522611
 10
635.743103403
 20
67.8294533217
 10
637.0296034253
 20
65.5362579924
 10
638.4681759699
 20
63.4232713925
 10
640.0538619793
 20
61.4977774246
 10
641.7811952652
 20
59.7664136652
 10
643.6442213521
 20
58.235148484
 10
645.636518003
 20
56.9092604692
 10
647.7512173586
 20
55.7933202315
 10
649.9810296122
 20
54.8911746481
 10
652.318268139
 20
54.2059336016
 10
654.7548759936
 20
53.73995926
 10
657.282453684
 20
53.4948579332
 10
659.8922881263
 20
53.4714745365
 10
662.5753826805
 20
53.669889677
 10
665.3224881638
 20
54.0894193769
 10
668.1241347345
 20
54.7286174303
 10
670.9706645365
 20
55.585280389
 10
673.852264992
 20
56.6564551585
 10
676.759002627
 20
57.9384491773
 10
679.680857315
 20
59.4268431465
 10
682.6077568174
 20
61.1165062637
 10
685.5296115053
 20
63.0016139102
 10
688.4363491404
 20
65.0756677294
 10
691.3179495958
 20
67.331518028
 10
694.1644793978
 20
69.7613884229
 10
696.9661259686
 20
72.3569026473
 10
699.7132314519
 20
75.109113426
 10
702.396326006
 20
78.0085333184
 10
705.0061604483
 20
81.0451674234
 10
707.5337381387
 20
84.2085478342
 10
709.9703459934
 20
87.4877697232
 10
712.3075845202
 20
90.8715289331
 10
714.5373967738
 20
94.3481609451
 10
716.6520961294
 20
97.9056810883
 10
718.6443927803
 20
101.5318258538
 10
720.5074188671
 20
105.2140951695
 10
722.234752153
 20
108.9397954901
 10
723.8204381624
 20
112.6960835549
 10
725.259010707
 20
116.4700106607
 10
726.5455107293
 20
120.248567299
 10
727.6755033972
 20
124.0187280022
 10
728.6450933919
 20
127.7674962455
 10
729.4509383358
 20
131.481949248
 10
730.0902603144
 20
135.1492825208
 10
730.5608554525
 20
138.7568540064
 10
730.861101511
 20
142.2922276584
 10
730.9899634797
 20
145.7432163116
 10
730.9469971447
 20
149.0979236931
 10
730.7323506197
 20
152.3447854315
 10
730.3467638359
 20
155.472608922
 10
729.7915659908
 20
158.4706119089
 10
729.0686709663
 20
161.3284596549
 10
728.1805707313
 20
164.0363005667
 10
727.1303267514
 20
166.5848001558
 10
725.9215594351
 20
168.9651732161
 10
724.5584356538
 20
171.1692141087
 10
723.0456543775
 20
173.1893250478
 10
721.3884304767
 20
175.0185422927
 10
719.5924767454
 20
176.6505601525
 10
717.6639842083
 20
178.0797527236
 10
715.6096007786
 20
179.3011932831
 10
713.4364083415
 20
180.3106712724
 10
711.1518983418
 20
181.1047068117
 10
708.7639459584
 20
181.6805626961
 10
706.2807829581
 20
182.0362538309
 10
703.7109693181
 20
182.1705540753
 10
701.0633637183
 20
182.0830004683
 10
698.3470930038
 20
181.7738948254
 10
695.5715207224
 20
181.2443026979
 10
692.7462148468
 20
180.4960496995
 10
689.8809147916
 20
179.5317152132
 10
686.9854978397
 20
178.3546234999
 10
684.0699450931
 20
176.9688322385
 10
681.1443070662
 20
175.3791185386
  0
ARC
  5
1F7
330
1F
100
AcDbEntity
  8
0
  6
Continuous
 62
     7
370
    15
100
AcDbCircle
 10
697.3190838327
 20
90.8953626175
 30
0.0
 40
64.8516943348303
100
AcDbArc
 50
173.0609777283
 51
185.8445840219
  0
LWPOLYLINE
  5
1F8
330
1F
100
AcDbEntity
  8
0
  6
Continuous
 62
     7
370
    15
100
AcDbPolyline
 90
        3
 70
   128
 43
0.0
 10
684.1518488193
 20
175.5844542325
 10
683.1775701908
 20
175.1009496286
 10
680.3158799414
 20
173.5478331573
  0
ARC
  5
1F9
330
1F
100
AcDbEntity
  8
0
  6
Continuous
 62
     7
370
    15
100
AcDbCircle
 10
682.8576017399
 20
95.2752073989
 30
0.0
 40
50.38618368242022
100
AcDbArc
 50
182.3582461154
 51
187.025112903
  0
LWPOLYLINE
  5
1FA
330
1F
100
AcDbEntity
  8
0
  6
Continuous
 62
     7
370
    15
100
AcDbPolyline
 90
        3
 70
   128
 43
0.0
 10
642.5516898769
 20
70.2875188834
 10
643.0740141743
 20
70.0403887804
 10
644.8347884472
 20
69.3341897509
  0
ARC
  5
1FB
330
1F
100
AcDbEntity
  8
0
  6
Continuous
 62
     7
370
    15
100
AcDbCircle
 10
691.575525565
 20
157.9779867372
 30
0.0
 40
20.50083434890087
100
AcDbArc
 50
49.1525081334
 51
56.7944029186
  0
LWPOLYLINE
  5
1FC
330
1F
100
AcDbEntity
  8
0
  6
Continuous
 62
     7
370
    15
100
AcDbPolyline
 90
       49
 70
   128
 43
0.0
 10
578.9673771847
 20
243.7149926954
 10
575.8028680182
 20
241.7883078476
 10
572.6478029907
 20
239.6676678025
 10
569.5115980565
 20
237.3594013835
 10
566.4036128836
 20
234.8703973647
 10
563.3331229214
 20
232.2080839124
 10
560.3092917187
 20
229.3804064163
 10
557.3411435763
 20
226.3958037775
 10
554.4375366149
 20
223.2631832233
 10
551.6071363388
 20
219.9918937246
 10
548.8583897748
 20
216.591698095
 10
546.1995002632
 20
213.0727438547
 10
543.6384029752
 20
209.4455329462
 10
541.1827412318
 20
205.7208903925
 10
538.8398436927
 20
201.9099319909
 10
536.616702485
 20
198.024031139
 10
534.5199523359
 20
194.0747848924
 10
532.555850772
 20
190.0739793539
 10
530.7302594441
 20
186.0335544998
 10
529.0486266345
 20
181.965568546
 10
527.5159709962
 20
177.8821619612
 10
526.1368665762
 20
173.7955212357
 10
524.9154291641
 20
169.7178425116
 10
523.8553040091
 20
165.6612951849
 10
522.9596549415
 20
161.6379855871
 10
522.2311549299
 20
157.6599208555
 10
521.6719781049
 20
153.7389730986
 10
521.2837932697
 20
149.8868439657
 10
521.0677589206
 20
146.1150297241
 10
521.024519789
 20
142.4347869499
 10
521.1542049173
 20
138.8570989341
 10
521.4564272742
 20
135.3926429038
 10
521.9302849095
 20
132.0517581576
 10
522.5743636456
 20
128.8444152084
 10
523.3867412986
 20
125.7801860284
 10
524.3649934141
 20
122.8682154818
 10
525.5062005034
 20
120.1171940331
 10
526.806956756
 20
117.5353318115
 10
528.263380204
 20
115.1303341089
 10
529.8711243074
 20
112.9093783834
 10
531.6253909259
 20
110.8790928399
 10
533.5209446384
 20
109.0455366485
 10
535.5521283676
 20
107.4141818615
 10
537.712880263
 20
105.9898970827
 10
539.9967517917
 20
104.7769329377
 10
542.3969269833
 20
103.7789093883
 10
544.9062427717
 20
102.9988049289
 10
547.5172103725
 20
102.438947698
 10
547.8154624645
 20
102.3900652298
  0
LWPOLYLINE
  5
1FD
330
1F
100
AcDbEntity
  8
0
  6
Continuous
 62
     7
370
    15
100
AcDbPolyline
 90
       20
 70
   128
 43
0.0
 10
627.7764311718
 20
241.0453347745
 10
627.2044949253
 20
241.726945176
 10
625.3789035975
 20
243.6595871484
 10
623.4148020335
 20
245.3926892905
 10
621.3180518844
 20
246.9210793443
 10
619.0949106768
 20
248.2401959934
 10
616.7520131376
 20
249.346102475
 10
614.2963513942
 20
250.2354983297
 10
611.7352541062
 20
250.9057292505
 10
609.0763645946
 20
251.3547950051
 10
606.3276180307
 20
251.5813554047
 10
603.4972177546
 20
251.584734304
 10
600.5936107931
 20
251.3649216191
 10
597.6254626507
 20
250.9225733574
 10
594.601631448
 20
250.2590096601
 10
591.5311414858
 20
249.3762108618
 10
588.423156313
 20
248.2768115813
 10
585.2869513787
 20
246.9640928582
 10
582.1318863513
 20
245.4419723609
 10
578.9673771847
 20
243.7149926954
  0
LWPOLYLINE
  5
1FE
330
1F
100
AcDbEntity
  8
0
  6
Continuous
 62
     7
370
    15
100
AcDbPolyline
 90
       67
 70
   128
 43
0.0
 10
578.9673771847
 20
266.6179666873
 10
575.2941790155
 20
264.3972633191
 10
571.6291771877
 20
261.9810928063
 10
567.9805497535
 20
259.3748465702
 10
564.3564382273
 20
256.5843401651
 10
560.7649294192
 20
253.6158003021
 10
557.2140373897
 20
250.4758509543
 10
553.7116855673
 20
247.1714985766
 10
550.2656890684
 20
243.7101164711
 10
546.8837372587
 20
240.0994283348
 10
543.5733765952
 20
236.3474910248
 10
540.3419937868
 20
232.4626765803
 10
537.1967993122
 20
228.4536535415
 10
534.1448113301
 20
224.3293676063
 10
531.192840019
 20
220.0990216693
 10
528.3474723813
 20
215.7720552865
 10
525.6150575447
 20
211.3581236118
 10
523.0016925953
 20
206.8670758528
 10
520.513208972
 20
202.3089332931
 10
518.1551594549
 20
197.6938669311
 10
515.9328057745
 20
193.0321747844
 10
513.851106871
 20
188.3342589111
 10
511.9147078284
 20
183.6106021984
 10
510.1279295103
 20
178.8717449715
 10
508.4947589177
 20
174.1282614739
 10
507.0188402929
 20
169.3907362722
 10
505.7034669874
 20
164.6697406375
 10
504.5515741135
 20
159.975808957
 10
503.5657319944
 20
155.3194152278
 10
502.7481404296
 20
150.7109496851
 10
502.1006237854
 20
146.1606956175
 10
501.6246269247
 20
141.6788064211
 10
501.3212119826
 20
137.2752829432
 10
501.1910559965
 20
132.9599511666
 10
501.2344493953
 20
128.7424402838
 10
501.4512953514
 20
124.6321612108
 10
501.8411099965
 20
120.6382855873
 10
502.4030235019
 20
116.7697253117
 10
503.1357820188
 20
113.0351126545
 10
504.0377504764
 20
109.442780997
 10
505.1069162303
 20
106.0007462358
 10
506.3408935538
 20
102.7166888962
 10
507.7369289609
 20
99.5979369944
 10
509.2919073507
 20
96.6514496854
 10
511.0023589584
 20
93.8838017345
 10
512.8644670976
 20
91.3011688465
 10
514.8740766769
 20
88.9093138852
 10
517.0267034717
 20
86.7135740144
 10
519.3175441297
 20
84.7188487882
 10
521.7414868897
 20
82.9295892186
 10
524.2931229876
 20
81.3497878434
 10
526.9667587255
 20
79.9829698172
 10
529.7564281766
 20
78.8321850454
 10
532.6559064975
 20
77.9000013789
 10
535.6587238184
 20
77.1884988839
 10
538.7581796796
 20
76.6992652007
 10
541.9473579832
 20
76.433392001
 10
545.2191424253
 20
76.3914725518
 10
548.5662323754
 20
76.5736003917
 10
551.9811591672
 20
76.9793691225
 10
555.4563027636
 20
77.6078733153
 10
558.9839087604
 20
78.4577105316
 10
562.5561056892
 20
79.5269844522
 10
566.164922582
 20
80.8133091089
 10
569.802306757
 20
82.3138142084
 10
573.4601417878
 20
84.0251515371
 10
576.6939154752
 20
85.7049219963
  0
LWPOLYLINE
  5
1FF
330
1F
100
AcDbEntity
  8
0
  6
Continuous
 62
     7
370
    15
100
AcDbPolyline
 90
       34
 70
   128
 43
0.0
 10
656.7140655687
 20
224.3771115338
 10
656.6135423868
 20
226.9236370667
 10
656.3101274447
 20
230.9768451091
 10
655.834130584
 20
234.9091600282
 10
655.1866139398
 20
238.7118072917
 10
654.369022375
 20
242.3763017066
 10
653.383180256
 20
245.894466353
 10
652.231287382
 20
249.2584508299
 10
650.9159140765
 20
252.4607487725
 10
649.4399954517
 20
255.494214602
 10
647.8068248592
 20
258.3520794699
 10
646.0200465411
 20
261.0279663623
 10
644.0836474985
 20
263.515904329
 10
642.0019485949
 20
265.8103418077
 10
639.7795949145
 20
267.9061590113
 10
637.4215453974
 20
269.7986793519
 10
634.9330617742
 20
271.4836798767
 10
632.3196968247
 20
272.9574006907
 10
629.5872819881
 20
274.2165533464
 10
626.7419143504
 20
275.258328182
 10
623.7899430394
 20
276.0804005903
 10
620.7379550573
 20
276.6809362065
 10
617.5927605826
 20
277.0585950008
 10
614.3613777743
 20
277.2125342686
 10
611.0510171107
 20
277.1424105113
 10
607.669065301
 20
276.8483802024
 10
604.2230688022
 20
276.3310994385
 10
600.7207169798
 20
275.5917224753
 10
597.1698249502
 20
274.6318991519
 10
593.5783161421
 20
273.4537712094
 10
589.954204616
 20
272.0599675119
 10
586.3055771818
 20
270.4535981805
 10
582.640575354
 20
268.6382476534
 10
578.9673771847
 20
266.6179666873
  0
LWPOLYLINE
  5
200
330
1F
100
AcDbEntity
  8
0
  6
Continuous
 62
     7
370
    15
100
AcDbPolyline
 90
       33
 70
   128
 43
0.0
 10
578.9673771847
 20
261.718721816
 10
578.070704202
 20
261.0991011035
 10
577.2084898592
 20
260.2993272319
 10
576.41386857
 20
259.3501350626
 10
575.7173771847
 20
258.2880015182
 10
575.1457814769
 20
257.1537437953
 10
574.7210475489
 20
255.9909507821
 10
574.4594976874
 20
254.8443079619
 10
574.371183107
 20
253.7578801753
 10
574.4594976874
 20
252.7734182328
 10
574.7210475489
 20
251.9287544548
 10
575.1457814769
 20
251.2563487966
 10
575.7173771847
 20
250.7820414306
 10
576.41386857
 20
250.5240597228
 10
577.2084898592
 20
250.4923177656
 10
578.070704202
 20
250.6880353846
 10
578.9673771847
 20
251.1036912614
 10
579.8640501674
 20
251.7233119739
 10
580.7262645102
 20
252.5230858455
 10
581.5208857995
 20
253.4722780148
 10
582.2173771847
 20
254.5344115592
 10
582.7889728926
 20
255.6686692821
 10
583.2137068206
 20
256.8314622953
 10
583.475256682
 20
257.9781051155
 10
583.5635712624
 20
259.0645329021
 10
583.475256682
 20
260.0489948446
 10
583.2137068206
 20
260.8936586226
 10
582.7889728926
 20
261.5660642807
 10
582.2173771847
 20
262.0403716468
 10
581.5208857995
 20
262.2983533546
 10
580.7262645102
 20
262.3300953118
 10
579.8640501674
 20
262.1343776928
 10
578.9673771847
 20
261.718721816
  0
LWPOLYLINE
  5
201
330
1F
100
AcDbEntity
  8
0
  6
Continuous
 62
     7
370
    15
100
AcDbPolyline
 90
       33
 70
   128
 43
0.0
 10
530.2173771847
 20
210.2579173499
 10
529.320704202
 20
209.6382966375
 10
528.4584898592
 20
208.8385227659
 10
527.66386857
 20
207.8893305965
 10
526.9673771847
 20
206.8271970522
 10
526.3957814769
 20
205.6929393293
 10
525.9710475489
 20
204.5301463161
 10
525.7094976874
 20
203.3835034959
 10
525.621183107
 20
202.2970757092
 10
525.7094976874
 20
201.3126137668
 10
525.9710475489
 20
200.4679499888
 10
526.3957814769
 20
199.7955443306
 10
526.9673771847
 20
199.3212369646
 10
527.66386857
 20
199.0632552568
 10
528.4584898592
 20
199.0315132996
 10
529.320704202
 20
199.2272309186
 10
530.2173771847
 20
199.6428867954
 10
531.1140501674
 20
200.2625075079
 10
531.9762645102
 20
201.0622813795
 10
532.7708857995
 20
202.0114735488
 10
533.4673771847
 20
203.0736070931
 10
534.0389728926
 20
204.207864816
 10
534.4637068206
 20
205.3706578293
 10
534.725256682
 20
206.5173006495
 10
534.8135712624
 20
207.6037284361
 10
534.725256682
 20
208.5881903786
 10
534.4637068206
 20
209.4328541565
 10
534.0389728926
 20
210.1052598147
 10
533.4673771847
 20
210.5795671807
 10
532.7708857995
 20
210.8375488885
 10
531.9762645102
 20
210.8692908458
 10
531.1140501674
 20
210.6735732268
 10
530.2173771847
 20
210.2579173499
  0
LWPOLYLINE
  5
202
330
1F
100
AcDbEntity
  8
0
  6
Continuous
 62
     7
370
    15
100
AcDbPolyline
 90
       33
 70
   128
 43
0.0
 10
627.7173771847
 20
266.5434692783
 10
626.820704202
 20
265.9238485658
 10
625.9584898592
 20
265.1240746942
 10
625.16386857
 20
264.1748825249
 10
624.4673771847
 20
263.1127489805
 10
623.8957814769
 20
261.9784912576
 10
623.4710475489
 20
260.8156982444
 10
623.2094976874
 20
259.6690554242
 10
623.121183107
 20
258.5826276376
 10
623.2094976874
 20
257.5981656951
 10
623.4710475489
 20
256.7535019171
 10
623.8957814769
 20
256.081096259
 10
624.4673771847
 20
255.6067888929
 10
625.16386857
 20
255.3488071851
 10
625.9584898592
 20
255.3170652279
 10
626.820704202
 20
255.5127828469
 10
627.7173771847
 20
255.9284387237
 10
628.6140501674
 20
256.5480594362
 10
629.4762645102
 20
257.3478333078
 10
630.2708857995
 20
258.2970254771
 10
630.9673771847
 20
259.3591590215
 10
631.5389728926
 20
260.4934167444
 10
631.9637068206
 20
261.6562097576
 10
632.225256682
 20
262.8028525778
 10
632.3135712624
 20
263.8892803644
 10
632.225256682
 20
264.8737423069
 10
631.9637068206
 20
265.7184060849
 10
631.5389728926
 20
266.3908117431
 10
630.9673771847
 20
266.8651191091
 10
630.2708857995
 20
267.1231008169
 10
629.4762645102
 20
267.1548427741
 10
628.6140501674
 20
266.9591251551
 10
627.7173771847
 20
266.5434692783
  0
LWPOLYLINE
  5
203
330
1F
100
AcDbEntity
  8
0
  6
Continuous
 62
     7
370
    15
100
AcDbPolyline
 90
       33
 70
   128
 43
0.0
 10
530.2173771847
 20
97.6685160359
 10
529.320704202
 20
97.0488953235
 10
528.4584898592
 20
96.2491214519
 10
527.66386857
 20
95.2999292825
 10
526.9673771847
 20
94.2377957382
 10
526.3957814769
 20
93.1035380153
 10
525.9710475489
 20
91.9407450021
 10
525.7094976874
 20
90.7941021819
 10
525.621183107
 20
89.7076743952
 10
525.7094976874
 20
88.7232124528
 10
525.9710475489
 20
87.8785486748
 10
526.3957814769
 20
87.2061430166
 10
526.9673771847
 20
86.7318356506
 10
527.66386857
 20
86.4738539428
 10
528.4584898592
 20
86.4421119856
 10
529.320704202
 20
86.6378296046
 10
530.2173771847
 20
87.0534854814
 10
531.1140501674
 20
87.6731061939
 10
531.9762645102
 20
88.4728800655
 10
532.7708857995
 20
89.4220722348
 10
533.4673771847
 20
90.4842057791
 10
534.0389728926
 20
91.618463502
 10
534.4637068206
 20
92.7812565153
 10
534.725256682
 20
93.9278993355
 10
534.8135712624
 20
95.0143271221
 10
534.725256682
 20
95.9987890646
 10
534.4637068206
 20
96.8434528425
 10
534.0389728926
 20
97.5158585007
 10
533.4673771847
 20
97.9901658667
 10
532.7708857995
 20
98.2481475745
 10
531.9762645102
 20
98.2798895318
 10
531.1140501674
 20
98.0841719128
 10
530.2173771847
 20
97.6685160359
  0
LWPOLYLINE
  5
204
330
1F
100
AcDbEntity
  8
0
  6
Continuous
 62
     7
370
    15
100
AcDbPolyline
 90
       33
 70
   128
 43
0.0
 10
510.024466019
 20
142.3060972057
 10
509.1277930364
 20
141.6864764933
 10
508.2655786936
 20
140.8867026217
 10
507.4709574043
 20
139.9375104523
 10
506.774466019
 20
138.875376908
 10
506.2028703112
 20
137.7411191851
 10
505.7781363832
 20
136.5783261719
 10
505.5165865217
 20
135.4316833517
 10
505.4282719413
 20
134.3452555651
 10
505.5165865217
 20
133.3607936226
 10
505.7781363832
 20
132.5161298446
 10
506.2028703112
 20
131.8437241864
 10
506.774466019
 20
131.3694168204
 10
507.4709574043
 20
131.1114351126
 10
508.2655786936
 20
131.0796931554
 10
509.1277930364
 20
131.2754107744
 10
510.024466019
 20
131.6910666512
 10
510.9211390017
 20
132.3106873637
 10
511.7833533445
 20
133.1104612353
 10
512.5779746338
 20
134.0596534046
 10
513.274466019
 20
135.121786949
 10
513.8460617269
 20
136.2560446718
 10
514.2707956549
 20
137.4188376851
 10
514.5323455163
 20
138.5654805053
 10
514.6206600967
 20
139.6519082919
 10
514.5323455163
 20
140.6363702344
 10
514.2707956549
 20
141.4810340124
 10
513.8460617269
 20
142.1534396705
 10
513.274466019
 20
142.6277470366
 10
512.5779746338
 20
142.8857287444
 10
511.7833533445
 20
142.9174707016
 10
510.9211390017
 20
142.7217530826
 10
510.024466019
 20
142.3060972057
  0
LWPOLYLINE
  5
205
330
1F
100
AcDbEntity
  8
0
  6
Continuous
 62
     7
370
    15
100
AcDbPolyline
 90
       51
 70
   128
 43
0.0
 10
562.7039212174
 20
276.0066599732
 10
559.0307230482
 20
273.785956605
 10
555.3657212204
 20
271.3697860923
 10
551.7170937862
 20
268.7635398561
 10
548.09298226
 20
265.9730334511
 10
544.501473452
 20
263.0044935881
 10
540.9505814224
 20
259.8645442403
 10
537.4482296
 20
256.5601918625
 10
534.0022331011
 20
253.098809757
 10
530.6202812914
 20
249.4881216207
 10
527.3099206279
 20
245.7361843107
 10
524.0785378195
 20
241.8513698663
 10
520.9333433449
 20
237.8423468274
 10
517.8813553628
 20
233.7180608922
 10
514.9293840517
 20
229.4877149552
 10
512.084016414
 20
225.1607485725
 10
509.3516015774
 20
220.7468168978
 10
506.738236628
 20
216.2557691388
 10
504.2497530047
 20
211.6976265791
 10
501.8917034876
 20
207.0825602171
 10
499.6693498073
 20
202.4208680704
 10
497.5876509037
 20
197.722952197
 10
495.6512518611
 20
192.9992954843
 10
493.864473543
 20
188.2604382575
 10
492.2313029504
 20
183.5169547599
 10
490.7553843256
 20
178.7794295582
 10
489.4400110201
 20
174.0584339234
 10
488.2881181462
 20
169.364502243
 10
487.3022760272
 20
164.7081085138
 10
486.4846844623
 20
160.0996429711
 10
485.8371678181
 20
155.5493889035
 10
485.3611709574
 20
151.0674997071
 10
485.0577560153
 20
146.6639762292
 10
484.9276000293
 20
142.3486444526
 10
484.970993428
 20
138.1311335698
 10
485.1878393841
 20
134.0208544967
 10
485.5776540293
 20
130.0269788733
 10
486.1395675347
 20
126.1584185977
 10
486.8723260515
 20
122.4238059405
 10
487.7742945091
 20
118.831474283
 10
488.8434602631
 20
115.3894395217
 10
490.0774375865
 20
112.1053821822
 10
491.4734729936
 20
108.9866302804
 10
493.0284513834
 20
106.0401429714
 10
494.7389029911
 20
103.2724950205
 10
496.6010111303
 20
100.6898621324
 10
498.6106207097
 20
98.2980071712
 10
500.7632475044
 20
96.1022673003
 10
503.0540881624
 20
94.1075420741
 10
505.4780309224
 20
92.3182825046
 10
507.7083909224
 20
90.9217958039
  0
LWPOLYLINE
  5
206
330
1F
100
AcDbEntity
  8
0
  6
Continuous
 62
     7
370
    15
100
AcDbPolyline
 90
       18
 70
   128
 43
0.0
 10
617.6994515124
 20
281.4525455277
 10
616.0562408574
 20
282.3460939766
 10
613.3238260209
 20
283.6052466324
 10
610.4784583832
 20
284.6470214679
 10
607.5264870721
 20
285.4690938763
 10
604.47449909
 20
286.0696294925
 10
601.3293046154
 20
286.4472882867
 10
598.097921807
 20
286.6012275545
 10
594.7875611434
 20
286.5311037972
 10
591.4056093337
 20
286.2370734884
 10
587.9596128349
 20
285.7197927245
 10
584.4572610125
 20
284.9804157613
 10
580.9063689829
 20
284.0205924378
 10
577.3148601748
 20
282.8424644953
 10
573.6907486487
 20
281.4486607979
 10
570.0421212145
 20
279.8422914665
 10
566.3771193867
 20
278.0269409393
 10
562.7039212174
 20
276.0066599732
  0
LINE
  5
207
330
1F
100
AcDbEntity
  8
0
  6
Continuous
 62
     7
370
    15
100
AcDbLine
 10
610.9931416641
 20
251.0551784994
 30
0.0
 11
612.5253225997
 21
249.1229868245
 31
0.0
  0
LWPOLYLINE
  5
208
330
1F
100
AcDbEntity
  8
0
  6
Continuous
 62
     7
370
    15
100
AcDbPolyline
 90
        3
 70
   128
 43
0.0
 10
533.2009035404
 20
111.5609661614
 10
531.2537544052
 20
111.8276409839
 10
530.678156738
 20
111.9304695463
  0
LWPOLYLINE
  5
209
330
1F
100
AcDbEntity
  8
0
  6
Continuous
 62
     8
370
    15
100
AcDbPolyline
 90
       77
 70
   128
 43
0.0
 10
632.8045033981
 20
84.2914872827
 10
633.1112908372
 20
81.9885818791
 10
633.6645770458
 20
79.0642577112
 10
634.3848628112
 20
76.2803559308
 10
635.2695696971
 20
73.6468421838
 10
636.3155306826
 20
71.1731437659
 10
637.5190014987
 20
68.8681158755
 10
638.8756740324
 20
66.740009914
 10
640.3806917481
 20
64.7964439486
 10
642.0286670729
 20
63.044375441
 10
643.8137006828
 20
61.4900763417
 10
645.7294026209
 20
60.1391106381
 10
647.7689151714
 20
58.9963144368
 10
649.9249374087
 20
58.0657786516
 10
652.1897513327
 20
57.3508343591
 10
654.5552494974
 20
56.8540408744
 10
657.0129640333
 20
56.5771765891
 10
659.5540969602
 20
56.5212326055
 10
662.1695516818
 20
56.6864091886
 10
664.8499655489
 20
57.0721150491
 10
667.5857433756
 20
57.6769694601
 10
670.3670917873
 20
58.4988071998
 10
673.1840542785
 20
59.5346863024
 10
676.0265468546
 20
60.7808985896
 10
678.8843941299
 20
62.2329829447
 10
681.7473657529
 20
63.8857412827
 10
684.6052130283
 20
65.7332571577
 10
687.4477056044
 20
67.7689169424
 10
690.2646680956
 20
69.9854335029
 10
693.0460165073
 20
72.3748722854
 10
695.781794334
 20
74.9286797191
 10
698.4622082011
 20
77.6377138361
 10
701.0776629226
 20
80.4922769976
 10
703.6187958496
 20
83.4821506081
 10
706.0765103854
 20
86.5966316962
 10
708.4420085502
 20
89.8245712278
 10
710.7068224742
 20
93.1544140173
 10
712.8628447114
 20
96.5742400916
 10
714.9023572619
 20
100.071807361
 10
716.8180592
 20
103.6345954424
 10
718.60309281
 20
107.249850479
 10
720.2510681348
 20
110.9046307963
 10
721.7560858504
 20
114.5858532291
 10
723.1127583841
 20
118.2803399566
 10
724.3162292003
 20
121.9748656752
 10
725.3621901858
 20
125.6562049416
 10
726.2468970717
 20
129.3111795166
 10
726.967182837
 20
132.92670554
 10
727.5204690457
 20
136.489840367
 10
727.9047750766
 20
139.9878288995
 10
728.1187252139
 20
143.4081492465
 10
728.1615535717
 20
146.7385575488
 10
728.0331068355
 20
149.9671318091
 10
727.7338448114
 20
153.0823145695
 10
727.2648387796
 20
156.0729542842
 10
726.6277676602
 20
158.9283452391
 10
725.8249120023
 20
161.6382658758
 10
724.8591458208
 20
164.1930153817
 10
723.7339263081
 20
166.5834484165
 10
722.4532814578
 20
168.8010078505
 10
721.0217956463
 20
170.8377553964
 10
719.4445932212
 20
172.6864000265
 10
717.7273201579
 20
174.340324073
 10
715.8761238481
 20
175.7936069169
 10
713.8976310944
 20
177.0410461829
 10
711.7989243871
 20
178.0781763621
 10
709.5875165517
 20
178.9012847977
 10
707.2713238543
 20
179.5074249751
 10
704.8586376635
 20
179.8944270698
 10
702.3580947699
 20
180.0609057147
 10
699.7786464678
 20
180.0062649595
 10
697.1295265129
 20
179.7307004039
 10
694.420218067
 20
179.2351984975
 10
691.6604197512
 20
178.5215330085
 10
688.8600109272
 20
177.5922586742
 10
686.0290163317
 20
176.4507020554
 10
684.1518488193
 20
175.5844542325
  0
LWPOLYLINE
  5
20A
330
1F
100
AcDbEntity
  8
0
  6
Continuous
 62
     8
370
    15
100
AcDbPolyline
 90
       74
 70
   128
 43
0.0
 10
632.8496852459
 20
89.1127570736
 10
633.2372762997
 20
86.5757537854
 10
633.8348895477
 20
83.8334109434
 10
634.5991982652
 20
81.2367233488
 10
635.5271860748
 20
78.7959389412
 10
636.6151906326
 20
76.5206903815
 10
637.8589180815
 20
74.4199570363
 10
639.2534599977
 20
72.5020295404
 10
640.7933127613
 20
70.7744770774
 10
642.4723992769
 20
69.2441175077
 10
644.2840929571
 20
67.9169904613
 10
646.2212438746
 20
66.7983335023
 10
648.2762069799
 20
65.8925614588
 10
650.4408722722
 20
65.203248999
 10
652.7066968068
 20
64.7331165246
 10
655.0647384092
 20
64.4840194334
 10
657.5056909666
 20
64.4569407979
 10
660.0199211543
 20
64.6519874852
 10
662.5975064546
 20
65.068389735
 10
665.2282743157
 20
65.704504198
 10
667.9018422989
 20
66.5578204209
 10
670.6076590526
 20
67.6249707544
 10
673.3350459545
 20
68.9017436438
 10
676.0732392543
 20
70.3831002498
 10
678.8114325541
 20
72.0631943345
 10
681.538819456
 20
73.9353953341
 10
684.2446362098
 20
75.9923145268
 10
686.9182041929
 20
78.2258341921
 10
689.548972054
 20
80.6271396483
 10
692.1265573543
 20
83.1867540398
 10
694.640787542
 20
85.894575738
 10
697.0817400994
 20
88.7399182078
 10
699.4397817018
 20
91.7115521823
 10
701.7056062364
 20
94.7977499799
 10
703.8702715287
 20
97.9863317877
 10
705.925234634
 20
101.2647137301
 10
707.8623855515
 20
104.6199575314
 10
709.6740792317
 20
108.0388215771
 10
711.3531657473
 20
111.5078131728
 10
712.8930185109
 20
115.0132417934
 10
714.2875604271
 20
118.5412731137
 10
715.5312878761
 20
122.0779836059
 10
716.6192924338
 20
125.6094154894
 10
717.5472802434
 20
129.1216318159
 10
718.3115889609
 20
132.6007714722
 10
718.9092022089
 20
136.0331038835
 10
719.3377614811
 20
139.4050832019
 10
719.5955754497
 20
142.7034017654
 10
719.6816266408
 20
145.9150426177
 10
719.5955754497
 20
149.0273308795
 10
719.3377614811
 20
152.0279837709
 10
718.9092022089
 20
154.9051590858
 10
718.3115889609
 20
157.6475019277
 10
717.5472802434
 20
160.2441895223
 10
716.6192924338
 20
162.68497393
 10
715.5312878761
 20
164.9602224897
 10
714.2875604271
 20
167.0609558349
 10
712.8930185109
 20
168.9788833308
 10
711.3531657473
 20
170.7064357937
 10
709.6740792317
 20
172.2367953635
 10
707.8623855515
 20
173.5639224099
 10
705.925234634
 20
174.6825793689
 10
703.8702715287
 20
175.5883514124
 10
701.7056062364
 20
176.2776638721
 10
699.4397817018
 20
176.7477963466
 10
697.0817400994
 20
176.9968934378
 10
694.640787542
 20
177.0239720733
 10
692.1265573543
 20
176.828925386
 10
689.548972054
 20
176.4125231361
 10
686.9182041929
 20
175.7764086732
 10
684.2446362098
 20
174.9230924503
 10
681.538819456
 20
173.8559421167
 10
678.8114325541
 20
172.5791692273
 10
677.7367734554
 20
172.0214970612
  0
LWPOLYLINE
  5
20B
330
1F
100
AcDbEntity
  8
0
  6
Continuous
 62
     8
370
    15
100
AcDbPolyline
 90
       31
 70
   128
 43
0.0
 10
655.3406337045
 20
84.2253852837
 10
655.4087424321
 20
84.2479051788
 10
657.8390185829
 20
85.1560308983
 10
660.2932669745
 20
86.2749650036
 10
662.7595307553
 20
87.5992561601
 10
665.2257945361
 20
89.1224525544
 10
667.6800429277
 20
90.8371333269
 10
670.1103190786
 20
92.7349447251
 10
672.5047829277
 20
94.8066408028
 10
674.8517688877
 20
97.0421284648
 10
677.1398426791
 20
99.43051664
 10
679.3578570363
 20
101.9601693413
 10
681.4950060164
 20
104.6187623549
 10
683.5408776442
 20
107.3933432831
 10
685.4855046389
 20
110.2703946463
 10
687.3194129733
 20
113.2358997395
 10
689.0336680303
 20
116.2754109201
 10
690.6199181315
 20
119.3741199951
 10
692.0704352259
 20
122.5169303653
 10
693.3781525401
 20
125.6885305746
 10
694.5366990067
 20
128.8734689054
 10
695.5404303039
 20
132.0562286585
 10
696.3844563535
 20
135.2213037483
 10
697.0646651456
 20
138.353274247
 10
697.5777427713
 20
141.4368815092
 10
697.921189568
 20
144.4571025104
 10
698.0933322974
 20
147.3992230372
 10
698.0933322974
 20
150.2489093744
 10
697.921189568
 20
152.9922781365
 10
697.5777427713
 20
155.6159639067
 10
697.2092467197
 20
157.495119141
  0
LWPOLYLINE
  5
20C
330
1F
100
AcDbEntity
  8
0
  6
Continuous
 62
     8
370
    15
100
AcDbPolyline
 90
       51
 70
   128
 43
0.0
 10
643.8643287709
 20
69.4768312641
 10
645.5488879084
 20
68.6116745847
 10
647.6284223883
 20
67.7971758886
 10
649.8144408122
 20
67.200510165
 10
652.0981408554
 20
66.8240799762
 10
654.4703268639
 20
66.6694010736
 10
656.9214468819
 20
66.7370962947
 10
659.4416311141
 20
67.0268930546
 10
662.0207316682
 20
67.5376244442
 10
664.6483634164
 20
68.2672339283
 10
667.3139458133
 20
69.2127836271
 10
670.0067454991
 20
70.3704661456
 10
672.7159195201
 20
71.735619905
 10
675.4305589885
 20
73.3027479129
 10
678.1397330095
 20
75.0655398979
 10
680.8325326954
 20
77.0168977189
 10
683.4981150922
 20
79.1489639466
 10
686.1257468404
 20
81.4531535028
 10
688.7048473945
 20
83.9201882294
 10
691.2250316267
 20
86.5401342484
 10
693.6761516447
 20
89.3024419617
 10
696.0483376532
 20
92.1959885313
 10
698.3320376964
 20
95.2091226662
 10
700.5180561203
 20
98.3297115388
 10
702.5975906002
 20
101.5451896391
 10
704.5622675847
 20
104.8426093717
 10
706.404176013
 20
108.208693191
 10
708.1158991701
 20
111.6298870657
 10
709.6905445507
 20
115.0924150555
 10
711.1217716139
 20
118.5823347822
 10
712.4038173133
 20
122.0855935708
 10
713.5315193034
 20
125.5880850347
 10
714.5003367263
 20
129.0757058769
 10
715.3063684961
 20
132.5344126792
 10
715.9463690075
 20
135.95027845
 10
716.4177612042
 20
139.3095487036
 10
716.7186469563
 20
142.5986968441
 10
716.847814703
 20
145.804478633
 10
716.8047443314
 20
148.9139855184
 10
716.5896092706
 20
151.9146966136
 10
716.2032757937
 20
154.7945291141
 10
715.6472995291
 20
157.5418869508
 10
714.9239191972
 20
160.1457074834
 10
714.0360475951
 20
162.5955060457
 10
712.9872598684
 20
164.8814181633
 10
711.7817791152
 20
166.9942392751
 10
710.424459381
 20
168.9254617961
 10
708.9207661132
 20
170.6673093748
 10
707.276754154
 20
172.2127682059
 10
705.4990433593
 20
173.555615272
 10
704.334976168
 20
174.2827855956
  0
LWPOLYLINE
  5
20D
330
1F
100
AcDbEntity
  8
0
  6
Continuous
 62
     8
370
    15
100
AcDbPolyline
 90
       31
 70
   128
 43
0.0
 10
647.5624591114
 20
88.7156298988
 10
647.630567839
 20
88.7381497938
 10
650.0608439899
 20
89.6462755133
 10
652.5150923815
 20
90.7652096186
 10
654.9813561623
 20
92.0895007751
 10
657.4476199431
 20
93.6126971694
 10
659.9018683347
 20
95.3273779419
 10
662.3321444855
 20
97.2251893402
 10
664.7266083346
 20
99.2968854178
 10
667.0735942947
 20
101.5323730798
 10
669.3616680861
 20
103.920761255
 10
671.5796824433
 20
106.4504139563
 10
673.7168314233
 20
109.10900697
 10
675.7627030511
 20
111.8835878981
 10
677.7073300459
 20
114.7606392613
 10
679.5412383802
 20
117.7261443546
 10
681.2554934372
 20
120.7656555351
 10
682.8417435384
 20
123.8643646101
 10
684.2922606329
 20
127.0071749803
 10
685.5999779471
 20
130.1787751896
 10
686.7585244137
 20
133.3637135205
 10
687.7622557108
 20
136.5464732736
 10
688.6062817605
 20
139.7115483633
 10
689.2864905526
 20
142.843518862
 10
689.7995681783
 20
145.9271261243
 10
690.1430149749
 20
148.9473471254
 10
690.3151577043
 20
151.8894676523
 10
690.3151577043
 20
154.7391539894
 10
690.1430149749
 20
157.4825227516
 10
689.7995681783
 20
160.1062085217
 10
689.4310721266
 20
161.985363756
  0
LWPOLYLINE
  5
20E
330
1F
100
AcDbEntity
  8
0
  6
Continuous
 62
     8
370
    15
100
AcDbPolyline
 90
       48
 70
   128
 43
0.0
 10
644.8347884472
 20
69.3341897509
 10
645.1535486542
 20
69.2258900843
 10
647.3395670781
 20
68.6292243607
 10
649.6232671213
 20
68.2527941718
 10
651.9954531298
 20
68.0981152693
 10
654.4465731477
 20
68.1658104904
 10
656.96675738
 20
68.4556072503
 10
659.545857934
 20
68.9663386399
 10
662.1734896823
 20
69.695948124
 10
664.8390720791
 20
70.6414978228
 10
667.531871765
 20
71.7991803413
 10
670.2410457859
 20
73.1643341007
 10
672.9556852544
 20
74.7314621086
 10
675.6648592754
 20
76.4942540936
 10
678.3576589612
 20
78.4456119146
 10
681.023241358
 20
80.5776781423
 10
683.6508731063
 20
82.8818676985
 10
686.2299736604
 20
85.3489024251
 10
688.7501578926
 20
87.9688484441
 10
691.2012779106
 20
90.7311561574
 10
693.573463919
 20
93.6247027269
 10
695.8571639623
 20
96.6378368619
 10
698.0431823861
 20
99.7584257345
 10
700.122716866
 20
102.9739038348
 10
702.0873938506
 20
106.2713235673
 10
703.9293022789
 20
109.6374073867
 10
705.6410254359
 20
113.0586012614
 10
707.2156708166
 20
116.5211292512
 10
708.6468978798
 20
120.0110489779
 10
709.9289435791
 20
123.5143077665
 10
711.0566455692
 20
127.0167992304
 10
712.0254629921
 20
130.5044200726
 10
712.831494762
 20
133.9631268749
 10
713.4714952734
 20
137.3789926457
 10
713.9428874701
 20
140.7382628993
 10
714.2437732222
 20
144.0274110398
 10
714.3729409688
 20
147.2331928287
 10
714.3298705972
 20
150.3426997141
 10
714.1147355364
 20
153.3434108093
 10
713.7284020595
 20
156.2232433098
 10
713.172425795
 20
158.9706011465
 10
712.449045463
 20
161.5744216791
 10
711.5611738609
 20
164.0242202413
 10
710.5123861343
 20
166.310132359
 10
709.3069053811
 20
168.4229534708
 10
707.9495856468
 20
170.3541759917
 10
706.4458923791
 20
172.0960235705
 10
704.9840520845
 20
173.4859081187
  0
LWPOLYLINE
  5
20F
330
1F
100
AcDbEntity
  8
0
  6
Continuous
 62
     8
370
    15
100
AcDbPolyline
 90
       55
 70
   128
 43
0.0
 10
637.4470001779
 20
75.4943655681
 10
637.9202431115
 20
75.0692047188
 10
639.6538254384
 20
73.7184619946
 10
641.5143162524
 20
72.5740741199
 10
643.4940703977
 20
71.64074363
 10
645.5849526398
 20
70.92230578
 10
647.7783710952
 20
70.4217127853
 10
650.0653125369
 20
70.1410216898
 10
652.436379432
 20
70.0813859133
 10
654.8818285579
 20
70.2430505122
 10
657.3916110398
 20
70.6253511719
 10
659.955413643
 20
71.226716937
 10
662.5627011528
 20
72.0446766665
 10
665.2027596654
 20
73.0758691886
 10
667.8647406142
 20
74.3160571118
 10
670.5377053484
 20
75.7601442381
 10
673.2106700826
 20
77.4021965036
 10
675.8726510314
 20
79.2354663634
 10
678.512709544
 20
81.2524205184
 10
681.1199970537
 20
83.4447708714
 10
683.6837996569
 20
85.8035085844
 10
686.1935821388
 20
88.3189410983
 10
688.6390312648
 20
90.9807319614
 10
691.0100981599
 20
93.7779433039
 10
693.2970396016
 20
96.6990807845
 10
695.4904580569
 20
99.7321408228
 10
697.5813402991
 20
102.8646599243
 10
699.5610944444
 20
106.0837658963
 10
701.4215852584
 20
109.3762307417
 10
703.1551675853
 20
112.7285250164
 10
704.7547177634
 20
116.126873424
 10
706.213662898
 20
119.557311422
 10
707.5260078705
 20
123.0057426048
 10
708.6863599741
 20
126.4579966291
 10
709.6899510729
 20
129.8998874425
 10
710.5326571959
 20
133.3172715774
 10
711.2110154828
 20
136.6961062694
 10
711.722238414
 20
140.0225071619
 10
712.0642252648
 20
143.2828053602
 10
712.2355707379
 20
146.4636035997
 10
712.2355707379
 20
149.5518312981
 10
712.0642252648
 20
152.5347982653
 10
711.722238414
 20
155.4002468503
 10
711.2110154828
 20
158.1364023102
 10
710.5326571959
 20
160.7320211952
 10
709.6899510729
 20
163.1764375507
 10
708.6863599741
 20
165.4596067455
 10
707.5260078705
 20
167.5721467477
 10
706.213662898
 20
169.5053766772
 10
704.7547177634
 20
171.2513524776
 10
703.1551675853
 20
172.8028995598
 10
701.4215852584
 20
174.1536422841
 10
699.5610944444
 20
175.2980301588
 10
697.5813402991
 20
176.2313606487
 10
696.1562849527
 20
176.7482460365
  0
LWPOLYLINE
  5
210
330
1F
100
AcDbEntity
  8
0
  6
Continuous
 62
     8
370
    15
100
AcDbPolyline
 90
       25
 70
   128
 43
0.0
 10
636.5630230169
 20
197.3200751806
 10
634.2319706909
 20
195.5733767374
 10
631.2499000729
 20
193.1605576944
 10
628.3064747059
 20
190.5763343159
 10
625.4111232689
 20
187.8289846483
 10
622.5731204452
 20
184.927309281
 10
619.8015572136
 20
181.8806031549
 10
617.1053117267
 20
178.6986257883
 10
614.4930208716
 20
175.3915700138
 10
611.9730526034
 20
171.9700293283
 10
609.5534791402
 20
168.444963958
 10
607.2420511052
 20
164.82766575
 10
605.0461726994
 20
161.129722001
 10
602.9728779832
 20
157.3629783396
 10
601.0288083447
 20
153.5395007815
 10
599.2201912249
 20
149.6715370778
 10
597.5528201698
 20
145.7714774824
 10
596.0320362716
 20
141.8518150621
 10
594.6627110595
 20
137.9251056771
 10
593.4492308951
 20
134.0039277615
 10
592.395482921
 20
130.1008420303
 10
591.5048426098
 20
126.2283512437
 10
590.7801629509
 20
122.3988601572
 10
590.2237653117
 20
118.6246357853
 10
589.9986184683
 20
116.6594209284
  0
LWPOLYLINE
  5
211
330
1F
100
AcDbEntity
  8
0
  6
Continuous
 62
     8
370
    15
100
AcDbPolyline
 90
       31
 70
   128
 43
0.0
 10
639.7842845184
 20
93.2058745138
 10
639.852393246
 20
93.2283944089
 10
642.2826693968
 20
94.1365201284
 10
644.7369177884
 20
95.2554542336
 10
647.2031815692
 20
96.5797453901
 10
649.66944535
 20
98.1029417845
 10
652.1236937416
 20
99.8176225569
 10
654.5539698925
 20
101.7154339552
 10
656.9484337415
 20
103.7871300328
 10
659.2954197016
 20
106.0226176949
 10
661.583493493
 20
108.4110058701
 10
663.8015078502
 20
110.9406585713
 10
665.9386568303
 20
113.599251585
 10
667.9845284581
 20
116.3738325131
 10
669.9291554528
 20
119.2508838763
 10
671.7630637872
 20
122.2163889696
 10
673.4773188442
 20
125.2559001502
 10
675.0635689454
 20
128.3546092251
 10
676.5140860398
 20
131.4974195953
 10
677.821803354
 20
134.6690198046
 10
678.9803498206
 20
137.8539581355
 10
679.9840811178
 20
141.0367178886
 10
680.8281071674
 20
144.2017929784
 10
681.5083159595
 20
147.3337634771
 10
682.0213935852
 20
150.4173707393
 10
682.3648403819
 20
153.4375917404
 10
682.5369831113
 20
156.3797122673
 10
682.5369831113
 20
159.2293986045
 10
682.3648403819
 20
161.9727673666
 10
682.0213935852
 20
164.5964531367
 10
681.6528975336
 20
166.4756083711
  0
ARC
  5
212
330
1F
100
AcDbEntity
  8
0
  6
Continuous
 62
     8
370
    15
100
AcDbCircle
 10
699.1606140933
 20
115.9069818445
 30
0.0
 40
56.62323265435336
100
AcDbArc
 50
120.3643903576
 51
131.8324960805
  0
LWPOLYLINE
  5
213
330
1F
100
AcDbEntity
  8
0
  6
Continuous
 62
     8
370
    15
100
AcDbPolyline
 90
       74
 70
   128
 43
0.0
 10
636.4496207247
 20
115.090210806
 10
636.2325709581
 20
114.0090746466
 10
635.7194933324
 20
110.9254673844
 10
635.3760465357
 20
107.9052463833
 10
635.2039038063
 20
104.9631258564
 10
635.2039038063
 20
102.1134395192
 10
635.3760465357
 20
99.3700707571
 10
635.7194933324
 20
96.746384987
 10
636.2325709581
 20
94.2551645421
 10
636.9127797502
 20
91.908546398
 10
637.7568057998
 20
89.7179630426
 10
638.760537097
 20
87.6940867776
 10
639.9190835636
 20
85.8467777248
 10
641.2268008778
 20
84.1850357883
 10
642.6773179722
 20
82.7169568077
 10
644.2635680734
 20
81.4496931162
 10
645.9778231304
 20
80.3894186951
 10
647.8117314648
 20
79.5412990949
 10
649.7563584595
 20
78.909466269
 10
651.8022300873
 20
78.4969984434
 10
653.9393790674
 20
78.3059051198
 10
656.1573934246
 20
78.3371172858
 10
658.445467216
 20
78.5904828789
 10
660.792453176
 20
79.0647675273
 10
663.1869170251
 20
79.7576605638
 10
665.617193176
 20
80.6657862833
 10
668.0714415676
 20
81.7847203885
 10
670.5377053484
 20
83.109011545
 10
673.0039691292
 20
84.6322079394
 10
675.4582175208
 20
86.3468887119
 10
677.8884936716
 20
88.2447001101
 10
680.2829575207
 20
90.3163961878
 10
682.6299434808
 20
92.5518838498
 10
684.9180172722
 20
94.940272025
 10
687.1360316294
 20
97.4699247262
 10
689.2731806094
 20
100.1285177399
 10
691.3190522372
 20
102.903098668
 10
693.263679232
 20
105.7801500313
 10
695.0975875664
 20
108.7456551245
 10
696.8118426233
 20
111.7851663051
 10
698.3980927245
 20
114.8838753801
 10
699.848609819
 20
118.0266857503
 10
701.1563271332
 20
121.1982859595
 10
702.3148735998
 20
124.3832242904
 10
703.3186048969
 20
127.5659840435
 10
704.1626309466
 20
130.7310591333
 10
704.8428397387
 20
133.863029632
 10
705.3559173644
 20
136.9466368942
 10
705.699364161
 20
139.9668578953
 10
705.8715068904
 20
142.9089784222
 10
705.8715068904
 20
145.7586647594
 10
705.699364161
 20
148.5020335215
 10
705.3559173644
 20
151.1257192917
 10
704.8428397387
 20
153.6169397366
 10
704.1626309466
 20
155.9635578806
 10
703.3186048969
 20
158.1541412361
 10
702.3148735998
 20
160.1780175011
 10
701.1563271332
 20
162.0253265538
 10
699.848609819
 20
163.6870684903
 10
698.3980927245
 20
165.155147471
 10
696.8118426233
 20
166.4224111625
 10
695.0975875664
 20
167.4826855835
 10
693.263679232
 20
168.3308051837
 10
691.3190522372
 20
168.9626380097
 10
689.2731806094
 20
169.3751058353
 10
687.1360316294
 20
169.5661991588
 10
684.9180172722
 20
169.5349869928
 10
682.6299434808
 20
169.2816213997
 10
680.2829575207
 20
168.8073367514
 10
677.8884936716
 20
168.1144437148
 10
675.4582175208
 20
167.2063179953
 10
673.0039691292
 20
166.0873838901
 10
670.5377053484
 20
164.7630927336
 10
670.5377053484
 20
164.7630927336
  0
LWPOLYLINE
  5
214
330
1F
100
AcDbEntity
  8
0
  6
Continuous
 62
     8
370
    15
100
AcDbPolyline
 90
       34
 70
   128
 43
0.0
 10
635.5359196796
 20
206.1992546102
 10
632.4955700094
 20
204.3447043025
 10
629.4649594958
 20
202.297307073
 10
626.4537960979
 20
200.0636213524
 10
623.4717254798
 20
197.6508023094
 10
620.5283001129
 20
195.0665789309
 10
617.6329486758
 20
192.3192292633
 10
614.7949458522
 20
189.417553896
 10
612.0233826206
 20
186.3708477699
 10
609.3271371336
 20
183.1888704033
 10
606.7148462785
 20
179.8818146289
 10
604.1948780103
 20
176.4602739433
 10
601.7753045471
 20
172.935208573
 10
599.4638765122
 20
169.317910365
 10
597.2679981064
 20
165.619966616
 10
595.1947033902
 20
161.8532229547
 10
593.2506337516
 20
158.0297453965
 10
591.4420166319
 20
154.1617816928
 10
589.7746455768
 20
150.2617220975
 10
588.2538616786
 20
146.3420596771
 10
586.8845364665
 20
142.4153502921
 10
585.671056302
 20
138.4941723765
 10
584.617308328
 20
134.5910866453
 10
583.7266680168
 20
130.7185958587
 10
583.0019883579
 20
126.8891047722
 10
582.4455907187
 20
123.1148804003
 10
582.0592574086
 20
119.4080127214
 10
581.8442259696
 20
115.7803759502
 10
581.8011852123
 20
112.243590501
 10
581.9302730092
 20
108.8089857638
 10
582.2310758531
 20
105.4875638131
 10
582.7026301819
 20
102.2899641646
 10
583.3434254649
 20
99.226429694
 10
583.9962084699
 20
96.8130461372
  0
ARC
  5
215
330
1F
100
AcDbEntity
  8
0
  6
Continuous
 62
     8
370
    15
100
AcDbCircle
 10
663.9337215899
 20
158.5624035877
 30
0.0
 40
55.45903649252202
100
AcDbArc
 50
102.6175741132
 51
120.8004786759
  0
LWPOLYLINE
  5
216
330
1F
100
AcDbEntity
  8
0
  6
Continuous
 62
     8
370
    15
100
AcDbPolyline
 90
       27
 70
   128
 43
0.0
 10
636.7429585977
 20
99.6393197521
 10
636.9587431954
 20
99.7456988486
 10
639.4250069762
 20
101.0699900051
 10
641.891270757
 20
102.5931863995
 10
644.3455191485
 20
104.307867172
 10
646.7757952994
 20
106.2056785702
 10
649.1702591485
 20
108.2773746479
 10
651.5172451086
 20
110.5128623099
 10
653.8053189
 20
112.9012504851
 10
656.0233332572
 20
115.4309031863
 10
658.1604822372
 20
118.0894962
 10
660.206353865
 20
120.8640771281
 10
662.1509808598
 20
123.7411284914
 10
663.9848891941
 20
126.7066335846
 10
665.6991442511
 20
129.7461447652
 10
667.2853943523
 20
132.8448538402
 10
668.7359114468
 20
135.9876642104
 10
670.043628761
 20
139.1592644196
 10
671.2021752276
 20
142.3442027505
 10
672.2059065247
 20
145.5269625036
 10
673.0499325744
 20
148.6920375934
 10
673.7301413665
 20
151.8240080921
 10
674.2432189922
 20
154.9076153543
 10
674.5866657888
 20
157.9278363554
 10
674.7588085182
 20
160.8699568823
 10
674.7588085182
 20
163.7196432195
 10
674.6773157876
 20
165.3623471184
  0
LWPOLYLINE
  5
217
330
1F
100
AcDbEntity
  8
0
  6
Continuous
 62
     8
370
    15
100
AcDbPolyline
 90
       34
 70
   128
 43
0.0
 10
627.7577450866
 20
210.6894992253
 10
624.7173954164
 20
208.8349489175
 10
621.6867849028
 20
206.787551688
 10
618.6756215048
 20
204.5538659674
 10
615.6935508868
 20
202.1410469244
 10
612.7501255198
 20
199.5568235459
 10
609.8547740828
 20
196.8094738784
 10
607.0167712591
 20
193.907798511
 10
604.2452080275
 20
190.8610923849
 10
601.5489625406
 20
187.6791150183
 10
598.9366716855
 20
184.3720592439
 10
596.4167034173
 20
180.9505185584
 10
593.9971299541
 20
177.4254531881
 10
591.6857019191
 20
173.80815498
 10
589.4898235133
 20
170.110211231
 10
587.4165287971
 20
166.3434675697
 10
585.4724591586
 20
162.5199900115
 10
583.6638420388
 20
158.6520263078
 10
581.9964709837
 20
154.7519667125
 10
580.4756870855
 20
150.8323042921
 10
579.1063618734
 20
146.9055949072
 10
577.892881709
 20
142.9844169916
 10
576.8391337349
 20
139.0813312603
 10
575.9484934237
 20
135.2088404737
 10
575.2238137648
 20
131.3793493873
 10
574.6674161256
 20
127.6051250153
 10
574.2810828155
 20
123.8982573364
 10
574.0660513765
 20
120.2706205652
 10
574.0230106192
 20
116.733835116
 10
574.1520984161
 20
113.2992303788
 10
574.45290126
 20
109.9778084281
 10
574.9244555889
 20
106.7802087796
 10
575.5652508719
 20
103.7166743091
 10
576.2180338769
 20
101.3032907522
  0
ARC
  5
218
330
1F
100
AcDbEntity
  8
0
  6
Continuous
 62
     8
370
    15
100
AcDbCircle
 10
656.1555469968
 20
163.0526482027
 30
0.0
 40
55.45903649252826
100
AcDbArc
 50
102.6175741132
 51
120.8004786759
  0
ARC
  5
219
330
1F
100
AcDbEntity
  8
0
  6
Continuous
 62
     8
370
    15
100
AcDbCircle
 10
587.7117552754
 20
171.7502521987
 30
0.0
 40
79.68478647949047
100
AcDbArc
 50
307.7801933552
 51
352.2295014738
  0
LWPOLYLINE
  5
21A
330
1F
100
AcDbEntity
  8
0
  6
Continuous
 62
     8
370
    15
100
AcDbPolyline
 90
       34
 70
   128
 43
0.0
 10
619.9795704935
 20
215.1797438403
 10
616.9392208233
 20
213.3251935325
 10
613.9086103097
 20
211.2777963031
 10
610.8974469118
 20
209.0441105824
 10
607.9153762937
 20
206.6312915395
 10
604.9719509268
 20
204.0470681609
 10
602.0765994897
 20
201.2997184934
 10
599.2385966661
 20
198.3980431261
 10
596.4670334345
 20
195.351337
 10
593.7707879475
 20
192.1693596333
 10
591.1584970924
 20
188.8623038589
 10
588.6385288242
 20
185.4407631734
 10
586.218955361
 20
181.9156978031
 10
583.9075273261
 20
178.2983995951
 10
581.7116489203
 20
174.6004558461
 10
579.6383542041
 20
170.8337121847
 10
577.6942845655
 20
167.0102346265
 10
575.8856674458
 20
163.1422709229
 10
574.2182963907
 20
159.2422113275
 10
572.6975124925
 20
155.3225489072
 10
571.3281872804
 20
151.3958395222
 10
570.1147071159
 20
147.4746616066
 10
569.0609591419
 20
143.5715758754
 10
568.1703188307
 20
139.6990850888
 10
567.4456391718
 20
135.8695940023
 10
566.8892415326
 20
132.0953696303
 10
566.5029082224
 20
128.3885019514
 10
566.2878767835
 20
124.7608651803
 10
566.2448360262
 20
121.2240797311
 10
566.3739238231
 20
117.7894749939
 10
566.674726667
 20
114.4680530431
 10
567.1462809958
 20
111.2704533946
 10
567.7870762788
 20
108.2069189241
 10
568.4398592838
 20
105.7935353673
  0
ARC
  5
21B
330
1F
100
AcDbEntity
  8
0
  6
Continuous
 62
     8
370
    15
100
AcDbCircle
 10
648.3773724038
 20
167.5428928177
 30
0.0
 40
55.45903649252604
100
AcDbArc
 50
102.6175741132
 51
120.8004786759
  0
ARC
  5
21C
330
1F
100
AcDbEntity
  8
0
  6
Continuous
 62
     8
370
    15
100
AcDbCircle
 10
575.5534826862
 20
178.7684811594
 30
0.0
 40
84.66433033338157
100
AcDbArc
 50
319.1490800588
 51
340.9285722172
  0
LWPOLYLINE
  5
21D
330
1F
100
AcDbEntity
  8
0
  6
Continuous
 62
     8
370
    15
100
AcDbPolyline
 90
       34
 70
   128
 43
0.0
 10
612.2013959005
 20
219.6699884553
 10
609.1610462303
 20
217.8154381475
 10
606.1304357166
 20
215.7680409181
 10
603.1192723187
 20
213.5343551975
 10
600.1372017007
 20
211.1215361545
 10
597.1937763337
 20
208.537312776
 10
594.2984248967
 20
205.7899631084
 10
591.460422073
 20
202.8882877411
 10
588.6888588414
 20
199.841581615
 10
585.9926133545
 20
196.6596042484
 10
583.3803224993
 20
193.3525484739
 10
580.8603542311
 20
189.9310077884
 10
578.440780768
 20
186.4059424181
 10
576.129352733
 20
182.7886442101
 10
573.9334743272
 20
179.0907004611
 10
571.860179611
 20
175.3239567997
 10
569.9161099725
 20
171.5004792416
 10
568.1074928527
 20
167.6325155379
 10
566.4401217976
 20
163.7324559425
 10
564.9193378994
 20
159.8127935222
 10
563.5500126873
 20
155.8860841372
 10
562.3365325228
 20
151.9649062216
 10
561.2827845488
 20
148.0618204904
 10
560.3921442376
 20
144.1893297038
 10
559.6674645787
 20
140.3598386173
 10
559.1110669395
 20
136.5856142454
 10
558.7247336294
 20
132.8787465664
 10
558.5097021904
 20
129.2511097953
 10
558.4666614331
 20
125.7143243461
 10
558.59574923
 20
122.2797196089
 10
558.8965520739
 20
118.9582976581
 10
559.3681064028
 20
115.7606980097
 10
560.0089016858
 20
112.6971635391
 10
560.6616846908
 20
110.2837799823
  0
ARC
  5
21E
330
1F
100
AcDbEntity
  8
0
  6
Continuous
 62
     8
370
    15
100
AcDbCircle
 10
640.5991978107
 20
172.0331374328
 30
0.0
 40
55.45903649252466
100
AcDbArc
 50
102.6175741132
 51
120.8004786759
  0
LWPOLYLINE
  5
21F
330
1F
100
AcDbEntity
  8
0
  6
Continuous
 62
     8
370
    15
100
AcDbPolyline
 90
       34
 70
   128
 43
0.0
 10
604.4232213074
 20
224.1602330703
 10
601.3828716372
 20
222.3056827626
 10
598.3522611236
 20
220.2582855331
 10
595.3410977257
 20
218.0245998125
 10
592.3590271076
 20
215.6117807695
 10
589.4156017407
 20
213.027557391
 10
586.5202503036
 20
210.2802077234
 10
583.68224748
 20
207.3785323561
 10
580.9106842484
 20
204.33182623
 10
578.2144387614
 20
201.1498488634
 10
575.6021479063
 20
197.842793089
 10
573.0821796381
 20
194.4212524034
 10
570.6626061749
 20
190.8961870331
 10
568.35117814
 20
187.2788888251
 10
566.1552997342
 20
183.5809450761
 10
564.082005018
 20
179.8142014148
 10
562.1379353794
 20
175.9907238566
 10
560.3293182597
 20
172.1227601529
 10
558.6619472046
 20
168.2227005576
 10
557.1411633063
 20
164.3030381372
 10
555.7718380943
 20
160.3763287522
 10
554.5583579298
 20
156.4551508366
 10
553.5046099558
 20
152.5520651054
 10
552.6139696446
 20
148.6795743188
 10
551.8892899857
 20
144.8500832323
 10
551.3328923465
 20
141.0758588604
 10
550.9465590363
 20
137.3689911815
 10
550.7315275974
 20
133.7413544103
 10
550.6884868401
 20
130.2045689611
 10
550.8175746369
 20
126.7699642239
 10
551.1183774809
 20
123.4485422732
 10
551.5899318097
 20
120.2509426247
 10
552.2307270927
 20
117.1874081541
 10
552.8835100977
 20
114.7740245973
  0
ARC
  5
220
330
1F
100
AcDbEntity
  8
0
  6
Continuous
 62
     8
370
    15
100
AcDbCircle
 10
632.8210232177
 20
176.5233820478
 30
0.0
 40
55.45903649252804
100
AcDbArc
 50
102.6175741132
 51
120.8004786759
  0
LWPOLYLINE
  5
221
330
1F
100
AcDbEntity
  8
0
  6
Continuous
 62
     8
370
    15
100
AcDbPolyline
 90
       34
 70
   128
 43
0.0
 10
596.6450467144
 20
228.6504776854
 10
593.6046970442
 20
226.7959273776
 10
590.5740865305
 20
224.7485301481
 10
587.5629231326
 20
222.5148444275
 10
584.5808525146
 20
220.1020253845
 10
581.6374271476
 20
217.517802006
 10
578.7420757105
 20
214.7704523385
 10
575.9040728869
 20
211.8687769711
 10
573.1325096553
 20
208.822070845
 10
570.4362641684
 20
205.6400934784
 10
567.8239733132
 20
202.333037704
 10
565.304005045
 20
198.9114970185
 10
562.8844315819
 20
195.3864316482
 10
560.5730035469
 20
191.7691334401
 10
558.3771251411
 20
188.0711896911
 10
556.3038304249
 20
184.3044460298
 10
554.3597607864
 20
180.4809684716
 10
552.5511436666
 20
176.6130047679
 10
550.8837726115
 20
172.7129451726
 10
549.3629887133
 20
168.7932827522
 10
547.9936635012
 20
164.8665733673
 10
546.7801833367
 20
160.9453954517
 10
545.7264353627
 20
157.0423097204
 10
544.8357950515
 20
153.1698189338
 10
544.1111153926
 20
149.3403278474
 10
543.5547177534
 20
145.5661034754
 10
543.1683844433
 20
141.8592357965
 10
542.9533530043
 20
138.2315990253
 10
542.910312247
 20
134.6948135761
 10
543.0394000439
 20
131.2602088389
 10
543.3402028878
 20
127.9387868882
 10
543.8117572167
 20
124.7411872397
 10
544.4525524997
 20
121.6776527692
 10
545.1053355047
 20
119.2642692123
  0
ARC
  5
222
330
1F
100
AcDbEntity
  8
0
  6
Continuous
 62
     8
370
    15
100
AcDbCircle
 10
625.0428486246
 20
181.0136266628
 30
0.0
 40
55.45903649252582
100
AcDbArc
 50
102.6175741132
 51
120.8004786759
  0
LWPOLYLINE
  5
223
330
1F
100
AcDbEntity
  8
0
  6
Continuous
 62
     8
370
    15
100
AcDbPolyline
 90
       34
 70
   128
 43
0.0
 10
588.8668721213
 20
233.1407223004
 10
585.8265224511
 20
231.2861719926
 10
582.7959119375
 20
229.2387747632
 10
579.7847485396
 20
227.0050890425
 10
576.8026779215
 20
224.5922699996
 10
573.8592525546
 20
222.008046621
 10
570.9639011175
 20
219.2606969535
 10
568.1258982939
 20
216.3590215862
 10
565.3543350623
 20
213.3123154601
 10
562.6580895753
 20
210.1303380934
 10
560.0457987202
 20
206.823282319
 10
557.525830452
 20
203.4017416335
 10
555.1062569888
 20
199.8766762632
 10
552.7948289539
 20
196.2593780552
 10
550.5989505481
 20
192.5614343062
 10
548.5256558319
 20
188.7946906448
 10
546.5815861933
 20
184.9712130866
 10
544.7729690735
 20
181.103249383
 10
543.1055980185
 20
177.2031897876
 10
541.5848141202
 20
173.2835273673
 10
540.2154889082
 20
169.3568179823
 10
539.0020087437
 20
165.4356400667
 10
537.9482607696
 20
161.5325543355
 10
537.0576204585
 20
157.6600635489
 10
536.3329407996
 20
153.8305724624
 10
535.7765431604
 20
150.0563480904
 10
535.3902098502
 20
146.3494804115
 10
535.1751784113
 20
142.7218436404
 10
535.132137654
 20
139.1850581912
 10
535.2612254508
 20
135.750453454
 10
535.5620282948
 20
132.4290315032
 10
536.0335826236
 20
129.2314318547
 10
536.6743779066
 20
126.1678973842
 10
537.3271609116
 20
123.7545138274
  0
ARC
  5
224
330
1F
100
AcDbEntity
  8
0
  6
Continuous
 62
     8
370
    15
100
AcDbCircle
 10
617.2646740316
 20
185.5038712778
 30
0.0
 40
55.45903649252469
100
AcDbArc
 50
102.6175741132
 51
120.8004786759
  0
LWPOLYLINE
  5
225
330
1F
100
AcDbEntity
  8
0
  6
Continuous
 62
     8
370
    15
100
AcDbPolyline
 90
       34
 70
   128
 43
0.0
 10
581.0886975283
 20
237.6309669154
 10
578.0483478581
 20
235.7764166076
 10
575.0177373444
 20
233.7290193782
 10
572.0065739465
 20
231.4953336576
 10
569.0245033285
 20
229.0825146146
 10
566.0810779615
 20
226.4982912361
 10
563.1857265244
 20
223.7509415685
 10
560.3477237008
 20
220.8492662012
 10
557.5761604692
 20
217.8025600751
 10
554.8799149823
 20
214.6205827085
 10
552.2676241271
 20
211.313526934
 10
549.7476558589
 20
207.8919862485
 10
547.3280823958
 20
204.3669208782
 10
545.0166543608
 20
200.7496226702
 10
542.820775955
 20
197.0516789212
 10
540.7474812388
 20
193.2849352598
 10
538.8034116003
 20
189.4614577017
 10
536.9947944805
 20
185.593493998
 10
535.3274234254
 20
181.6934344026
 10
533.8066395272
 20
177.7737719823
 10
532.4373143151
 20
173.8470625973
 10
531.2238341506
 20
169.9258846817
 10
530.1700861766
 20
166.0227989505
 10
529.2794458654
 20
162.1503081639
 10
528.5547662065
 20
158.3208170774
 10
527.9983685673
 20
154.5465927055
 10
527.6120352572
 20
150.8397250265
 10
527.3970038182
 20
147.2120882554
 10
527.3539630609
 20
143.6753028062
 10
527.4830508578
 20
140.240698069
 10
527.7838537017
 20
136.9192761182
 10
528.2554080305
 20
133.7216764698
 10
528.8962033135
 20
130.6581419992
 10
529.5489863186
 20
128.2447584424
  0
ARC
  5
226
330
1F
100
AcDbEntity
  8
0
  6
Continuous
 62
     8
370
    15
100
AcDbCircle
 10
609.4864994385
 20
189.9941158929
 30
0.0
 40
55.45903649252721
100
AcDbArc
 50
102.6175741132
 51
120.8004786759
  0
LINE
  5
227
330
1F
100
AcDbEntity
  8
0
  6
Continuous
 62
     8
370
    15
100
AcDbLine
 10
522.5674075611
 20
128.8744080959
 30
0.0
 11
522.9591896903
 21
128.4947992723
 31
0.0
  0
LWPOLYLINE
  5
228
330
1F
100
AcDbEntity
  8
0
  6
Continuous
 62
     8
370
    15
100
AcDbPolyline
 90
        3
 70
   128
 43
0.0
 10
592.7737586757
 20
249.4605483542
 10
592.711512493
 20
249.4788861769
 10
592.2640217981
 20
249.6055665423
  0
LINE
  5
229
330
1F
100
AcDbEntity
  8
0
  6
Continuous
 62
     8
370
    15
100
AcDbLine
 10
522.1155631148
 20
131.0230038443
 30
0.0
 11
522.2391881762
 21
130.8805274075
 31
0.0
  0
LINE
  5
22A
330
1F
100
AcDbEntity
  8
0
  6
Continuous
 62
     8
370
    15
100
AcDbLine
 10
590.3991110258
 20
248.8793559048
 30
0.0
 11
590.1774251739
 21
248.9223816316
 31
0.0
  0
ENDSEC
  0
SECTION
  2
OBJECTS
  0
DICTIONARY
  5
C
330
0
100
AcDbDictionary
281
     1
  3
ACAD_GROUP
350
D
  3
ACAD_LAYOUT
350
1A
  3
ACAD_MLINESTYLE
350
17
  3
ACAD_PLOTSETTINGS
350
19
  3
ACAD_PLOTSTYLENAME
350
E
  3
ACAD_SCALELIST
350
47
  0
DICTIONARY
  5
D
102
{ACAD_REACTORS
330
C
102
}
330
C
100
AcDbDictionary
281
     1
  0
DICTIONARY
  5
1A
102
{ACAD_REACTORS
330
C
102
}
330
C
100
AcDbDictionary
281
     1
  3
Layout1
350
1E
  3
Layout2
350
26
  3
Model
350
22
  0
DICTIONARY
  5
17
102
{ACAD_REACTORS
330
C
102
}
330
C
100
AcDbDictionary
281
     1
  3
Standard
350
18
  0
DICTIONARY
  5
19
102
{ACAD_REACTORS
330
C
102
}
330
C
100
AcDbDictionary
281
     1
  0
ACDBDICTIONARYWDFLT
  5
E
102
{ACAD_REACTORS
330
C
102
}
330
C
100
AcDbDictionary
281
     1
  3
Normal
350
F
100
AcDbDictionaryWithDefault
340
F
  0
DICTIONARY
  5
47
102
{ACAD_REACTORS
330
C
102
}
330
C
100
AcDbDictionary
281
     1
  3
A0
350
48
  3
A1
350
49
  3
A2
350
4A
  3
A3
350
4B
  3
A4
350
4C
  3
A5
350
4D
  3
A6
350
4E
  3
A7
350
4F
  3
A8
350
50
  3
A9
350
51
  3
B0
350
52
  3
B1
350
53
  3
B2
350
54
  3
B3
350
55
  3
B4
350
56
  3
B5
350
57
  3
B6
350
58
  3
B7
350
59
  3
B8
350
5A
  3
B9
350
5B
  3
C0
350
5C
  3
C1
350
5D
  3
C2
350
5E
  3
C3
350
5F
  3
C4
350
60
  3
C5
350
61
  3
C6
350
62
  3
C7
350
63
  3
C8
350
64
  3
C9
350
65
  3
D0
350
66
  3
D1
350
67
  3
D2
350
68
  0
LAYOUT
  5
1E
102
{ACAD_REACTORS
330
1A
102
}
330
1A
100
AcDbPlotSettings
  1

  2
none_device
  4

  6

 40
0.0
 41
0.0
 42
0.0
 43
0.0
 44
0.0
 45
0.0
 46
0.0
 47
0.0
 48
0.0
 49
0.0
140
0.0
141
0.0
142
1.0
143
1.0
 70
   688
 72
     1
 73
     0
 74
     5
  7

 75
    16
147
1.0
148
0.0
149
0.0
100
AcDbLayout
  1
Layout1
 70
     1
 71
     1
 10
0.0
 20
0.0
 11
420.0
 21
297.0
 12
0.0
 22
0.0
 32
0.0
 14
1.0000000000E+20
 24
1.0000000000E+20
 34
1.0000000000E+20
 15
-1.0000000000E+20
 25
-1.0000000000E+20
 35
-1.0000000000E+20
146
0.0
 13
0.0
 23
0.0
 33
0.0
 16
1.0
 26
0.0
 36
0.0
 17
0.0
 27
1.0
 37
0.0
 76
     0
330
1B
  0
LAYOUT
  5
26
102
{ACAD_REACTORS
330
1A
102
}
330
1A
100
AcDbPlotSettings
  1

  2
none_device
  4

  6

 40
0.0
 41
0.0
 42
0.0
 43
0.0
 44
0.0
 45
0.0
 46
0.0
 47
0.0
 48
0.0
 49
0.0
140
0.0
141
0.0
142
1.0
143
1.0
 70
   688
 72
     1
 73
     0
 74
     5
  7

 75
    16
147
1.0
148
0.0
149
0.0
100
AcDbLayout
  1
Layout2
 70
     1
 71
     2
 10
0.0
 20
0.0
 11
0.0
 21
0.0
 12
0.0
 22
0.0
 32
0.0
 14
0.0
 24
0.0
 34
0.0
 15
0.0
 25
0.0
 35
0.0
146
0.0
 13
0.0
 23
0.0
 33
0.0
 16
1.0
 26
0.0
 36
0.0
 17
0.0
 27
1.0
 37
0.0
 76
     0
330
23
  0
LAYOUT
  5
22
102
{ACAD_REACTORS
330
1A
102
}
330
1A
100
AcDbPlotSettings
  1

  2
none_device
  4
Letter_(8.50_x_11.00_Inches)
  6

 40
6.35
 41
6.35
 42
6.35000508
 43
6.35000508
 44
215.9
 45
279.4
 46
0.0
 47
0.0
 48
0.0
 49
0.0
140
0.0
141
0.0
142
1.0
143
1.0
 70
  1712
 72
     1
 73
     0
 74
     0
  7

 75
     0
147
1.0
148
0.0
149
0.0
100
AcDbLayout
  1
Model
 70
     1
 71
     0
 10
0.0
 20
0.0
 11
841.0
 21
594.0
 12
0.0
 22
0.0
 32
0.0
 14
0.0
 24
0.0
 34
0.0
 15
841.0
 25
594.0
 35
0.0
146
0.0
 13
0.0
 23
0.0
 33
0.0
 16
1.0
 26
0.0
 36
0.0
 17
0.0
 27
1.0
 37
0.0
 76
     0
330
1F
331
29
  0
MLINESTYLE
  5
18
102
{ACAD_REACTORS
330
17
102
}
330
17
100
AcDbMlineStyle
  2
Standard
 70
     0
  3

 62
   256
 51
90.0
 52
90.0
 71
     2
 49
0.5
 62
   256
  6
BYLAYER
 49
-0.5
 62
   256
  6
BYLAYER
  0
ACDBPLACEHOLDER
  5
F
102
{ACAD_REACTORS
330
E
102
}
330
E
  0
SCALE
  5
48
102
{ACAD_REACTORS
330
47
102
}
330
47
100
AcDbScale
 70
     0
300
1:1
140
1.0
141
1.0
290
     1
  0
SCALE
  5
49
102
{ACAD_REACTORS
330
47
102
}
330
47
100
AcDbScale
 70
     0
300
1:2
140
1.0
141
2.0
290
     0
  0
SCALE
  5
4A
102
{ACAD_REACTORS
330
47
102
}
330
47
100
AcDbScale
 70
     0
300
1:4
140
1.0
141
4.0
290
     0
  0
SCALE
  5
4B
102
{ACAD_REACTORS
330
47
102
}
330
47
100
AcDbScale
 70
     0
300
1:5
140
1.0
141
5.0
290
     0
  0
SCALE
  5
4C
102
{ACAD_REACTORS
330
47
102
}
330
47
100
AcDbScale
 70
     0
300
1:8
140
1.0
141
8.0
290
     0
  0
SCALE
  5
4D
102
{ACAD_REACTORS
330
47
102
}
330
47
100
AcDbScale
 70
     0
300
1:10
140
1.0
141
10.0
290
     0
  0
SCALE
  5
4E
102
{ACAD_REACTORS
330
47
102
}
330
47
100
AcDbScale
 70
     0
300
1:16
140
1.0
141
16.0
290
     0
  0
SCALE
  5
4F
102
{ACAD_REACTORS
330
47
102
}
330
47
100
AcDbScale
 70
     0
300
1:20
140
1.0
141
20.0
290
     0
  0
SCALE
  5
50
102
{ACAD_REACTORS
330
47
102
}
330
47
100
AcDbScale
 70
     0
300
1:30
140
1.0
141
30.0
290
     0
  0
SCALE
  5
51
102
{ACAD_REACTORS
330
47
102
}
330
47
100
AcDbScale
 70
     0
300
1:40
140
1.0
141
40.0
290
     0
  0
SCALE
  5
52
102
{ACAD_REACTORS
330
47
102
}
330
47
100
AcDbScale
 70
     0
300
1:50
140
1.0
141
50.0
290
     0
  0
SCALE
  5
53
102
{ACAD_REACTORS
330
47
102
}
330
47
100
AcDbScale
 70
     0
300
1:100
140
1.0
141
100.0
290
     0
  0
SCALE
  5
54
102
{ACAD_REACTORS
330
47
102
}
330
47
100
AcDbScale
 70
     0
300
2:1
140
2.0
141
1.0
290
     0
  0
SCALE
  5
55
102
{ACAD_REACTORS
330
47
102
}
330
47
100
AcDbScale
 70
     0
300
4:1
140
4.0
141
1.0
290
     0
  0
SCALE
  5
56
102
{ACAD_REACTORS
330
47
102
}
330
47
100
AcDbScale
 70
     0
300
8:1
140
8.0
141
1.0
290
     0
  0
SCALE
  5
57
102
{ACAD_REACTORS
330
47
102
}
330
47
100
AcDbScale
 70
     0
300
10:1
140
10.0
141
1.0
290
     0
  0
SCALE
  5
58
102
{ACAD_REACTORS
330
47
102
}
330
47
100
AcDbScale
 70
     0
300
100:1
140
100.0
141
1.0
290
     0
  0
SCALE
  5
59
102
{ACAD_REACTORS
330
47
102
}
330
47
100
AcDbScale
 70
     0
300
1/128" = 1'-0"
140
0.0078125
141
12.0
290
     0
  0
SCALE
  5
5A
102
{ACAD_REACTORS
330
47
102
}
330
47
100
AcDbScale
 70
     0
300
1/64" = 1'-0"
140
0.015625
141
12.0
290
     0
  0
SCALE
  5
5B
102
{ACAD_REACTORS
330
47
102
}
330
47
100
AcDbScale
 70
     0
300
1/32" = 1'-0"
140
0.03125
141
12.0
290
     0
  0
SCALE
  5
5C
102
{ACAD_REACTORS
330
47
102
}
330
47
100
AcDbScale
 70
     0
300
1/16" = 1'-0"
140
0.0625
141
12.0
290
     0
  0
SCALE
  5
5D
102
{ACAD_REACTORS
330
47
102
}
330
47
100
AcDbScale
 70
     0
300
3/32" = 1'-0"
140
0.09375
141
12.0
290
     0
  0
SCALE
  5
5E
102
{ACAD_REACTORS
330
47
102
}
330
47
100
AcDbScale
 70
     0
300
1/8" = 1'-0"
140
0.125
141
12.0
290
     0
  0
SCALE
  5
5F
102
{ACAD_REACTORS
330
47
102
}
330
47
100
AcDbScale
 70
     0
300
3/16" = 1'-0"
140
0.1875
141
12.0
290
     0
  0
SCALE
  5
60
102
{ACAD_REACTORS
330
47
102
}
330
47
100
AcDbScale
 70
     0
300
1/4" = 1'-0"
140
0.25
141
12.0
290
     0
  0
SCALE
  5
61
102
{ACAD_REACTORS
330
47
102
}
330
47
100
AcDbScale
 70
     0
300
3/8" = 1'-0"
140
0.375
141
12.0
290
     0
  0
SCALE
  5
62
102
{ACAD_REACTORS
330
47
102
}
330
47
100
AcDbScale
 70
     0
300
1/2" = 1'-0"
140
0.5
141
12.0
290
     0
  0
SCALE
  5
63
102
{ACAD_REACTORS
330
47
102
}
330
47
100
AcDbScale
 70
     0
300
3/4" = 1'-0"
140
0.75
141
12.0
290
     0
  0
SCALE
  5
64
102
{ACAD_REACTORS
330
47
102
}
330
47
100
AcDbScale
 70
     0
300
1" = 1'-0"
140
1.0
141
12.0
290
     0
  0
SCALE
  5
65
102
{ACAD_REACTORS
330
47
102
}
330
47
100
AcDbScale
 70
     0
300
1-1/2" = 1'-0"
140
1.5
141
12.0
290
     0
  0
SCALE
  5
66
102
{ACAD_REACTORS
330
47
102
}
330
47
100
AcDbScale
 70
     0
300
3" = 1'-0"
140
3.0
141
12.0
290
     0
  0
SCALE
  5
67
102
{ACAD_REACTORS
330
47
102
}
330
47
100
AcDbScale
 70
     0
300
6" = 1'-0"
140
6.0
141
12.0
290
     0
  0
SCALE
  5
68
102
{ACAD_REACTORS
330
47
102
}
330
47
100
AcDbScale
 70
     0
300
1'-0" = 1'-0"
140
12.0
141
12.0
290
     0
  0
ENDSEC
  0
EOF
