  0
SECTION
  2
HEADER
  9
$ACADVER
  1
AC1015
  9
$ACADMAINTVER
 70
     6
  9
$DWGCODEPAGE
  3
ANSI_1252
  9
$INSBASE
 10
0.0
 20
0.0
 30
0.0
  9
$EXTMIN
 10
0.0
 20
0.0
 30
0.0
  9
$EXTMAX
 10
1189.0
 20
841.0
 30
0.0
  9
$LIMMIN
 10
0.0
 20
0.0
  9
$LIMMAX
 10
1189.0
 20
841.0
  9
$ORTHOMODE
 70
     0
  9
$REGENMODE
 70
     1
  9
$FILLMODE
 70
     1
  9
$QTEXTMODE
 70
     0
  9
$MIRRTEXT
 70
     1
  9
$LTSCALE
 40
1.0
  9
$ATTMODE
 70
     1
  9
$TEXTSIZE
 40
3.0
  9
$TRACEWID
 40
1.0
  9
$TEXTSTYLE
  7
Standard
  9
$CLAYER
  8
0
  9
$CELTYPE
  6
ByLayer
  9
$CECOLOR
 62
   256
  9
$CELTSCALE
 40
1.0
  9
$DISPSILH
 70
     0
  9
$DIMSCALE
 40
1.0
  9
$DIMASZ
 40
3.0
  9
$DIMEXO
 40
1.0
  9
$DIMDLI
 40
3.75
  9
$DIMRND
 40
0.0
  9
$DIMDLE
 40
0.0
  9
$DIMEXE
 40
1.0
  9
$DIMTP
 40
0.0
  9
$DIMTM
 40
0.0
  9
$DIMTXT
 40
3.0
  9
$DIMCEN
 40
2.5
  9
$DIMTSZ
 40
0.0
  9
$DIMTOL
 70
     0
  9
$DIMLIM
 70
     0
  9
$DIMTIH
 70
     1
  9
$DIMTOH
 70
     1
  9
$DIMSE1
 70
     0
  9
$DIMSE2
 70
     0
  9
$DIMTAD
 70
     1
  9
$DIMZIN
 70
     0
  9
$DIMBLK
  1

  9
$DIMASO
 70
     1
  9
$DIMSHO
 70
     1
  9
$DIMPOST
  1

  9
$DIMAPOST
  1

  9
$DIMALT
 70
     0
  9
$DIMALTD
 70
     3
  9
$DIMALTF
 40
0.0393700787
  9
$DIMLFAC
 40
1.0
  9
$DIMTOFL
 70
     1
  9
$DIMTVP
 40
0.0
  9
$DIMTIX
 70
     0
  9
$DIMSOXD
 70
     0
  9
$DIMSAH
 70
     0
  9
$DIMBLK1
  1

  9
$DIMBLK2
  1

  9
$DIMSTYLE
  2
ISO-25
  9
$DIMCLRD
 70
     0
  9
$DIMCLRE
 70
     0
  9
$DIMCLRT
 70
     0
  9
$DIMTFAC
 40
1.0
  9
$DIMGAP
 40
3.0
  9
$DIMJUST
 70
     0
  9
$DIMSD1
 70
     0
  9
$DIMSD2
 70
     0
  9
$DIMTOLJ
 70
     0
  9
$DIMTZIN
 70
     0
  9
$DIMALTZ
 70
     0
  9
$DIMALTTZ
 70
     0
  9
$DIMUPT
 70
     0
  9
$DIMDEC
 70
     2
  9
$DIMTDEC
 70
     3
  9
$DIMALTU
 70
     2
  9
$DIMALTTD
 70
     3
  9
$DIMTXSTY
  7
Standard
  9
$DIMAUNIT
 70
     0
  9
$DIMADEC
 70
     2
  9
$DIMALTRND
 40
0.0
  9
$DIMAZIN
 70
     0
  9
$DIMDSEP
 70
    44
  9
$DIMATFIT
 70
     3
  9
$DIMFRAC
 70
     0
  9
$DIMLDRBLK
  1

  9
$DIMLUNIT
 70
     2
  9
$DIMLWD
 70
    -2
  9
$DIMLWE
 70
    -2
  9
$DIMTMOVE
 70
     0
  9
$LUNITS
 70
     2
  9
$LUPREC
 70
     2
  9
$SKETCHINC
 40
1.0
  9
$FILLETRAD
 40
10.0
  9
$AUNITS
 70
     0
  9
$AUPREC
 70
     2
  9
$MENU
  1
.
  9
$ELEVATION
 40
0.0
  9
$PELEVATION
 40
0.0
  9
$THICKNESS
 40
0.0
  9
$LIMCHECK
 70
     0
  9
$CHAMFERA
 40
0.0
  9
$CHAMFERB
 40
0.0
  9
$CHAMFERC
 40
0.0
  9
$CHAMFERD
 40
0.0
  9
$SKPOLY
 70
     0
  9
$TDCREATE
 40
2457877.579818958
  9
$TDUCREATE
 40
2457877.496485625
  9
$TDUPDATE
 40
2457877.579819688
  9
$TDUUPDATE
 40
2457877.496486354
  9
$TDINDWG
 40
0.0000000116
  9
$TDUSRTIMER
 40
0.0000000116
  9
$USRTIMER
 70
     1
  9
$ANGBASE
 50
0.0
  9
$ANGDIR
 70
     0
  9
$PDMODE
 70
     0
  9
$PDSIZE
 40
-1.0
  9
$PLINEWID
 40
0.0
  9
$SPLFRAME
 70
     0
  9
$SPLINETYPE
 70
     6
  9
$SPLINESEGS
 70
     8
  9
$HANDSEED
  5
2B3
  9
$SURFTAB1
 70
     6
  9
$SURFTAB2
 70
     6
  9
$SURFTYPE
 70
     6
  9
$SURFU
 70
     6
  9
$SURFV
 70
     6
  9
$UCSBASE
  2

  9
$UCSNAME
  2

  9
$UCSORG
 10
0.0
 20
0.0
 30
0.0
  9
$UCSXDIR
 10
1.0
 20
0.0
 30
0.0
  9
$UCSYDIR
 10
0.0
 20
1.0
 30
0.0
  9
$UCSORTHOREF
  2

  9
$UCSORTHOVIEW
 70
     0
  9
$UCSORGTOP
 10
0.0
 20
0.0
 30
0.0
  9
$UCSORGBOTTOM
 10
0.0
 20
0.0
 30
0.0
  9
$UCSORGLEFT
 10
0.0
 20
0.0
 30
0.0
  9
$UCSORGRIGHT
 10
0.0
 20
0.0
 30
0.0
  9
$UCSORGFRONT
 10
0.0
 20
0.0
 30
0.0
  9
$UCSORGBACK
 10
0.0
 20
0.0
 30
0.0
  9
$PUCSBASE
  2

  9
$PUCSNAME
  2

  9
$PUCSORG
 10
0.0
 20
0.0
 30
0.0
  9
$PUCSXDIR
 10
1.0
 20
0.0
 30
0.0
  9
$PUCSYDIR
 10
0.0
 20
1.0
 30
0.0
  9
$PUCSORTHOREF
  2

  9
$PUCSORTHOVIEW
 70
     0
  9
$PUCSORGTOP
 10
0.0
 20
0.0
 30
0.0
  9
$PUCSORGBOTTOM
 10
0.0
 20
0.0
 30
0.0
  9
$PUCSORGLEFT
 10
0.0
 20
0.0
 30
0.0
  9
$PUCSORGRIGHT
 10
0.0
 20
0.0
 30
0.0
  9
$PUCSORGFRONT
 10
0.0
 20
0.0
 30
0.0
  9
$PUCSORGBACK
 10
0.0
 20
0.0
 30
0.0
  9
$USERI1
 70
     0
  9
$USERI2
 70
     0
  9
$USERI3
 70
     0
  9
$USERI4
 70
     0
  9
$USERI5
 70
     0
  9
$USERR1
 40
0.0
  9
$USERR2
 40
0.0
  9
$USERR3
 40
0.0
  9
$USERR4
 40
0.0
  9
$USERR5
 40
0.0
  9
$WORLDVIEW
 70
     1
  9
$SHADEDGE
 70
     3
  9
$SHADEDIF
 70
    70
  9
$TILEMODE
 70
     1
  9
$MAXACTVP
 70
    64
  9
$PINSBASE
 10
0.0
 20
0.0
 30
0.0
  9
$PLIMCHECK
 70
     0
  9
$PEXTMIN
 10
1.0000000000E+20
 20
1.0000000000E+20
 30
1.0000000000E+20
  9
$PEXTMAX
 10
-1.0000000000E+20
 20
-1.0000000000E+20
 30
-1.0000000000E+20
  9
$PLIMMIN
 10
0.0
 20
0.0
  9
$PLIMMAX
 10
420.0
 20
297.0
  9
$UNITMODE
 70
     0
  9
$VISRETAIN
 70
     1
  9
$PLINEGEN
 70
     0
  9
$PSLTSCALE
 70
     1
  9
$TREEDEPTH
 70
  3020
  9
$CMLSTYLE
  2
Standard
  9
$CMLJUST
 70
     0
  9
$CMLSCALE
 40
20.0
  9
$PROXYGRAPHICS
 70
     1
  9
$MEASUREMENT
 70
     1
  9
$CELWEIGHT
370
    -1
  9
$ENDCAPS
280
     0
  9
$JOINSTYLE
280
     0
  9
$LWDISPLAY
290
     1
  9
$INSUNITS
 70
     4
  9
$HYPERLINKBASE
  1

  9
$STYLESHEET
  1

  9
$XEDIT
290
     1
  9
$CEPSNTYPE
380
     0
  9
$PSTYLEMODE
290
     1
  9
$FINGERPRINTGUID
  2
{FF2B3AE1-DA98-4A40-9D52-951ED2FCA6A2}
  9
$VERSIONGUID
  2
{FAEB1C32-E019-11D5-929B-00C0DF256EC4}
  9
$EXTNAMES
290
     1
  9
$PSVPSCALE
 40
0.0
  9
$OLESTARTUP
290
     0
  0
ENDSEC
  0
SECTION
  2
CLASSES
  0
CLASS
  1
ACDBDICTIONARYWDFLT
  2
AcDbDictionaryWithDefault
  3
ObjectDBX Classes
 90
        0
280
     0
281
     0
  0
CLASS
  1
VISUALSTYLE
  2
AcDbVisualStyle
  3
ObjectDBX Classes
 90
     4095
280
     0
281
     0
  0
CLASS
  1
MATERIAL
  2
AcDbMaterial
  3
ObjectDBX Classes
 90
     1153
280
     0
281
     0
  0
CLASS
  1
SCALE
  2
AcDbScale
  3
ObjectDBX Classes
 90
     1153
280
     0
281
     0
  0
CLASS
  1
TABLESTYLE
  2
AcDbTableStyle
  3
ObjectDBX Classes
 90
     4095
280
     0
281
     0
  0
CLASS
  1
MLEADERSTYLE
  2
AcDbMLeaderStyle
  3
ACDB_MLEADERSTYLE_CLASS
 90
     4095
280
     0
281
     0
  0
CLASS
  1
SUN
  2
AcDbSun
  3
SCENEOE
 90
     1153
280
     0
281
     0
  0
CLASS
  1
ACDBPLACEHOLDER
  2
AcDbPlaceHolder
  3
ObjectDBX Classes
 90
        0
280
     0
281
     0
  0
CLASS
  1
LAYOUT
  2
AcDbLayout
  3
ObjectDBX Classes
 90
        0
280
     0
281
     0
  0
ENDSEC
  0
SECTION
  2
TABLES
  0
TABLE
  2
VPORT
  5
8
330
0
100
AcDbSymbolTable
 70
     1
  0
VPORT
  5
29
330
8
100
AcDbSymbolTableRecord
100
AcDbViewportTableRecord
  2
*Active
 70
     0
 10
0.0
 20
0.0
 11
1.0
 21
1.0
 12
594.5
 22
420.5
 13
0.0
 23
0.0
 14
10.0
 24
10.0
 15
10.0
 25
10.0
 16
0.0
 26
0.0
 36
1.0
 17
0.0
 27
0.0
 37
0.0
 40
841.0
 41
1.4137931034
 42
50.0
 43
0.0
 44
0.0
 50
0.0
 51
0.0
 71
     0
 72
  2000
 73
     1
 74
     3
 75
     0
 76
     0
 77
     0
 78
     0
281
     0
 65
     1
110
0.0
120
0.0
130
0.0
111
1.0
121
0.0
131
0.0
112
0.0
122
1.0
132
0.0
 79
     0
146
0.0
  0
ENDTAB
  0
TABLE
  2
LTYPE
  5
5
330
0
100
AcDbSymbolTable
 70
     6
  0
LTYPE
  5
14
330
5
100
AcDbSymbolTableRecord
100
AcDbLinetypeTableRecord
  2
ByBlock
 70
     0
  3

 72
    65
 73
     0
 40
0.0
  0
LTYPE
  5
15
330
5
100
AcDbSymbolTableRecord
100
AcDbLinetypeTableRecord
  2
ByLayer
 70
     0
  3

 72
    65
 73
     0
 40
0.0
  0
LTYPE
  5
16
330
5
100
AcDbSymbolTableRecord
100
AcDbLinetypeTableRecord
  2
Continuous
 70
     0
  3
Solid line
 72
    65
 73
     0
 40
0.0
  0
LTYPE
  5
6E
330
5
100
AcDbSymbolTableRecord
100
AcDbLinetypeTableRecord
  2
HIDDEN
 70
     0
  3
Hidden __ __ __ __ __ __ __ __ __ __ __ __ __ __
 72
    65
 73
     2
 40
1.905
 49
1.27
 74
     0
 49
-0.635
 74
     0
  0
LTYPE
  5
6F
330
5
100
AcDbSymbolTableRecord
100
AcDbLinetypeTableRecord
  2
PHANTOM
 70
     0
  3
Phantom ______  __  __  ______  __  __  ______
 72
    65
 73
     6
 40
12.7
 49
6.35
 74
     0
 49
-1.27
 74
     0
 49
1.27
 74
     0
 49
-1.27
 74
     0
 49
1.27
 74
     0
 49
-1.27
 74
     0
  0
LTYPE
  5
70
330
5
100
AcDbSymbolTableRecord
100
AcDbLinetypeTableRecord
  2
CENTER
 70
     0
  3
Center ____ _ ____ _ ____ _ ____ _ ____ _ ____
 72
    65
 73
     4
 40
10.16
 49
6.35
 74
     0
 49
-1.27
 74
     0
 49
1.27
 74
     0
 49
-1.27
 74
     0
  0
LTYPE
  5
71
330
5
100
AcDbSymbolTableRecord
100
AcDbLinetypeTableRecord
  2
CENTERX2
 70
     0
  3
Center (2x) ________  __  ________  __  _____
 72
    65
 73
     4
 40
20.32
 49
12.7
 74
     0
 49
-2.54
 74
     0
 49
2.54
 74
     0
 49
-2.54
 74
     0
  0
LTYPE
  5
72
330
5
100
AcDbSymbolTableRecord
100
AcDbLinetypeTableRecord
  2
DOT2
 70
     0
  3
Dot (.5x) ........................................
 72
    65
 73
     2
 40
0.635
 49
0.0
 74
     0
 49
-0.635
 74
     0
  0
ENDTAB
  0
TABLE
  2
LAYER
  5
2
330
0
100
AcDbSymbolTable
 70
     1
  0
LAYER
  5
10
330
2
100
AcDbSymbolTableRecord
100
AcDbLayerTableRecord
  2
0
 70
     0
 62
     7
  6
Continuous
370
    -3
390
F
  0
ENDTAB
  0
TABLE
  2
STYLE
  5
3
330
0
100
AcDbSymbolTable
 70
     5
  0
STYLE
  5
11
330
3
100
AcDbSymbolTableRecord
100
AcDbTextStyleTableRecord
  2
Standard
 70
     0
 40
0.0
 41
1.0
 50
0.0
 71
     0
 42
3.0
  3
txt
  4

  0
STYLE
  5
102
330
3
100
AcDbSymbolTableRecord
100
AcDbTextStyleTableRecord
  2
SLDTEXTSTYLE0
 70
     0
 40
0.0
 41
0.8435443038
 50
0.0
 71
     0
 42
3.0
  3
ISOCP
  4

  0
STYLE
  5
155
330
3
100
AcDbSymbolTableRecord
100
AcDbTextStyleTableRecord
  2
SLDTEXTSTYLE1
 70
     0
 40
0.0
 41
0.5316086498
 50
0.0
 71
     0
 42
3.0
  3
TXT
  4

  0
STYLE
  5
172
330
3
100
AcDbSymbolTableRecord
100
AcDbTextStyleTableRecord
  2
SLDTEXTSTYLE2
 70
     0
 40
0.0
 41
1.0126582278
 50
0.0
 71
     0
 42
3.0
  3
ISOCP
  4

  0
STYLE
  5
1A3
330
3
100
AcDbSymbolTableRecord
100
AcDbTextStyleTableRecord
  2
SLDTEXTSTYLE3
 70
     0
 40
0.0
 41
0.96
 50
0.0
 71
     0
 42
3.0
  3
ISOCP
  4

  0
ENDTAB
  0
TABLE
  2
VIEW
  5
6
330
0
100
AcDbSymbolTable
 70
     0
  0
ENDTAB
  0
TABLE
  2
UCS
  5
7
330
0
100
AcDbSymbolTable
 70
     0
  0
ENDTAB
  0
TABLE
  2
APPID
  5
9
330
0
100
AcDbSymbolTable
 70
     1
  0
APPID
  5
12
330
9
100
AcDbSymbolTableRecord
100
AcDbRegAppTableRecord
  2
ACAD
 70
     0
  0
ENDTAB
  0
TABLE
  2
DIMSTYLE
  5
A
330
0
100
AcDbSymbolTable
 70
     1
100
AcDbDimStyleTable
  0
DIMSTYLE
105
27
330
A
100
AcDbSymbolTableRecord
100
AcDbDimStyleTableRecord
  2
ISO-25
 70
     0
 41
2.5
 42
0.625
 43
3.75
 44
1.25
 73
     0
 74
     0
 77
     1
 78
     8
140
2.5
141
2.5
143
0.0393700787
147
0.625
171
     3
172
     1
178
     0
271
     2
272
     2
274
     3
278
    44
283
     0
284
     8
340
11
  0
ENDTAB
  0
TABLE
  2
BLOCK_RECORD
  5
1
330
0
100
AcDbSymbolTable
 70
     4
  0
BLOCK_RECORD
  5
1F
330
1
100
AcDbSymbolTableRecord
100
AcDbBlockTableRecord
  2
*Model_Space
340
22
  0
BLOCK_RECORD
  5
1B
330
1
100
AcDbSymbolTableRecord
100
AcDbBlockTableRecord
  2
*Paper_Space
340
1E
  0
BLOCK_RECORD
  5
23
330
1
100
AcDbSymbolTableRecord
100
AcDbBlockTableRecord
  2
*Paper_Space0
340
26
  0
BLOCK_RECORD
  5
73
330
1
100
AcDbSymbolTableRecord
100
AcDbBlockTableRecord
  2
A0H
340
0
  0
BLOCK_RECORD
  5
15E
330
1
100
AcDbSymbolTableRecord
100
AcDbBlockTableRecord
  2
ISO2768
340
0
  0
BLOCK_RECORD
  5
1A0
330
1
100
AcDbSymbolTableRecord
100
AcDbBlockTableRecord
  2
Nota legale
340
0
  0
ENDTAB
  0
ENDSEC
  0
SECTION
  2
BLOCKS
  0
BLOCK
  5
20
330
1F
100
AcDbEntity
  8
0
100
AcDbBlockBegin
  2
*Model_Space
 70
     0
 10
0.0
 20
0.0
 30
0.0
  3
*Model_Space
  1

  0
ENDBLK
  5
21
330
1F
100
AcDbEntity
  8
0
100
AcDbBlockEnd
  0
BLOCK
  5
1C
330
1B
100
AcDbEntity
 67
     1
  8
0
100
AcDbBlockBegin
  2
*Paper_Space
 70
     0
 10
0.0
 20
0.0
 30
0.0
  3
*Paper_Space
  1

  0
ENDBLK
  5
1D
330
1B
100
AcDbEntity
 67
     1
  8
0
100
AcDbBlockEnd
  0
BLOCK
  5
24
330
23
100
AcDbEntity
  8
0
100
AcDbBlockBegin
  2
*Paper_Space0
 70
     0
 10
0.0
 20
0.0
 30
0.0
  3
*Paper_Space0
  1

  0
ENDBLK
  5
25
330
23
100
AcDbEntity
  8
0
100
AcDbBlockEnd
  0
BLOCK
  5
74
330
73
100
AcDbEntity
  8
0
100
AcDbBlockBegin
  2
A0H
 70
     0
 10
0.0
 20
0.0
 30
0.0
  3
A0H
  1

  0
LINE
  5
76
330
73
100
AcDbEntity
  8
0
  6
Continuous
 62
     7
370
     0
100
AcDbLine
 10
139.0
 20
830.9999999407
 30
0.0
 11
139.0
 21
836.0
 31
0.0
  0
LINE
  5
77
330
73
100
AcDbEntity
  8
0
  6
Continuous
 62
     7
370
     0
100
AcDbLine
 10
349.0
 20
830.9999999407
 30
0.0
 11
349.0
 21
836.0
 31
0.0
  0
LINE
  5
78
330
73
100
AcDbEntity
  8
0
  6
Continuous
 62
     7
370
     0
100
AcDbLine
 10
559.0
 20
830.9999999407
 30
0.0
 11
559.0
 21
836.0
 31
0.0
  0
LINE
  5
79
330
73
100
AcDbEntity
  8
0
  6
Continuous
 62
     7
370
     0
100
AcDbLine
 10
769.0
 20
830.9999999407
 30
0.0
 11
769.0
 21
836.0
 31
0.0
  0
LINE
  5
7A
330
73
100
AcDbEntity
  8
0
  6
Continuous
 62
     7
370
     0
100
AcDbLine
 10
979.0
 20
830.9999999407
 30
0.0
 11
979.0
 21
836.0
 31
0.0
  0
LINE
  5
7B
330
73
100
AcDbEntity
  8
0
  6
Continuous
 62
     7
370
     0
100
AcDbLine
 10
329.4999999291
 20
830.9999999407
 30
0.0
 11
327.3865971476
 21
836.0
 31
0.0
  0
LINE
  5
7C
330
73
100
AcDbEntity
  8
0
  6
Continuous
 62
     7
370
     0
100
AcDbLine
 10
329.4999999291
 20
830.9999999407
 30
0.0
 11
331.6134037388
 21
836.0
 31
0.0
  0
LINE
  5
7D
330
73
100
AcDbEntity
  8
0
  6
Continuous
 62
     7
370
     0
100
AcDbLine
 10
263.9999999307
 20
830.9999999407
 30
0.0
 11
261.8865971369
 21
836.0
 31
0.0
  0
LINE
  5
7E
330
73
100
AcDbEntity
  8
0
  6
Continuous
 62
     7
370
     0
100
AcDbLine
 10
263.9999999307
 20
830.9999999407
 30
0.0
 11
266.1134037507
 21
836.0
 31
0.0
  0
LINE
  5
7F
330
73
100
AcDbEntity
  8
0
  6
Continuous
 62
     7
370
     0
100
AcDbLine
 10
634.0
 20
830.9999999407
 30
0.0
 11
631.8865971264
 21
836.0
 31
0.0
  0
LINE
  5
80
330
73
100
AcDbEntity
  8
0
  6
Continuous
 62
     7
370
     0
100
AcDbLine
 10
634.0
 20
830.9999999407
 30
0.0
 11
636.1134038095
 21
836.0
 31
0.0
  0
LINE
  5
81
330
73
100
AcDbEntity
  8
0
  6
Continuous
 62
     7
370
     0
100
AcDbLine
 10
1004.0
 20
830.9999999407
 30
0.0
 11
1001.8865971264
 21
836.0
 31
0.0
  0
LINE
  5
82
330
73
100
AcDbEntity
  8
0
  6
Continuous
 62
     7
370
     0
100
AcDbLine
 10
1004.0
 20
830.9999999407
 30
0.0
 11
1006.1134038095
 21
836.0
 31
0.0
  0
LINE
  5
83
330
73
100
AcDbEntity
  8
0
  6
Continuous
 62
     7
370
     0
100
AcDbLine
 10
1179.0
 20
297.0
 30
0.0
 11
1183.9999314379
 21
299.1133751678
 31
0.0
  0
LINE
  5
84
330
73
100
AcDbEntity
  8
0
  6
Continuous
 62
     7
370
     0
100
AcDbLine
 10
1179.0
 20
297.0
 30
0.0
 11
1183.9999314379
 21
294.8866264869
 31
0.0
  0
LINE
  5
85
330
73
100
AcDbEntity
  8
0
  6
Continuous
 62
     7
370
     0
100
AcDbLine
 10
1179.0
 20
594.0
 30
0.0
 11
1183.9999314379
 21
596.1133751678
 31
0.0
  0
LINE
  5
86
330
73
100
AcDbEntity
  8
0
  6
Continuous
 62
     7
370
     0
100
AcDbLine
 10
1179.0
 20
594.0
 30
0.0
 11
1183.9999314379
 21
591.8866264868
 31
0.0
  0
LINE
  5
87
330
73
100
AcDbEntity
  8
0
  6
Continuous
 62
     7
370
     0
100
AcDbLine
 10
979.0
 20
5.0
 30
0.0
 11
979.0
 21
10.0
 31
0.0
  0
LINE
  5
88
330
73
100
AcDbEntity
  8
0
  6
Continuous
 62
     7
370
     0
100
AcDbLine
 10
769.0
 20
5.0
 30
0.0
 11
769.0
 21
10.0
 31
0.0
  0
LINE
  5
89
330
73
100
AcDbEntity
  8
0
  6
Continuous
 62
     7
370
     0
100
AcDbLine
 10
559.0
 20
5.0
 30
0.0
 11
559.0
 21
10.0
 31
0.0
  0
LINE
  5
8A
330
73
100
AcDbEntity
  8
0
  6
Continuous
 62
     7
370
     0
100
AcDbLine
 10
349.0
 20
5.0
 30
0.0
 11
349.0
 21
10.0
 31
0.0
  0
LINE
  5
8B
330
73
100
AcDbEntity
  8
0
  6
Continuous
 62
     7
370
     0
100
AcDbLine
 10
139.0
 20
5.0
 30
0.0
 11
139.0
 21
10.0
 31
0.0
  0
LINE
  5
8C
330
73
100
AcDbEntity
  8
0
  6
Continuous
 62
     7
370
     0
100
AcDbLine
 10
264.0
 20
10.0
 30
0.0
 11
266.1134033203
 21
5.0
 31
0.0
  0
LINE
  5
8D
330
73
100
AcDbEntity
  8
0
  6
Continuous
 62
     7
370
     0
100
AcDbLine
 10
264.0
 20
10.0
 30
0.0
 11
261.8865966797
 21
5.0
 31
0.0
  0
LINE
  5
8E
330
73
100
AcDbEntity
  8
0
  6
Continuous
 62
     7
370
     0
100
AcDbLine
 10
329.5
 20
10.0
 30
0.0
 11
331.6134033203
 21
5.0
 31
0.0
  0
LINE
  5
8F
330
73
100
AcDbEntity
  8
0
  6
Continuous
 62
     7
370
     0
100
AcDbLine
 10
329.5
 20
10.0
 30
0.0
 11
327.3865966797
 21
5.0
 31
0.0
  0
LINE
  5
90
330
73
100
AcDbEntity
  8
0
  6
Continuous
 62
     7
370
     0
100
AcDbLine
 10
634.0
 20
10.0
 30
0.0
 11
636.1134033203
 21
5.0
 31
0.0
  0
LINE
  5
91
330
73
100
AcDbEntity
  8
0
  6
Continuous
 62
     7
370
     0
100
AcDbLine
 10
634.0
 20
10.0
 30
0.0
 11
631.8865966797
 21
5.0
 31
0.0
  0
LINE
  5
92
330
73
100
AcDbEntity
  8
0
  6
Continuous
 62
     7
370
     0
100
AcDbLine
 10
1004.0
 20
10.0
 30
0.0
 11
1006.1134033203
 21
5.0
 31
0.0
  0
LINE
  5
93
330
73
100
AcDbEntity
  8
0
  6
Continuous
 62
     7
370
     0
100
AcDbLine
 10
1004.0
 20
10.0
 30
0.0
 11
1001.8865966797
 21
5.0
 31
0.0
  0
LINE
  5
94
330
73
100
AcDbEntity
  8
0
  6
Continuous
 62
     7
370
     0
100
AcDbLine
 10
1034.124999986
 20
5.0
 30
0.0
 11
1034.124999986
 21
10.0
 31
0.0
  0
LINE
  5
95
330
73
100
AcDbEntity
  8
0
  6
Continuous
 62
     7
370
     0
100
AcDbLine
 10
985.83333332
 20
5.0
 30
0.0
 11
985.83333332
 21
10.0
 31
0.0
  0
LINE
  5
96
330
73
100
AcDbEntity
  8
0
  6
Continuous
 62
     7
370
     0
100
AcDbLine
 10
937.541666654
 20
5.0
 30
0.0
 11
937.541666654
 21
10.0
 31
0.0
  0
LINE
  5
97
330
73
100
AcDbEntity
  8
0
  6
Continuous
 62
     7
370
     0
100
AcDbLine
 10
889.249999988
 20
5.0
 30
0.0
 11
889.249999988
 21
10.0
 31
0.0
  0
LINE
  5
98
330
73
100
AcDbEntity
  8
0
  6
Continuous
 62
     7
370
     0
100
AcDbLine
 10
840.958333322
 20
5.0
 30
0.0
 11
840.958333322
 21
10.0
 31
0.0
  0
LINE
  5
99
330
73
100
AcDbEntity
  8
0
  6
Continuous
 62
     7
370
     0
100
AcDbLine
 10
792.666666656
 20
5.0
 30
0.0
 11
792.666666656
 21
10.0
 31
0.0
  0
LINE
  5
9A
330
73
100
AcDbEntity
  8
0
  6
Continuous
 62
     7
370
     0
100
AcDbLine
 10
744.37499999
 20
5.0
 30
0.0
 11
744.37499999
 21
10.0
 31
0.0
  0
LINE
  5
9B
330
73
100
AcDbEntity
  8
0
  6
Continuous
 62
     7
370
     0
100
AcDbLine
 10
696.083333324
 20
5.0
 30
0.0
 11
696.083333324
 21
10.0
 31
0.0
  0
LINE
  5
9C
330
73
100
AcDbEntity
  8
0
  6
Continuous
 62
     7
370
     0
100
AcDbLine
 10
647.791666658
 20
5.0
 30
0.0
 11
647.791666658
 21
10.0
 31
0.0
  0
LINE
  5
9D
330
73
100
AcDbEntity
  8
0
  6
Continuous
 62
     7
370
     0
100
AcDbLine
 10
599.499999992
 20
5.0
 30
0.0
 11
599.499999992
 21
10.0
 31
0.0
  0
LINE
  5
9E
330
73
100
AcDbEntity
  8
0
  6
Continuous
 62
     7
370
     0
100
AcDbLine
 10
551.208333326
 20
5.0
 30
0.0
 11
551.208333326
 21
10.0
 31
0.0
  0
LINE
  5
9F
330
73
100
AcDbEntity
  8
0
  6
Continuous
 62
     7
370
     0
100
AcDbLine
 10
502.91666666
 20
5.0
 30
0.0
 11
502.91666666
 21
10.0
 31
0.0
  0
LINE
  5
A0
330
73
100
AcDbEntity
  8
0
  6
Continuous
 62
     7
370
     0
100
AcDbLine
 10
454.624999994
 20
5.0
 30
0.0
 11
454.624999994
 21
10.0
 31
0.0
  0
LINE
  5
A1
330
73
100
AcDbEntity
  8
0
  6
Continuous
 62
     7
370
     0
100
AcDbLine
 10
406.333333328
 20
5.0
 30
0.0
 11
406.333333328
 21
10.0
 31
0.0
  0
LINE
  5
A2
330
73
100
AcDbEntity
  8
0
  6
Continuous
 62
     7
370
     0
100
AcDbLine
 10
358.041666662
 20
5.0
 30
0.0
 11
358.041666662
 21
10.0
 31
0.0
  0
LINE
  5
A3
330
73
100
AcDbEntity
  8
0
  6
Continuous
 62
     7
370
     0
100
AcDbLine
 10
309.749999996
 20
5.0
 30
0.0
 11
309.749999996
 21
10.0
 31
0.0
  0
LINE
  5
A4
330
73
100
AcDbEntity
  8
0
  6
Continuous
 62
     7
370
     0
100
AcDbLine
 10
261.45833333
 20
5.0
 30
0.0
 11
261.45833333
 21
10.0
 31
0.0
  0
LINE
  5
A5
330
73
100
AcDbEntity
  8
0
  6
Continuous
 62
     7
370
     0
100
AcDbLine
 10
213.166666664
 20
5.0
 30
0.0
 11
213.166666664
 21
10.0
 31
0.0
  0
LINE
  5
A6
330
73
100
AcDbEntity
  8
0
  6
Continuous
 62
     7
370
     0
100
AcDbLine
 10
164.874999998
 20
5.0
 30
0.0
 11
164.874999998
 21
10.0
 31
0.0
  0
LINE
  5
A7
330
73
100
AcDbEntity
  8
0
  6
Continuous
 62
     7
370
     0
100
AcDbLine
 10
116.583333332
 20
5.0
 30
0.0
 11
116.583333332
 21
10.0
 31
0.0
  0
LINE
  5
A8
330
73
100
AcDbEntity
  8
0
  6
Continuous
 62
     7
370
     0
100
AcDbLine
 10
68.291666666
 20
5.0
 30
0.0
 11
68.291666666
 21
10.0
 31
0.0
  0
LINE
  5
A9
330
73
100
AcDbEntity
  8
0
  6
Continuous
 62
     7
370
     0
100
AcDbLine
 10
1183.9999314379
 20
55.61111113
 30
0.0
 11
1179.0
 21
55.61111113
 31
0.0
  0
LINE
  5
AA
330
73
100
AcDbEntity
  8
0
  6
Continuous
 62
     7
370
     0
100
AcDbLine
 10
1183.9999314379
 20
101.22222224
 30
0.0
 11
1179.0
 21
101.22222224
 31
0.0
  0
LINE
  5
AB
330
73
100
AcDbEntity
  8
0
  6
Continuous
 62
     7
370
     0
100
AcDbLine
 10
1183.9999314379
 20
146.83333335
 30
0.0
 11
1179.0
 21
146.83333335
 31
0.0
  0
LINE
  5
AC
330
73
100
AcDbEntity
  8
0
  6
Continuous
 62
     7
370
     0
100
AcDbLine
 10
1183.9999314379
 20
192.44444446
 30
0.0
 11
1179.0
 21
192.44444446
 31
0.0
  0
LINE
  5
AD
330
73
100
AcDbEntity
  8
0
  6
Continuous
 62
     7
370
     0
100
AcDbLine
 10
1183.9999314379
 20
238.05555557
 30
0.0
 11
1179.0
 21
238.05555557
 31
0.0
  0
LINE
  5
AE
330
73
100
AcDbEntity
  8
0
  6
Continuous
 62
     7
370
     0
100
AcDbLine
 10
1183.9999314379
 20
283.66666668
 30
0.0
 11
1179.0
 21
283.66666668
 31
0.0
  0
LINE
  5
AF
330
73
100
AcDbEntity
  8
0
  6
Continuous
 62
     7
370
     0
100
AcDbLine
 10
1183.9999314379
 20
329.27777779
 30
0.0
 11
1179.0
 21
329.27777779
 31
0.0
  0
LINE
  5
B0
330
73
100
AcDbEntity
  8
0
  6
Continuous
 62
     7
370
     0
100
AcDbLine
 10
1183.9999314379
 20
374.8888889
 30
0.0
 11
1179.0
 21
374.8888889
 31
0.0
  0
LINE
  5
B1
330
73
100
AcDbEntity
  8
0
  6
Continuous
 62
     7
370
     0
100
AcDbLine
 10
1183.9999314379
 20
420.50000001
 30
0.0
 11
1179.0
 21
420.50000001
 31
0.0
  0
LINE
  5
B2
330
73
100
AcDbEntity
  8
0
  6
Continuous
 62
     7
370
     0
100
AcDbLine
 10
1183.9999314379
 20
466.11111112
 30
0.0
 11
1179.0
 21
466.11111112
 31
0.0
  0
LINE
  5
B3
330
73
100
AcDbEntity
  8
0
  6
Continuous
 62
     7
370
     0
100
AcDbLine
 10
1183.9999314379
 20
511.72222223
 30
0.0
 11
1179.0
 21
511.72222223
 31
0.0
  0
LINE
  5
B4
330
73
100
AcDbEntity
  8
0
  6
Continuous
 62
     7
370
     0
100
AcDbLine
 10
1183.9999314379
 20
557.33333334
 30
0.0
 11
1179.0
 21
557.33333334
 31
0.0
  0
LINE
  5
B5
330
73
100
AcDbEntity
  8
0
  6
Continuous
 62
     7
370
     0
100
AcDbLine
 10
1183.9999314379
 20
602.94444445
 30
0.0
 11
1179.0
 21
602.94444445
 31
0.0
  0
LINE
  5
B6
330
73
100
AcDbEntity
  8
0
  6
Continuous
 62
     7
370
     0
100
AcDbLine
 10
1183.9999314379
 20
648.55555556
 30
0.0
 11
1179.0
 21
648.55555556
 31
0.0
  0
LINE
  5
B7
330
73
100
AcDbEntity
  8
0
  6
Continuous
 62
     7
370
     0
100
AcDbLine
 10
1183.9999314379
 20
694.16666667
 30
0.0
 11
1179.0
 21
694.16666667
 31
0.0
  0
LINE
  5
B8
330
73
100
AcDbEntity
  8
0
  6
Continuous
 62
     7
370
     0
100
AcDbLine
 10
1183.9999314379
 20
739.77777778
 30
0.0
 11
1179.0
 21
739.77777778
 31
0.0
  0
LINE
  5
B9
330
73
100
AcDbEntity
  8
0
  6
Continuous
 62
     7
370
     0
100
AcDbLine
 10
1183.9999314379
 20
785.38888889
 30
0.0
 11
1179.0
 21
785.38888889
 31
0.0
  0
LINE
  5
BA
330
73
100
AcDbEntity
  8
0
  6
Continuous
 62
     7
370
     0
100
AcDbLine
 10
20.0
 20
10.0
 30
0.0
 11
15.0
 21
10.0
 31
0.0
  0
LINE
  5
BB
330
73
100
AcDbEntity
  8
0
  6
Continuous
 62
     7
370
     0
100
AcDbLine
 10
20.0
 20
55.61111113
 30
0.0
 11
15.0
 21
55.61111113
 31
0.0
  0
LINE
  5
BC
330
73
100
AcDbEntity
  8
0
  6
Continuous
 62
     7
370
     0
100
AcDbLine
 10
20.0
 20
101.22222224
 30
0.0
 11
15.0
 21
101.22222224
 31
0.0
  0
LINE
  5
BD
330
73
100
AcDbEntity
  8
0
  6
Continuous
 62
     7
370
     0
100
AcDbLine
 10
20.0
 20
146.83333335
 30
0.0
 11
15.0
 21
146.83333335
 31
0.0
  0
LINE
  5
BE
330
73
100
AcDbEntity
  8
0
  6
Continuous
 62
     7
370
     0
100
AcDbLine
 10
20.0
 20
192.44444446
 30
0.0
 11
15.0
 21
192.44444446
 31
0.0
  0
LINE
  5
BF
330
73
100
AcDbEntity
  8
0
  6
Continuous
 62
     7
370
     0
100
AcDbLine
 10
20.0
 20
238.05555557
 30
0.0
 11
15.0
 21
238.05555557
 31
0.0
  0
LINE
  5
C0
330
73
100
AcDbEntity
  8
0
  6
Continuous
 62
     7
370
     0
100
AcDbLine
 10
20.0
 20
283.66666668
 30
0.0
 11
15.0
 21
283.66666668
 31
0.0
  0
LINE
  5
C1
330
73
100
AcDbEntity
  8
0
  6
Continuous
 62
     7
370
     0
100
AcDbLine
 10
20.0
 20
329.27777779
 30
0.0
 11
15.0
 21
329.27777779
 31
0.0
  0
LINE
  5
C2
330
73
100
AcDbEntity
  8
0
  6
Continuous
 62
     7
370
     0
100
AcDbLine
 10
20.0
 20
374.8888889
 30
0.0
 11
15.0
 21
374.8888889
 31
0.0
  0
LINE
  5
C3
330
73
100
AcDbEntity
  8
0
  6
Continuous
 62
     7
370
     0
100
AcDbLine
 10
20.0
 20
420.50000001
 30
0.0
 11
15.0
 21
420.50000001
 31
0.0
  0
LINE
  5
C4
330
73
100
AcDbEntity
  8
0
  6
Continuous
 62
     7
370
     0
100
AcDbLine
 10
20.0
 20
466.11111112
 30
0.0
 11
15.0
 21
466.11111112
 31
0.0
  0
LINE
  5
C5
330
73
100
AcDbEntity
  8
0
  6
Continuous
 62
     7
370
     0
100
AcDbLine
 10
20.0
 20
511.72222223
 30
0.0
 11
15.0
 21
511.72222223
 31
0.0
  0
LINE
  5
C6
330
73
100
AcDbEntity
  8
0
  6
Continuous
 62
     7
370
     0
100
AcDbLine
 10
20.0
 20
557.33333334
 30
0.0
 11
15.0
 21
557.33333334
 31
0.0
  0
LINE
  5
C7
330
73
100
AcDbEntity
  8
0
  6
Continuous
 62
     7
370
     0
100
AcDbLine
 10
20.0
 20
602.94444445
 30
0.0
 11
15.0
 21
602.94444445
 31
0.0
  0
LINE
  5
C8
330
73
100
AcDbEntity
  8
0
  6
Continuous
 62
     7
370
     0
100
AcDbLine
 10
20.0
 20
648.55555556
 30
0.0
 11
15.0
 21
648.55555556
 31
0.0
  0
LINE
  5
C9
330
73
100
AcDbEntity
  8
0
  6
Continuous
 62
     7
370
     0
100
AcDbLine
 10
20.0
 20
694.16666667
 30
0.0
 11
15.0
 21
694.16666667
 31
0.0
  0
LINE
  5
CA
330
73
100
AcDbEntity
  8
0
  6
Continuous
 62
     7
370
     0
100
AcDbLine
 10
20.0
 20
739.77777778
 30
0.0
 11
15.0
 21
739.77777778
 31
0.0
  0
LINE
  5
CB
330
73
100
AcDbEntity
  8
0
  6
Continuous
 62
     7
370
     0
100
AcDbLine
 10
1179.0
 20
830.9999999407
 30
0.0
 11
1179.0
 21
836.0
 31
0.0
  0
LINE
  5
CC
330
73
100
AcDbEntity
  8
0
  6
Continuous
 62
     7
370
     0
100
AcDbLine
 10
1130.708333318
 20
830.9999999407
 30
0.0
 11
1130.708333318
 21
836.0
 31
0.0
  0
LINE
  5
CD
330
73
100
AcDbEntity
  8
0
  6
Continuous
 62
     7
370
     0
100
AcDbLine
 10
1082.416666652
 20
830.9999999407
 30
0.0
 11
1082.416666652
 21
836.0
 31
0.0
  0
LINE
  5
CE
330
73
100
AcDbEntity
  8
0
  6
Continuous
 62
     7
370
     0
100
AcDbLine
 10
1034.124999986
 20
830.9999999407
 30
0.0
 11
1034.124999986
 21
836.0
 31
0.0
  0
LINE
  5
CF
330
73
100
AcDbEntity
  8
0
  6
Continuous
 62
     7
370
     0
100
AcDbLine
 10
985.83333332
 20
830.9999999407
 30
0.0
 11
985.83333332
 21
836.0
 31
0.0
  0
LINE
  5
D0
330
73
100
AcDbEntity
  8
0
  6
Continuous
 62
     7
370
     0
100
AcDbLine
 10
937.541666654
 20
830.9999999407
 30
0.0
 11
937.541666654
 21
836.0
 31
0.0
  0
LINE
  5
D1
330
73
100
AcDbEntity
  8
0
  6
Continuous
 62
     7
370
     0
100
AcDbLine
 10
889.249999988
 20
830.9999999407
 30
0.0
 11
889.249999988
 21
836.0
 31
0.0
  0
LINE
  5
D2
330
73
100
AcDbEntity
  8
0
  6
Continuous
 62
     7
370
     0
100
AcDbLine
 10
840.958333322
 20
830.9999999407
 30
0.0
 11
840.958333322
 21
836.0
 31
0.0
  0
LINE
  5
D3
330
73
100
AcDbEntity
  8
0
  6
Continuous
 62
     7
370
     0
100
AcDbLine
 10
792.666666656
 20
830.9999999407
 30
0.0
 11
792.666666656
 21
836.0
 31
0.0
  0
LINE
  5
D4
330
73
100
AcDbEntity
  8
0
  6
Continuous
 62
     7
370
     0
100
AcDbLine
 10
744.37499999
 20
830.9999999407
 30
0.0
 11
744.37499999
 21
836.0
 31
0.0
  0
LINE
  5
D5
330
73
100
AcDbEntity
  8
0
  6
Continuous
 62
     7
370
     0
100
AcDbLine
 10
696.083333324
 20
830.9999999407
 30
0.0
 11
696.083333324
 21
836.0
 31
0.0
  0
LINE
  5
D6
330
73
100
AcDbEntity
  8
0
  6
Continuous
 62
     7
370
     0
100
AcDbLine
 10
647.791666658
 20
830.9999999407
 30
0.0
 11
647.791666658
 21
836.0
 31
0.0
  0
LINE
  5
D7
330
73
100
AcDbEntity
  8
0
  6
Continuous
 62
     7
370
     0
100
AcDbLine
 10
599.499999992
 20
830.9999999407
 30
0.0
 11
599.499999992
 21
836.0
 31
0.0
  0
LINE
  5
D8
330
73
100
AcDbEntity
  8
0
  6
Continuous
 62
     7
370
     0
100
AcDbLine
 10
551.208333326
 20
830.9999999407
 30
0.0
 11
551.208333326
 21
836.0
 31
0.0
  0
LINE
  5
D9
330
73
100
AcDbEntity
  8
0
  6
Continuous
 62
     7
370
     0
100
AcDbLine
 10
502.91666666
 20
830.9999999407
 30
0.0
 11
502.91666666
 21
836.0
 31
0.0
  0
LINE
  5
DA
330
73
100
AcDbEntity
  8
0
  6
Continuous
 62
     7
370
     0
100
AcDbLine
 10
454.624999994
 20
830.9999999407
 30
0.0
 11
454.624999994
 21
836.0
 31
0.0
  0
LINE
  5
DB
330
73
100
AcDbEntity
  8
0
  6
Continuous
 62
     7
370
     0
100
AcDbLine
 10
406.333333328
 20
830.9999999407
 30
0.0
 11
406.333333328
 21
836.0
 31
0.0
  0
LINE
  5
DC
330
73
100
AcDbEntity
  8
0
  6
Continuous
 62
     7
370
     0
100
AcDbLine
 10
358.041666662
 20
830.9999999407
 30
0.0
 11
358.041666662
 21
836.0
 31
0.0
  0
LINE
  5
DD
330
73
100
AcDbEntity
  8
0
  6
Continuous
 62
     7
370
     0
100
AcDbLine
 10
309.749999996
 20
830.9999999407
 30
0.0
 11
309.749999996
 21
836.0
 31
0.0
  0
LINE
  5
DE
330
73
100
AcDbEntity
  8
0
  6
Continuous
 62
     7
370
     0
100
AcDbLine
 10
261.45833333
 20
830.9999999407
 30
0.0
 11
261.45833333
 21
836.0
 31
0.0
  0
LINE
  5
DF
330
73
100
AcDbEntity
  8
0
  6
Continuous
 62
     7
370
     0
100
AcDbLine
 10
213.166666664
 20
830.9999999407
 30
0.0
 11
213.166666664
 21
836.0
 31
0.0
  0
LINE
  5
E0
330
73
100
AcDbEntity
  8
0
  6
Continuous
 62
     7
370
     0
100
AcDbLine
 10
164.874999998
 20
830.9999999407
 30
0.0
 11
164.874999998
 21
836.0
 31
0.0
  0
LINE
  5
E1
330
73
100
AcDbEntity
  8
0
  6
Continuous
 62
     7
370
     0
100
AcDbLine
 10
116.583333332
 20
830.9999999407
 30
0.0
 11
116.583333332
 21
836.0
 31
0.0
  0
LINE
  5
E2
330
73
100
AcDbEntity
  8
0
  6
Continuous
 62
     7
370
     0
100
AcDbLine
 10
1169.0
 20
10.0
 30
0.0
 11
1169.0
 21
5.0
 31
0.0
  0
LINE
  5
E3
330
73
100
AcDbEntity
  8
0
  6
Continuous
 62
     7
370
     0
100
AcDbLine
 10
1159.0
 20
10.0
 30
0.0
 11
1159.0
 21
5.0
 31
0.0
  0
LINE
  5
E4
330
73
100
AcDbEntity
  8
0
  6
Continuous
 62
     7
370
     0
100
AcDbLine
 10
1149.0
 20
10.0
 30
0.0
 11
1149.0
 21
5.0
 31
0.0
  0
LINE
  5
E5
330
73
100
AcDbEntity
  8
0
  6
Continuous
 62
     7
370
     0
100
AcDbLine
 10
1139.0
 20
10.0
 30
0.0
 11
1139.0
 21
5.0
 31
0.0
  0
LINE
  5
E6
330
73
100
AcDbEntity
  8
0
  6
Continuous
 62
     7
370
     0
100
AcDbLine
 10
1129.0
 20
10.0
 30
0.0
 11
1129.0
 21
5.0
 31
0.0
  0
LINE
  5
E7
330
73
100
AcDbEntity
  8
0
  6
Continuous
 62
     7
370
     0
100
AcDbLine
 10
1119.0
 20
10.0
 30
0.0
 11
1119.0
 21
5.0
 31
0.0
  0
LINE
  5
E8
330
73
100
AcDbEntity
  8
0
  6
Continuous
 62
     7
370
     0
100
AcDbLine
 10
1109.0
 20
10.0
 30
0.0
 11
1109.0
 21
5.0
 31
0.0
  0
LINE
  5
E9
330
73
100
AcDbEntity
  8
0
  6
Continuous
 62
     7
370
     0
100
AcDbLine
 10
1099.0
 20
10.0
 30
0.0
 11
1099.0
 21
5.0
 31
0.0
  0
LINE
  5
EA
330
73
100
AcDbEntity
  8
0
  6
Continuous
 62
     7
370
     0
100
AcDbLine
 10
1089.0
 20
10.0
 30
0.0
 11
1089.0
 21
5.0
 31
0.0
  0
LINE
  5
EB
330
73
100
AcDbEntity
  8
0
  6
Continuous
 62
     7
370
     0
100
AcDbLine
 10
1079.0
 20
10.0
 30
0.0
 11
1079.0
 21
5.0
 31
0.0
  0
LINE
  5
EC
330
73
100
AcDbEntity
  8
0
  6
Continuous
 62
     7
370
     0
100
AcDbLine
 10
20.0
 20
785.38888889
 30
0.0
 11
15.0
 21
785.38888889
 31
0.0
  0
LINE
  5
ED
330
73
100
AcDbEntity
  8
0
  6
Continuous
 62
     7
370
     0
100
AcDbLine
 10
68.291666666
 20
830.9999999407
 30
0.0
 11
68.291666666
 21
836.0
 31
0.0
  0
LINE
  5
EE
330
73
100
AcDbEntity
  8
0
  6
Continuous
 62
     7
370
     0
100
AcDbLine
 10
1183.9999314379
 20
5.0
 30
0.0
 11
1183.9999314379
 21
836.0
 31
0.0
  0
LINE
  5
EF
330
73
100
AcDbEntity
  8
0
  6
Continuous
 62
     7
370
     0
100
AcDbLine
 10
1183.9999314379
 20
5.0
 30
0.0
 11
15.0
 21
5.0
 31
0.0
  0
LINE
  5
F0
330
73
100
AcDbEntity
  8
0
  6
Continuous
 62
     7
370
     0
100
AcDbLine
 10
15.0
 20
836.0
 30
0.0
 11
15.0
 21
5.0
 31
0.0
  0
LINE
  5
F1
330
73
100
AcDbEntity
  8
0
  6
Continuous
 62
     7
370
     0
100
AcDbLine
 10
1179.0
 20
830.9999999407
 30
0.0
 11
1179.0
 21
836.0
 31
0.0
  0
LINE
  5
F2
330
73
100
AcDbEntity
  8
0
  6
Continuous
 62
     7
370
     0
100
AcDbLine
 10
1179.0
 20
10.0
 30
0.0
 11
1179.0
 21
830.9999999407
 31
0.0
  0
LINE
  5
F3
330
73
100
AcDbEntity
  8
0
  6
Continuous
 62
     7
370
     0
100
AcDbLine
 10
1179.0
 20
5.0
 30
0.0
 11
1179.0
 21
10.0
 31
0.0
  0
LINE
  5
F4
330
73
100
AcDbEntity
  8
0
  6
Continuous
 62
     7
370
     0
100
AcDbLine
 10
20.0
 20
10.0
 30
0.0
 11
15.0
 21
10.0
 31
0.0
  0
LINE
  5
F5
330
73
100
AcDbEntity
  8
0
  6
Continuous
 62
     7
370
     0
100
AcDbLine
 10
1179.0
 20
10.0
 30
0.0
 11
20.0
 21
10.0
 31
0.0
  0
LINE
  5
F6
330
73
100
AcDbEntity
  8
0
  6
Continuous
 62
     7
370
     0
100
AcDbLine
 10
1183.9999314379
 20
10.0
 30
0.0
 11
1179.0
 21
10.0
 31
0.0
  0
LINE
  5
F7
330
73
100
AcDbEntity
  8
0
  6
Continuous
 62
     7
370
     0
100
AcDbLine
 10
20.0
 20
10.0
 30
0.0
 11
20.0
 21
5.0
 31
0.0
  0
LINE
  5
F8
330
73
100
AcDbEntity
  8
0
  6
Continuous
 62
     7
370
     0
100
AcDbLine
 10
20.0
 20
830.9999999407
 30
0.0
 11
20.0
 21
10.0
 31
0.0
  0
LINE
  5
F9
330
73
100
AcDbEntity
  8
0
  6
Continuous
 62
     7
370
     0
100
AcDbLine
 10
20.0
 20
836.0
 30
0.0
 11
20.0
 21
830.9999999407
 31
0.0
  0
LINE
  5
FA
330
73
100
AcDbEntity
  8
0
  6
Continuous
 62
     7
370
     0
100
AcDbLine
 10
1179.0
 20
830.9999999407
 30
0.0
 11
1183.9999314379
 21
830.9999999407
 31
0.0
  0
LINE
  5
FB
330
73
100
AcDbEntity
  8
0
  6
Continuous
 62
     7
370
     0
100
AcDbLine
 10
20.0
 20
830.9999999407
 30
0.0
 11
1179.0
 21
830.9999999407
 31
0.0
  0
LINE
  5
FC
330
73
100
AcDbEntity
  8
0
  6
Continuous
 62
     7
370
     0
100
AcDbLine
 10
15.0
 20
830.9999999407
 30
0.0
 11
20.0
 21
830.9999999407
 31
0.0
  0
LINE
  5
FD
330
73
100
AcDbEntity
  8
0
  6
Continuous
 62
     7
370
     0
100
AcDbLine
 10
15.0
 20
836.0
 30
0.0
 11
1183.9999314379
 21
836.0
 31
0.0
  0
LINE
  5
FE
330
73
100
AcDbEntity
  8
0
  6
Continuous
 62
     7
370
     0
100
AcDbLine
 10
0.0
 20
841.0
 30
0.0
 11
1189.0
 21
841.0
 31
0.0
  0
LINE
  5
FF
330
73
100
AcDbEntity
  8
0
  6
Continuous
 62
     7
370
     0
100
AcDbLine
 10
1189.0
 20
0.0
 30
0.0
 11
1189.0
 21
841.0
 31
0.0
  0
LINE
  5
100
330
73
100
AcDbEntity
  8
0
  6
Continuous
 62
     7
370
     0
100
AcDbLine
 10
1189.0
 20
0.0
 30
0.0
 11
0.0
 21
0.0
 31
0.0
  0
LINE
  5
101
330
73
100
AcDbEntity
  8
0
  6
Continuous
 62
     7
370
     0
100
AcDbLine
 10
0.0
 20
841.0
 30
0.0
 11
0.0
 21
0.0
 31
0.0
  0
MTEXT
  5
103
330
73
100
AcDbEntity
  8
0
  6
Continuous
 62
     7
370
     0
100
AcDbMText
 10
43.2001861591
 20
834.6449155598
 30
0.0
 40
3.0
 41
0.0
 71
     1
 72
     1
  1
1
  7
SLDTEXTSTYLE0
 73
     1
 44
1.0
  0
MTEXT
  5
104
330
73
100
AcDbEntity
  8
0
  6
Continuous
 62
     7
370
     0
100
AcDbMText
 10
16.3587006522
 20
809.3393600048
 30
0.0
 40
3.0
 41
0.0
 71
     1
 72
     1
  1
A
  7
SLDTEXTSTYLE0
 73
     1
 44
1.0
  0
MTEXT
  5
105
330
73
100
AcDbEntity
  8
0
  6
Continuous
 62
     7
370
     0
100
AcDbMText
 10
91.4918528251
 20
834.6449155598
 30
0.0
 40
3.0
 41
0.0
 71
     1
 72
     1
  1
2
  7
SLDTEXTSTYLE0
 73
     1
 44
1.0
  0
MTEXT
  5
106
330
73
100
AcDbEntity
  8
0
  6
Continuous
 62
     7
370
     0
100
AcDbMText
 10
139.7835194911
 20
834.6449155598
 30
0.0
 40
3.0
 41
0.0
 71
     1
 72
     1
  1
3
  7
SLDTEXTSTYLE0
 73
     1
 44
1.0
  0
MTEXT
  5
107
330
73
100
AcDbEntity
  8
0
  6
Continuous
 62
     7
370
     0
100
AcDbMText
 10
188.0751861571
 20
834.6449155598
 30
0.0
 40
3.0
 41
0.0
 71
     1
 72
     1
  1
4
  7
SLDTEXTSTYLE0
 73
     1
 44
1.0
  0
MTEXT
  5
108
330
73
100
AcDbEntity
  8
0
  6
Continuous
 62
     7
370
     0
100
AcDbMText
 10
236.3668528231
 20
834.6449155598
 30
0.0
 40
3.0
 41
0.0
 71
     1
 72
     1
  1
5
  7
SLDTEXTSTYLE0
 73
     1
 44
1.0
  0
MTEXT
  5
109
330
73
100
AcDbEntity
  8
0
  6
Continuous
 62
     7
370
     0
100
AcDbMText
 10
284.6585194891
 20
834.6449155598
 30
0.0
 40
3.0
 41
0.0
 71
     1
 72
     1
  1
6
  7
SLDTEXTSTYLE0
 73
     1
 44
1.0
  0
MTEXT
  5
10A
330
73
100
AcDbEntity
  8
0
  6
Continuous
 62
     7
370
     0
100
AcDbMText
 10
332.9501861551
 20
834.6449155598
 30
0.0
 40
3.0
 41
0.0
 71
     1
 72
     1
  1
7
  7
SLDTEXTSTYLE0
 73
     1
 44
1.0
  0
MTEXT
  5
10B
330
73
100
AcDbEntity
  8
0
  6
Continuous
 62
     7
370
     0
100
AcDbMText
 10
381.2418528211
 20
834.6449155598
 30
0.0
 40
3.0
 41
0.0
 71
     1
 72
     1
  1
8
  7
SLDTEXTSTYLE0
 73
     1
 44
1.0
  0
MTEXT
  5
10C
330
73
100
AcDbEntity
  8
0
  6
Continuous
 62
     7
370
     0
100
AcDbMText
 10
429.5335194871
 20
834.6449155598
 30
0.0
 40
3.0
 41
0.0
 71
     1
 72
     1
  1
9
  7
SLDTEXTSTYLE0
 73
     1
 44
1.0
  0
MTEXT
  5
10D
330
73
100
AcDbEntity
  8
0
  6
Continuous
 62
     7
370
     0
100
AcDbMText
 10
476.8795339792
 20
834.6449155598
 30
0.0
 40
3.0
 41
0.0
 71
     1
 72
     1
  1
10
  7
SLDTEXTSTYLE0
 73
     1
 44
1.0
  0
MTEXT
  5
10E
330
73
100
AcDbEntity
  8
0
  6
Continuous
 62
     7
370
     0
100
AcDbMText
 10
525.1712006452
 20
834.6449155598
 30
0.0
 40
3.0
 41
0.0
 71
     1
 72
     1
  1
11
  7
SLDTEXTSTYLE0
 73
     1
 44
1.0
  0
MTEXT
  5
10F
330
73
100
AcDbEntity
  8
0
  6
Continuous
 62
     7
370
     0
100
AcDbMText
 10
573.4628673112
 20
834.6449155598
 30
0.0
 40
3.0
 41
0.0
 71
     1
 72
     1
  1
12
  7
SLDTEXTSTYLE0
 73
     1
 44
1.0
  0
MTEXT
  5
110
330
73
100
AcDbEntity
  8
0
  6
Continuous
 62
     7
370
     0
100
AcDbMText
 10
621.7545339772
 20
834.6449155598
 30
0.0
 40
3.0
 41
0.0
 71
     1
 72
     1
  1
13
  7
SLDTEXTSTYLE0
 73
     1
 44
1.0
  0
MTEXT
  5
111
330
73
100
AcDbEntity
  8
0
  6
Continuous
 62
     7
370
     0
100
AcDbMText
 10
670.0462006432
 20
834.6449155598
 30
0.0
 40
3.0
 41
0.0
 71
     1
 72
     1
  1
14
  7
SLDTEXTSTYLE0
 73
     1
 44
1.0
  0
MTEXT
  5
112
330
73
100
AcDbEntity
  8
0
  6
Continuous
 62
     7
370
     0
100
AcDbMText
 10
718.3378673092
 20
834.6449155598
 30
0.0
 40
3.0
 41
0.0
 71
     1
 72
     1
  1
15
  7
SLDTEXTSTYLE0
 73
     1
 44
1.0
  0
MTEXT
  5
113
330
73
100
AcDbEntity
  8
0
  6
Continuous
 62
     7
370
     0
100
AcDbMText
 10
761.6295339752
 20
834.6449155598
 30
0.0
 40
3.0
 41
0.0
 71
     1
 72
     1
  1
16
  7
SLDTEXTSTYLE0
 73
     1
 44
1.0
  0
MTEXT
  5
114
330
73
100
AcDbEntity
  8
0
  6
Continuous
 62
     7
370
     0
100
AcDbMText
 10
814.9212006412
 20
834.6449155598
 30
0.0
 40
3.0
 41
0.0
 71
     1
 72
     1
  1
17
  7
SLDTEXTSTYLE0
 73
     1
 44
1.0
  0
MTEXT
  5
115
330
73
100
AcDbEntity
  8
0
  6
Continuous
 62
     7
370
     0
100
AcDbMText
 10
863.2128673072
 20
834.6449155598
 30
0.0
 40
3.0
 41
0.0
 71
     1
 72
     1
  1
18
  7
SLDTEXTSTYLE0
 73
     1
 44
1.0
  0
MTEXT
  5
116
330
73
100
AcDbEntity
  8
0
  6
Continuous
 62
     7
370
     0
100
AcDbMText
 10
911.5045339732
 20
834.6449155598
 30
0.0
 40
3.0
 41
0.0
 71
     1
 72
     1
  1
19
  7
SLDTEXTSTYLE0
 73
     1
 44
1.0
  0
MTEXT
  5
117
330
73
100
AcDbEntity
  8
0
  6
Continuous
 62
     7
370
     0
100
AcDbMText
 10
959.7962006392
 20
834.6449155598
 30
0.0
 40
3.0
 41
0.0
 71
     1
 72
     1
  1
20
  7
SLDTEXTSTYLE0
 73
     1
 44
1.0
  0
MTEXT
  5
118
330
73
100
AcDbEntity
  8
0
  6
Continuous
 62
     7
370
     0
100
AcDbMText
 10
1008.0878673052
 20
834.6449155598
 30
0.0
 40
3.0
 41
0.0
 71
     1
 72
     1
  1
21
  7
SLDTEXTSTYLE0
 73
     1
 44
1.0
  0
MTEXT
  5
119
330
73
100
AcDbEntity
  8
0
  6
Continuous
 62
     7
370
     0
100
AcDbMText
 10
1056.3795339712
 20
834.6449155598
 30
0.0
 40
3.0
 41
0.0
 71
     1
 72
     1
  1
22
  7
SLDTEXTSTYLE0
 73
     1
 44
1.0
  0
MTEXT
  5
11A
330
73
100
AcDbEntity
  8
0
  6
Continuous
 62
     7
370
     0
100
AcDbMText
 10
1104.6712006372
 20
834.6449155598
 30
0.0
 40
3.0
 41
0.0
 71
     1
 72
     1
  1
23
  7
SLDTEXTSTYLE0
 73
     1
 44
1.0
  0
MTEXT
  5
11B
330
73
100
AcDbEntity
  8
0
  6
Continuous
 62
     7
370
     0
100
AcDbMText
 10
1152.9628673032
 20
834.6449155598
 30
0.0
 40
3.0
 41
0.0
 71
     1
 72
     1
  1
24
  7
SLDTEXTSTYLE0
 73
     1
 44
1.0
  0
MTEXT
  5
11C
330
73
100
AcDbEntity
  8
0
  6
Continuous
 62
     7
370
     0
100
AcDbMText
 10
16.3587006522
 20
763.7282488948
 30
0.0
 40
3.0
 41
0.0
 71
     1
 72
     1
  1
B
  7
SLDTEXTSTYLE0
 73
     1
 44
1.0
  0
MTEXT
  5
11D
330
73
100
AcDbEntity
  8
0
  6
Continuous
 62
     7
370
     0
100
AcDbMText
 10
16.2934832609
 20
718.1171377848
 30
0.0
 40
3.0
 41
0.0
 71
     1
 72
     1
  1
C
  7
SLDTEXTSTYLE0
 73
     1
 44
1.0
  0
MTEXT
  5
11E
330
73
100
AcDbEntity
  8
0
  6
Continuous
 62
     7
370
     0
100
AcDbMText
 10
16.2934832609
 20
672.5060266748
 30
0.0
 40
3.0
 41
0.0
 71
     1
 72
     1
  1
D
  7
SLDTEXTSTYLE0
 73
     1
 44
1.0
  0
MTEXT
  5
11F
330
73
100
AcDbEntity
  8
0
  6
Continuous
 62
     7
370
     0
100
AcDbMText
 10
16.3587006522
 20
626.8949155648
 30
0.0
 40
3.0
 41
0.0
 71
     1
 72
     1
  1
E
  7
SLDTEXTSTYLE0
 73
     1
 44
1.0
  0
MTEXT
  5
120
330
73
100
AcDbEntity
  8
0
  6
Continuous
 62
     7
370
     0
100
AcDbMText
 10
16.4565267391
 20
581.2838044548
 30
0.0
 40
3.0
 41
0.0
 71
     1
 72
     1
  1
F
  7
SLDTEXTSTYLE0
 73
     1
 44
1.0
  0
MTEXT
  5
121
330
73
100
AcDbEntity
  8
0
  6
Continuous
 62
     7
370
     0
100
AcDbMText
 10
16.1956571739
 20
535.6726933448
 30
0.0
 40
3.0
 41
0.0
 71
     1
 72
     1
  1
G
  7
SLDTEXTSTYLE0
 73
     1
 44
1.0
  0
MTEXT
  5
122
330
73
100
AcDbEntity
  8
0
  6
Continuous
 62
     7
370
     0
100
AcDbMText
 10
16.2934832609
 20
490.0615822348
 30
0.0
 40
3.0
 41
0.0
 71
     1
 72
     1
  1
H
  7
SLDTEXTSTYLE0
 73
     1
 44
1.0
  0
MTEXT
  5
123
330
73
100
AcDbEntity
  8
0
  6
Continuous
 62
     7
370
     0
100
AcDbMText
 10
17.0434832609
 20
444.4504711248
 30
0.0
 40
3.0
 41
0.0
 71
     1
 72
     1
  1
I
  7
SLDTEXTSTYLE0
 73
     1
 44
1.0
  0
MTEXT
  5
124
330
73
100
AcDbEntity
  8
0
  6
Continuous
 62
     7
370
     0
100
AcDbMText
 10
16.652178913
 20
398.8393600148
 30
0.0
 40
3.0
 41
0.0
 71
     1
 72
     1
  1
J
  7
SLDTEXTSTYLE0
 73
     1
 44
1.0
  0
MTEXT
  5
125
330
73
100
AcDbEntity
  8
0
  6
Continuous
 62
     7
370
     0
100
AcDbMText
 10
16.3587006522
 20
353.2282489048
 30
0.0
 40
3.0
 41
0.0
 71
     1
 72
     1
  1
K
  7
SLDTEXTSTYLE0
 73
     1
 44
1.0
  0
MTEXT
  5
126
330
73
100
AcDbEntity
  8
0
  6
Continuous
 62
     7
370
     0
100
AcDbMText
 10
16.5543528261
 20
307.6171377948
 30
0.0
 40
3.0
 41
0.0
 71
     1
 72
     1
  1
L
  7
SLDTEXTSTYLE0
 73
     1
 44
1.0
  0
MTEXT
  5
127
330
73
100
AcDbEntity
  8
0
  6
Continuous
 62
     7
370
     0
100
AcDbMText
 10
16.097831087
 20
262.0060266848
 30
0.0
 40
3.0
 41
0.0
 71
     1
 72
     1
  1
M
  7
SLDTEXTSTYLE0
 73
     1
 44
1.0
  0
MTEXT
  5
128
330
73
100
AcDbEntity
  8
0
  6
Continuous
 62
     7
370
     0
100
AcDbMText
 10
16.2934832609
 20
216.3949155748
 30
0.0
 40
3.0
 41
0.0
 71
     1
 72
     1
  1
N
  7
SLDTEXTSTYLE0
 73
     1
 44
1.0
  0
MTEXT
  5
129
330
73
100
AcDbEntity
  8
0
  6
Continuous
 62
     7
370
     0
100
AcDbMText
 10
16.1956571739
 20
170.7838044648
 30
0.0
 40
3.0
 41
0.0
 71
     1
 72
     1
  1
O
  7
SLDTEXTSTYLE0
 73
     1
 44
1.0
  0
MTEXT
  5
12A
330
73
100
AcDbEntity
  8
0
  6
Continuous
 62
     7
370
     0
100
AcDbMText
 10
16.3587006522
 20
125.1726933548
 30
0.0
 40
3.0
 41
0.0
 71
     1
 72
     1
  1
P
  7
SLDTEXTSTYLE0
 73
     1
 44
1.0
  0
MTEXT
  5
12B
330
73
100
AcDbEntity
  8
0
  6
Continuous
 62
     7
370
     0
100
AcDbMText
 10
16.1956571739
 20
79.5615822448
 30
0.0
 40
3.0
 41
0.0
 71
     1
 72
     1
  1
Q
  7
SLDTEXTSTYLE0
 73
     1
 44
1.0
  0
MTEXT
  5
12C
330
73
100
AcDbEntity
  8
0
  6
Continuous
 62
     7
370
     0
100
AcDbMText
 10
16.2934832609
 20
33.9504711348
 30
0.0
 40
3.0
 41
0.0
 71
     1
 72
     1
  1
R
  7
SLDTEXTSTYLE0
 73
     1
 44
1.0
  0
MTEXT
  5
12D
330
73
100
AcDbEntity
  8
0
  6
Continuous
 62
     7
370
     0
100
AcDbMText
 10
1180.3587006522
 20
809.3393600048
 30
0.0
 40
3.0
 41
0.0
 71
     1
 72
     1
  1
A
  7
SLDTEXTSTYLE0
 73
     1
 44
1.0
  0
MTEXT
  5
12E
330
73
100
AcDbEntity
  8
0
  6
Continuous
 62
     7
370
     0
100
AcDbMText
 10
1180.3587006522
 20
763.7282488948
 30
0.0
 40
3.0
 41
0.0
 71
     1
 72
     1
  1
B
  7
SLDTEXTSTYLE0
 73
     1
 44
1.0
  0
MTEXT
  5
12F
330
73
100
AcDbEntity
  8
0
  6
Continuous
 62
     7
370
     0
100
AcDbMText
 10
1180.2934832609
 20
718.1171377848
 30
0.0
 40
3.0
 41
0.0
 71
     1
 72
     1
  1
C
  7
SLDTEXTSTYLE0
 73
     1
 44
1.0
  0
MTEXT
  5
130
330
73
100
AcDbEntity
  8
0
  6
Continuous
 62
     7
370
     0
100
AcDbMText
 10
1180.2934832609
 20
672.5060266748
 30
0.0
 40
3.0
 41
0.0
 71
     1
 72
     1
  1
D
  7
SLDTEXTSTYLE0
 73
     1
 44
1.0
  0
MTEXT
  5
131
330
73
100
AcDbEntity
  8
0
  6
Continuous
 62
     7
370
     0
100
AcDbMText
 10
1180.3587006522
 20
626.8949155648
 30
0.0
 40
3.0
 41
0.0
 71
     1
 72
     1
  1
E
  7
SLDTEXTSTYLE0
 73
     1
 44
1.0
  0
MTEXT
  5
132
330
73
100
AcDbEntity
  8
0
  6
Continuous
 62
     7
370
     0
100
AcDbMText
 10
1180.4565267391
 20
581.2838044548
 30
0.0
 40
3.0
 41
0.0
 71
     1
 72
     1
  1
F
  7
SLDTEXTSTYLE0
 73
     1
 44
1.0
  0
MTEXT
  5
133
330
73
100
AcDbEntity
  8
0
  6
Continuous
 62
     7
370
     0
100
AcDbMText
 10
1180.1956571739
 20
535.6726933448
 30
0.0
 40
3.0
 41
0.0
 71
     1
 72
     1
  1
G
  7
SLDTEXTSTYLE0
 73
     1
 44
1.0
  0
MTEXT
  5
134
330
73
100
AcDbEntity
  8
0
  6
Continuous
 62
     7
370
     0
100
AcDbMText
 10
1180.2934832609
 20
490.0615822348
 30
0.0
 40
3.0
 41
0.0
 71
     1
 72
     1
  1
H
  7
SLDTEXTSTYLE0
 73
     1
 44
1.0
  0
MTEXT
  5
135
330
73
100
AcDbEntity
  8
0
  6
Continuous
 62
     7
370
     0
100
AcDbMText
 10
1181.0434832609
 20
444.4504711248
 30
0.0
 40
3.0
 41
0.0
 71
     1
 72
     1
  1
I
  7
SLDTEXTSTYLE0
 73
     1
 44
1.0
  0
MTEXT
  5
136
330
73
100
AcDbEntity
  8
0
  6
Continuous
 62
     7
370
     0
100
AcDbMText
 10
1180.652178913
 20
398.8393600148
 30
0.0
 40
3.0
 41
0.0
 71
     1
 72
     1
  1
J
  7
SLDTEXTSTYLE0
 73
     1
 44
1.0
  0
MTEXT
  5
137
330
73
100
AcDbEntity
  8
0
  6
Continuous
 62
     7
370
     0
100
AcDbMText
 10
1180.3587006522
 20
353.2282489048
 30
0.0
 40
3.0
 41
0.0
 71
     1
 72
     1
  1
K
  7
SLDTEXTSTYLE0
 73
     1
 44
1.0
  0
MTEXT
  5
138
330
73
100
AcDbEntity
  8
0
  6
Continuous
 62
     7
370
     0
100
AcDbMText
 10
1180.5543528261
 20
307.6171377948
 30
0.0
 40
3.0
 41
0.0
 71
     1
 72
     1
  1
L
  7
SLDTEXTSTYLE0
 73
     1
 44
1.0
  0
MTEXT
  5
139
330
73
100
AcDbEntity
  8
0
  6
Continuous
 62
     7
370
     0
100
AcDbMText
 10
1180.097831087
 20
262.0060266848
 30
0.0
 40
3.0
 41
0.0
 71
     1
 72
     1
  1
M
  7
SLDTEXTSTYLE0
 73
     1
 44
1.0
  0
MTEXT
  5
13A
330
73
100
AcDbEntity
  8
0
  6
Continuous
 62
     7
370
     0
100
AcDbMText
 10
1180.2934832609
 20
216.3949155748
 30
0.0
 40
3.0
 41
0.0
 71
     1
 72
     1
  1
N
  7
SLDTEXTSTYLE0
 73
     1
 44
1.0
  0
MTEXT
  5
13B
330
73
100
AcDbEntity
  8
0
  6
Continuous
 62
     7
370
     0
100
AcDbMText
 10
1180.1956571739
 20
170.7838044648
 30
0.0
 40
3.0
 41
0.0
 71
     1
 72
     1
  1
O
  7
SLDTEXTSTYLE0
 73
     1
 44
1.0
  0
MTEXT
  5
13C
330
73
100
AcDbEntity
  8
0
  6
Continuous
 62
     7
370
     0
100
AcDbMText
 10
1180.3587006522
 20
125.1726933548
 30
0.0
 40
3.0
 41
0.0
 71
     1
 72
     1
  1
P
  7
SLDTEXTSTYLE0
 73
     1
 44
1.0
  0
MTEXT
  5
13D
330
73
100
AcDbEntity
  8
0
  6
Continuous
 62
     7
370
     0
100
AcDbMText
 10
1180.1956571739
 20
79.5615822448
 30
0.0
 40
3.0
 41
0.0
 71
     1
 72
     1
  1
Q
  7
SLDTEXTSTYLE0
 73
     1
 44
1.0
  0
MTEXT
  5
13E
330
73
100
AcDbEntity
  8
0
  6
Continuous
 62
     7
370
     0
100
AcDbMText
 10
1180.2934832609
 20
33.9504711348
 30
0.0
 40
3.0
 41
0.0
 71
     1
 72
     1
  1
R
  7
SLDTEXTSTYLE0
 73
     1
 44
1.0
  0
MTEXT
  5
13F
330
73
100
AcDbEntity
  8
0
  6
Continuous
 62
     7
370
     0
100
AcDbMText
 10
43.2001861591
 20
8.6449155598
 30
0.0
 40
3.0
 41
0.0
 71
     1
 72
     1
  1
1
  7
SLDTEXTSTYLE0
 73
     1
 44
1.0
  0
MTEXT
  5
140
330
73
100
AcDbEntity
  8
0
  6
Continuous
 62
     7
370
     0
100
AcDbMText
 10
91.4918528251
 20
8.6449155598
 30
0.0
 40
3.0
 41
0.0
 71
     1
 72
     1
  1
2
  7
SLDTEXTSTYLE0
 73
     1
 44
1.0
  0
MTEXT
  5
141
330
73
100
AcDbEntity
  8
0
  6
Continuous
 62
     7
370
     0
100
AcDbMText
 10
139.7835194911
 20
8.6449155598
 30
0.0
 40
3.0
 41
0.0
 71
     1
 72
     1
  1
3
  7
SLDTEXTSTYLE0
 73
     1
 44
1.0
  0
MTEXT
  5
142
330
73
100
AcDbEntity
  8
0
  6
Continuous
 62
     7
370
     0
100
AcDbMText
 10
188.0751861571
 20
8.6449155598
 30
0.0
 40
3.0
 41
0.0
 71
     1
 72
     1
  1
4
  7
SLDTEXTSTYLE0
 73
     1
 44
1.0
  0
MTEXT
  5
143
330
73
100
AcDbEntity
  8
0
  6
Continuous
 62
     7
370
     0
100
AcDbMText
 10
236.3668528231
 20
8.6449155598
 30
0.0
 40
3.0
 41
0.0
 71
     1
 72
     1
  1
5
  7
SLDTEXTSTYLE0
 73
     1
 44
1.0
  0
MTEXT
  5
144
330
73
100
AcDbEntity
  8
0
  6
Continuous
 62
     7
370
     0
100
AcDbMText
 10
284.6585194891
 20
8.6449155598
 30
0.0
 40
3.0
 41
0.0
 71
     1
 72
     1
  1
6
  7
SLDTEXTSTYLE0
 73
     1
 44
1.0
  0
MTEXT
  5
145
330
73
100
AcDbEntity
  8
0
  6
Continuous
 62
     7
370
     0
100
AcDbMText
 10
332.9501861551
 20
8.6449155598
 30
0.0
 40
3.0
 41
0.0
 71
     1
 72
     1
  1
7
  7
SLDTEXTSTYLE0
 73
     1
 44
1.0
  0
MTEXT
  5
146
330
73
100
AcDbEntity
  8
0
  6
Continuous
 62
     7
370
     0
100
AcDbMText
 10
381.2418528211
 20
8.6449155598
 30
0.0
 40
3.0
 41
0.0
 71
     1
 72
     1
  1
8
  7
SLDTEXTSTYLE0
 73
     1
 44
1.0
  0
MTEXT
  5
147
330
73
100
AcDbEntity
  8
0
  6
Continuous
 62
     7
370
     0
100
AcDbMText
 10
429.5335194871
 20
8.6449155598
 30
0.0
 40
3.0
 41
0.0
 71
     1
 72
     1
  1
9
  7
SLDTEXTSTYLE0
 73
     1
 44
1.0
  0
MTEXT
  5
148
330
73
100
AcDbEntity
  8
0
  6
Continuous
 62
     7
370
     0
100
AcDbMText
 10
476.8795339792
 20
8.6449155598
 30
0.0
 40
3.0
 41
0.0
 71
     1
 72
     1
  1
10
  7
SLDTEXTSTYLE0
 73
     1
 44
1.0
  0
MTEXT
  5
149
330
73
100
AcDbEntity
  8
0
  6
Continuous
 62
     7
370
     0
100
AcDbMText
 10
525.1712006452
 20
8.6449155598
 30
0.0
 40
3.0
 41
0.0
 71
     1
 72
     1
  1
11
  7
SLDTEXTSTYLE0
 73
     1
 44
1.0
  0
MTEXT
  5
14A
330
73
100
AcDbEntity
  8
0
  6
Continuous
 62
     7
370
     0
100
AcDbMText
 10
573.4628673112
 20
8.6449155598
 30
0.0
 40
3.0
 41
0.0
 71
     1
 72
     1
  1
12
  7
SLDTEXTSTYLE0
 73
     1
 44
1.0
  0
MTEXT
  5
14B
330
73
100
AcDbEntity
  8
0
  6
Continuous
 62
     7
370
     0
100
AcDbMText
 10
621.7545339772
 20
8.6449155598
 30
0.0
 40
3.0
 41
0.0
 71
     1
 72
     1
  1
13
  7
SLDTEXTSTYLE0
 73
     1
 44
1.0
  0
MTEXT
  5
14C
330
73
100
AcDbEntity
  8
0
  6
Continuous
 62
     7
370
     0
100
AcDbMText
 10
670.0462006432
 20
8.6449155598
 30
0.0
 40
3.0
 41
0.0
 71
     1
 72
     1
  1
14
  7
SLDTEXTSTYLE0
 73
     1
 44
1.0
  0
MTEXT
  5
14D
330
73
100
AcDbEntity
  8
0
  6
Continuous
 62
     7
370
     0
100
AcDbMText
 10
718.3378673092
 20
8.6449155598
 30
0.0
 40
3.0
 41
0.0
 71
     1
 72
     1
  1
15
  7
SLDTEXTSTYLE0
 73
     1
 44
1.0
  0
MTEXT
  5
14E
330
73
100
AcDbEntity
  8
0
  6
Continuous
 62
     7
370
     0
100
AcDbMText
 10
761.6295339752
 20
8.6449155598
 30
0.0
 40
3.0
 41
0.0
 71
     1
 72
     1
  1
16
  7
SLDTEXTSTYLE0
 73
     1
 44
1.0
  0
MTEXT
  5
14F
330
73
100
AcDbEntity
  8
0
  6
Continuous
 62
     7
370
     0
100
AcDbMText
 10
814.9212006412
 20
8.6449155598
 30
0.0
 40
3.0
 41
0.0
 71
     1
 72
     1
  1
17
  7
SLDTEXTSTYLE0
 73
     1
 44
1.0
  0
MTEXT
  5
150
330
73
100
AcDbEntity
  8
0
  6
Continuous
 62
     7
370
     0
100
AcDbMText
 10
863.2128673072
 20
8.6449155598
 30
0.0
 40
3.0
 41
0.0
 71
     1
 72
     1
  1
18
  7
SLDTEXTSTYLE0
 73
     1
 44
1.0
  0
MTEXT
  5
151
330
73
100
AcDbEntity
  8
0
  6
Continuous
 62
     7
370
     0
100
AcDbMText
 10
911.5045339732
 20
8.6449155598
 30
0.0
 40
3.0
 41
0.0
 71
     1
 72
     1
  1
19
  7
SLDTEXTSTYLE0
 73
     1
 44
1.0
  0
MTEXT
  5
152
330
73
100
AcDbEntity
  8
0
  6
Continuous
 62
     7
370
     0
100
AcDbMText
 10
959.7962006392
 20
8.6449155598
 30
0.0
 40
3.0
 41
0.0
 71
     1
 72
     1
  1
20
  7
SLDTEXTSTYLE0
 73
     1
 44
1.0
  0
MTEXT
  5
153
330
73
100
AcDbEntity
  8
0
  6
Continuous
 62
     7
370
     0
100
AcDbMText
 10
1008.0878673052
 20
8.6449155598
 30
0.0
 40
3.0
 41
0.0
 71
     1
 72
     1
  1
21
  7
SLDTEXTSTYLE0
 73
     1
 44
1.0
  0
MTEXT
  5
154
330
73
100
AcDbEntity
  8
0
  6
Continuous
 62
     7
370
     0
100
AcDbMText
 10
1056.3795339712
 20
8.6449155598
 30
0.0
 40
3.0
 41
0.0
 71
     1
 72
     1
  1
22
  7
SLDTEXTSTYLE0
 73
     1
 44
1.0
  0
MTEXT
  5
156
330
73
100
AcDbEntity
  8
0
  6
Continuous
 62
     7
370
     0
100
AcDbMText
 10
1003.527178913
 20
7.389386302
 30
0.0
 40
1.5
 41
0.0
 71
     1
 72
     1
  1
1
  7
SLDTEXTSTYLE1
 73
     1
 44
1.0
  0
MTEXT
  5
157
330
73
100
AcDbEntity
  8
0
  6
Continuous
 62
     7
370
     0
100
AcDbMText
 10
633.527178913
 20
7.389386302
 30
0.0
 40
1.5
 41
0.0
 71
     1
 72
     1
  1
2
  7
SLDTEXTSTYLE1
 73
     1
 44
1.0
  0
MTEXT
  5
158
330
73
100
AcDbEntity
  8
0
  6
Continuous
 62
     7
370
     0
100
AcDbMText
 10
329.027178913
 20
7.389386302
 30
0.0
 40
1.5
 41
0.0
 71
     1
 72
     1
  1
4
  7
SLDTEXTSTYLE1
 73
     1
 44
1.0
  0
MTEXT
  5
159
330
73
100
AcDbEntity
  8
0
  6
Continuous
 62
     7
370
     0
100
AcDbMText
 10
263.527178913
 20
7.389386302
 30
0.0
 40
1.5
 41
0.0
 71
     1
 72
     1
  1
3
  7
SLDTEXTSTYLE1
 73
     1
 44
1.0
  0
MTEXT
  5
15A
330
73
100
AcDbEntity
  8
0
  6
Continuous
 62
     7
370
     0
100
AcDbMText
 10
1003.527178913
 20
835.1028068642
 30
0.0
 40
1.5
 41
0.0
 71
     1
 72
     1
  1
1
  7
SLDTEXTSTYLE1
 73
     1
 44
1.0
  0
MTEXT
  5
15B
330
73
100
AcDbEntity
  8
0
  6
Continuous
 62
     7
370
     0
100
AcDbMText
 10
633.527178913
 20
835.1028068642
 30
0.0
 40
1.5
 41
0.0
 71
     1
 72
     1
  1
2
  7
SLDTEXTSTYLE1
 73
     1
 44
1.0
  0
MTEXT
  5
15C
330
73
100
AcDbEntity
  8
0
  6
Continuous
 62
     7
370
     0
100
AcDbMText
 10
263.527178913
 20
835.1028068642
 30
0.0
 40
1.5
 41
0.0
 71
     1
 72
     1
  1
3
  7
SLDTEXTSTYLE1
 73
     1
 44
1.0
  0
MTEXT
  5
15D
330
73
100
AcDbEntity
  8
0
  6
Continuous
 62
     7
370
     0
100
AcDbMText
 10
329.027178913
 20
835.1028068642
 30
0.0
 40
1.5
 41
0.0
 71
     1
 72
     1
  1
4
  7
SLDTEXTSTYLE1
 73
     1
 44
1.0
  0
ENDBLK
  5
75
330
73
100
AcDbEntity
  8
0
100
AcDbBlockEnd
  0
BLOCK
  5
15F
330
15E
100
AcDbEntity
  8
0
100
AcDbBlockBegin
  2
ISO2768
 70
     0
 10
0.0
 20
0.0
 30
0.0
  3
ISO2768
  1

  0
LINE
  5
161
330
15E
100
AcDbEntity
  8
0
  6
Continuous
 62
     7
370
     0
100
AcDbLine
 10
-25.0
 20
0.0
 30
0.0
 11
-25.0
 21
-20.0
 31
0.0
  0
LINE
  5
162
330
15E
100
AcDbEntity
  8
0
  6
Continuous
 62
     7
370
     0
100
AcDbLine
 10
-50.0
 20
0.0
 30
0.0
 11
-50.0
 21
-20.0
 31
0.0
  0
LINE
  5
163
330
15E
100
AcDbEntity
  8
0
  6
Continuous
 62
     7
370
     0
100
AcDbLine
 10
-75.0
 20
0.0
 30
0.0
 11
-75.0
 21
-20.0
 31
0.0
  0
LINE
  5
164
330
15E
100
AcDbEntity
  8
0
  6
Continuous
 62
     7
370
     0
100
AcDbLine
 10
-95.0
 20
0.0
 30
0.0
 11
-95.0
 21
-20.0
 31
0.0
  0
LINE
  5
165
330
15E
100
AcDbEntity
  8
0
  6
Continuous
 62
     7
370
     0
100
AcDbLine
 10
-115.0
 20
0.0
 30
0.0
 11
-115.0
 21
-20.0
 31
0.0
  0
LINE
  5
166
330
15E
100
AcDbEntity
  8
0
  6
Continuous
 62
     7
370
     0
100
AcDbLine
 10
-130.0
 20
0.0
 30
0.0
 11
-130.0
 21
-20.0
 31
0.0
  0
LINE
  5
167
330
15E
100
AcDbEntity
  8
0
  6
Continuous
 62
     7
370
     0
100
AcDbLine
 10
-145.0
 20
0.0
 30
0.0
 11
-145.0
 21
-20.0
 31
0.0
  0
LINE
  5
168
330
15E
100
AcDbEntity
  8
0
  6
Continuous
 62
     7
370
     0
100
AcDbLine
 10
-155.0
 20
-4.0
 30
0.0
 11
-155.0
 21
-20.0
 31
0.0
  0
LINE
  5
169
330
15E
100
AcDbEntity
  8
0
  6
Continuous
 62
     7
370
     0
100
AcDbLine
 10
-175.0
 20
-16.0
 30
0.0
 11
0.0
 21
-16.0
 31
0.0
  0
LINE
  5
16A
330
15E
100
AcDbEntity
  8
0
  6
Continuous
 62
     7
370
     0
100
AcDbLine
 10
-175.0
 20
-12.0
 30
0.0
 11
0.0
 21
-12.0
 31
0.0
  0
LINE
  5
16B
330
15E
100
AcDbEntity
  8
0
  6
Continuous
 62
     7
370
     0
100
AcDbLine
 10
-175.0
 20
-8.0
 30
0.0
 11
0.0
 21
-8.0
 31
0.0
  0
LINE
  5
16C
330
15E
100
AcDbEntity
  8
0
  6
Continuous
 62
     7
370
     0
100
AcDbLine
 10
-175.0
 20
-4.0
 30
0.0
 11
0.0
 21
-4.0
 31
0.0
  0
LINE
  5
16D
330
15E
100
AcDbEntity
  8
0
  6
Continuous
 62
     7
370
     0
100
AcDbLine
 10
-175.0
 20
0.0
 30
0.0
 11
-175.0
 21
-20.0
 31
0.0
  0
LINE
  5
16E
330
15E
100
AcDbEntity
  8
0
  6
Continuous
 62
     7
370
     0
100
AcDbLine
 10
-180.0
 20
-20.0
 30
0.0
 11
-180.0
 21
0.0
 31
0.0
  0
LINE
  5
16F
330
15E
100
AcDbEntity
  8
0
  6
Continuous
 62
     7
370
     0
100
AcDbLine
 10
0.0
 20
-20.0
 30
0.0
 11
-180.0
 21
-20.0
 31
0.0
  0
LINE
  5
170
330
15E
100
AcDbEntity
  8
0
  6
Continuous
 62
     7
370
     0
100
AcDbLine
 10
0.0
 20
0.0
 30
0.0
 11
0.0
 21
-20.0
 31
0.0
  0
LINE
  5
171
330
15E
100
AcDbEntity
  8
0
  6
Continuous
 62
     7
370
     0
100
AcDbLine
 10
-180.0
 20
0.0
 30
0.0
 11
0.0
 21
0.0
 31
0.0
  0
MTEXT
  5
173
330
15E
100
AcDbEntity
  8
0
  6
Continuous
 62
   179
370
     0
100
AcDbMText
 10
-152.1594291518
 20
-12.9932672184
 30
0.0
 40
2.5
 41
0.0
 71
     1
 72
     1
  1
(c)
  7
SLDTEXTSTYLE2
 73
     1
 44
1.0
  0
MTEXT
  5
174
330
15E
100
AcDbEntity
  8
0
  6
Continuous
 62
   179
370
     0
100
AcDbMText
 10
-14.4385313988
 20
-13.1021223902
 30
0.0
 40
2.5
 41
0.0
 71
     1
 72
     1
  1
±4
  7
SLDTEXTSTYLE2
 73
     1
 44
1.0
  0
MTEXT
  5
175
330
15E
100
AcDbEntity
  8
0
  6
Continuous
 62
   179
370
     0
100
AcDbMText
 10
-14.4385313988
 20
-17.1021223902
 30
0.0
 40
2.5
 41
0.0
 71
     1
 72
     1
  1
±8
  7
SLDTEXTSTYLE2
 73
     1
 44
1.0
  0
MTEXT
  5
176
330
15E
100
AcDbEntity
  8
0
  6
Continuous
 62
   179
370
     0
100
AcDbMText
 10
-23.8407053118
 20
-1.1021223902
 30
0.0
 40
2.5
 41
0.0
 71
     1
 72
     1
  1
>2000 <=4000
  7
SLDTEXTSTYLE2
 73
     1
 44
1.0
  0
MTEXT
  5
177
330
15E
100
AcDbEntity
  8
0
  6
Continuous
 62
   179
370
     0
100
AcDbMText
 10
-13.0798357466
 20
-5.1021223902
 30
0.0
 40
2.5
 41
0.0
 71
     1
 72
     1
  1
-
  7
SLDTEXTSTYLE2
 73
     1
 44
1.0
  0
MTEXT
  5
178
330
15E
100
AcDbEntity
  8
0
  6
Continuous
 62
   179
370
     0
100
AcDbMText
 10
-14.4385313988
 20
-9.1021223902
 30
0.0
 40
2.5
 41
0.0
 71
     1
 72
     1
  1
±2
  7
SLDTEXTSTYLE2
 73
     1
 44
1.0
  0
MTEXT
  5
179
330
15E
100
AcDbEntity
  8
0
  6
Continuous
 62
   179
370
     0
100
AcDbMText
 10
-39.4385313988
 20
-17.1021223902
 30
0.0
 40
2.5
 41
0.0
 71
     1
 72
     1
  1
±6
  7
SLDTEXTSTYLE2
 73
     1
 44
1.0
  0
MTEXT
  5
17A
330
15E
100
AcDbEntity
  8
0
  6
Continuous
 62
   179
370
     0
100
AcDbMText
 10
-39.4385313988
 20
-13.1021223902
 30
0.0
 40
2.5
 41
0.0
 71
     1
 72
     1
  1
±3
  7
SLDTEXTSTYLE2
 73
     1
 44
1.0
  0
MTEXT
  5
17B
330
15E
100
AcDbEntity
  8
0
  6
Continuous
 62
   179
370
     0
100
AcDbMText
 10
-72.8624444423
 20
-1.1021223902
 30
0.0
 40
2.5
 41
0.0
 71
     1
 72
     1
  1
>400 <=1000
  7
SLDTEXTSTYLE2
 73
     1
 44
1.0
  0
MTEXT
  5
17C
330
15E
100
AcDbEntity
  8
0
  6
Continuous
 62
   179
370
     0
100
AcDbMText
 10
-40.9059227031
 20
-9.1021223902
 30
0.0
 40
2.5
 41
0.0
 71
     1
 72
     1
  1
±1.2
  7
SLDTEXTSTYLE2
 73
     1
 44
1.0
  0
MTEXT
  5
17D
330
15E
100
AcDbEntity
  8
0
  6
Continuous
 62
   179
370
     0
100
AcDbMText
 10
-40.9059227031
 20
-5.1021223902
 30
0.0
 40
2.5
 41
0.0
 71
     1
 72
     1
  1
±0.5
  7
SLDTEXTSTYLE2
 73
     1
 44
1.0
  0
MTEXT
  5
17E
330
15E
100
AcDbEntity
  8
0
  6
Continuous
 62
   179
370
     0
100
AcDbMText
 10
-64.4385313988
 20
-17.1021223902
 30
0.0
 40
2.5
 41
0.0
 71
     1
 72
     1
  1
±4
  7
SLDTEXTSTYLE2
 73
     1
 44
1.0
  0
MTEXT
  5
17F
330
15E
100
AcDbEntity
  8
0
  6
Continuous
 62
   179
370
     0
100
AcDbMText
 10
-48.8407053118
 20
-1.1021223902
 30
0.0
 40
2.5
 41
0.0
 71
     1
 72
     1
  1
>1000 <=2000
  7
SLDTEXTSTYLE2
 73
     1
 44
1.0
  0
MTEXT
  5
180
330
15E
100
AcDbEntity
  8
0
  6
Continuous
 62
   179
370
     0
100
AcDbMText
 10
-64.4385313988
 20
-13.1021223902
 30
0.0
 40
2.5
 41
0.0
 71
     1
 72
     1
  1
±2
  7
SLDTEXTSTYLE2
 73
     1
 44
1.0
  0
MTEXT
  5
181
330
15E
100
AcDbEntity
  8
0
  6
Continuous
 62
   179
370
     0
100
AcDbMText
 10
-65.9059227031
 20
-9.1021223902
 30
0.0
 40
2.5
 41
0.0
 71
     1
 72
     1
  1
±0.8
  7
SLDTEXTSTYLE2
 73
     1
 44
1.0
  0
MTEXT
  5
182
330
15E
100
AcDbEntity
  8
0
  6
Continuous
 62
   179
370
     0
100
AcDbMText
 10
-88.4059227031
 20
-9.1021223902
 30
0.0
 40
2.5
 41
0.0
 71
     1
 72
     1
  1
±0.5
  7
SLDTEXTSTYLE2
 73
     1
 44
1.0
  0
MTEXT
  5
183
330
15E
100
AcDbEntity
  8
0
  6
Continuous
 62
   179
370
     0
100
AcDbMText
 10
-108.4059227031
 20
-9.1021223902
 30
0.0
 40
2.5
 41
0.0
 71
     1
 72
     1
  1
±0.3
  7
SLDTEXTSTYLE2
 73
     1
 44
1.0
  0
MTEXT
  5
184
330
15E
100
AcDbEntity
  8
0
  6
Continuous
 62
   179
370
     0
100
AcDbMText
 10
-88.4059227031
 20
-5.1021223902
 30
0.0
 40
2.5
 41
0.0
 71
     1
 72
     1
  1
±0.2
  7
SLDTEXTSTYLE2
 73
     1
 44
1.0
  0
MTEXT
  5
185
330
15E
100
AcDbEntity
  8
0
  6
Continuous
 62
   179
370
     0
100
AcDbMText
 10
-108.4059227031
 20
-17.1021223902
 30
0.0
 40
2.5
 41
0.0
 71
     1
 72
     1
  1
±1.5
  7
SLDTEXTSTYLE2
 73
     1
 44
1.0
  0
MTEXT
  5
186
330
15E
100
AcDbEntity
  8
0
  6
Continuous
 62
   179
370
     0
100
AcDbMText
 10
-65.9059227031
 20
-5.1021223902
 30
0.0
 40
2.5
 41
0.0
 71
     1
 72
     1
  1
±0.3
  7
SLDTEXTSTYLE2
 73
     1
 44
1.0
  0
MTEXT
  5
187
330
15E
100
AcDbEntity
  8
0
  6
Continuous
 62
   179
370
     0
100
AcDbMText
 10
-88.4059227031
 20
-17.1021223902
 30
0.0
 40
2.5
 41
0.0
 71
     1
 72
     1
  1
±2.5
  7
SLDTEXTSTYLE2
 73
     1
 44
1.0
  0
MTEXT
  5
188
330
15E
100
AcDbEntity
  8
0
  6
Continuous
 62
   179
370
     0
100
AcDbMText
 10
-94.3841835727
 20
-1.1021223902
 30
0.0
 40
2.5
 41
0.0
 71
     1
 72
     1
  1
>120 <=400
  7
SLDTEXTSTYLE2
 73
     1
 44
1.0
  0
MTEXT
  5
189
330
15E
100
AcDbEntity
  8
0
  6
Continuous
 62
   179
370
     0
100
AcDbMText
 10
-88.4059227031
 20
-13.1021223902
 30
0.0
 40
2.5
 41
0.0
 71
     1
 72
     1
  1
±1.2
  7
SLDTEXTSTYLE2
 73
     1
 44
1.0
  0
MTEXT
  5
18A
330
15E
100
AcDbEntity
  8
0
  6
Continuous
 62
   179
370
     0
100
AcDbMText
 10
-109.3841835727
 20
-5.1021223902
 30
0.0
 40
2.5
 41
0.0
 71
     1
 72
     1
  1
±0.15
  7
SLDTEXTSTYLE2
 73
     1
 44
1.0
  0
MTEXT
  5
18B
330
15E
100
AcDbEntity
  8
0
  6
Continuous
 62
   179
370
     0
100
AcDbMText
 10
-113.4059227031
 20
-1.1021223902
 30
0.0
 40
2.5
 41
0.0
 71
     1
 72
     1
  1
>30 <=120
  7
SLDTEXTSTYLE2
 73
     1
 44
1.0
  0
MTEXT
  5
18C
330
15E
100
AcDbEntity
  8
0
  6
Continuous
 62
   179
370
     0
100
AcDbMText
 10
-124.4385313988
 20
-17.1021223902
 30
0.0
 40
2.5
 41
0.0
 71
     1
 72
     1
  1
±1
  7
SLDTEXTSTYLE2
 73
     1
 44
1.0
  0
MTEXT
  5
18D
330
15E
100
AcDbEntity
  8
0
  6
Continuous
 62
   179
370
     0
100
AcDbMText
 10
-125.9059227031
 20
-9.1021223902
 30
0.0
 40
2.5
 41
0.0
 71
     1
 72
     1
  1
±0.2
  7
SLDTEXTSTYLE2
 73
     1
 44
1.0
  0
MTEXT
  5
18E
330
15E
100
AcDbEntity
  8
0
  6
Continuous
 62
   179
370
     0
100
AcDbMText
 10
-108.4059227031
 20
-13.1021223902
 30
0.0
 40
2.5
 41
0.0
 71
     1
 72
     1
  1
±0.8
  7
SLDTEXTSTYLE2
 73
     1
 44
1.0
  0
MTEXT
  5
18F
330
15E
100
AcDbEntity
  8
0
  6
Continuous
 62
   179
370
     0
100
AcDbMText
 10
-125.9059227031
 20
-5.1021223902
 30
0.0
 40
2.5
 41
0.0
 71
     1
 72
     1
  1
±0.1
  7
SLDTEXTSTYLE2
 73
     1
 44
1.0
  0
MTEXT
  5
190
330
15E
100
AcDbEntity
  8
0
  6
Continuous
 62
   179
370
     0
100
AcDbMText
 10
-128.949400964
 20
-1.1021223902
 30
0.0
 40
2.5
 41
0.0
 71
     1
 72
     1
  1
>6 <=30
  7
SLDTEXTSTYLE2
 73
     1
 44
1.0
  0
MTEXT
  5
191
330
15E
100
AcDbEntity
  8
0
  6
Continuous
 62
   179
370
     0
100
AcDbMText
 10
-140.4983140075
 20
-1.1021223902
 30
0.0
 40
2.5
 41
0.0
 71
     1
 72
     1
  1
<=6
  7
SLDTEXTSTYLE2
 73
     1
 44
1.0
  0
MTEXT
  5
192
330
15E
100
AcDbEntity
  8
0
  6
Continuous
 62
   179
370
     0
100
AcDbMText
 10
-125.9059227031
 20
-13.1021223902
 30
0.0
 40
2.5
 41
0.0
 71
     1
 72
     1
  1
±0.5
  7
SLDTEXTSTYLE2
 73
     1
 44
1.0
  0
MTEXT
  5
193
330
15E
100
AcDbEntity
  8
0
  6
Continuous
 62
   179
370
     0
100
AcDbMText
 10
-140.9059227031
 20
-9.1021223902
 30
0.0
 40
2.5
 41
0.0
 71
     1
 72
     1
  1
±0.1
  7
SLDTEXTSTYLE2
 73
     1
 44
1.0
  0
MTEXT
  5
194
330
15E
100
AcDbEntity
  8
0
  6
Continuous
 62
   179
370
     0
100
AcDbMText
 10
-140.9059227031
 20
-17.1021223902
 30
0.0
 40
2.5
 41
0.0
 71
     1
 72
     1
  1
±0.5
  7
SLDTEXTSTYLE2
 73
     1
 44
1.0
  0
MTEXT
  5
195
330
15E
100
AcDbEntity
  8
0
  6
Continuous
 62
   179
370
     0
100
AcDbMText
 10
-140.9059227031
 20
-13.1021223902
 30
0.0
 40
2.5
 41
0.0
 71
     1
 72
     1
  1
±0.3
  7
SLDTEXTSTYLE2
 73
     1
 44
1.0
  0
MTEXT
  5
196
330
15E
100
AcDbEntity
  8
0
  6
Continuous
 62
   179
370
     0
100
AcDbMText
 10
-141.8841835727
 20
-5.1021223902
 30
0.0
 40
2.5
 41
0.0
 71
     1
 72
     1
  1
±0.05
  7
SLDTEXTSTYLE2
 73
     1
 44
1.0
  0
MTEXT
  5
197
330
15E
100
AcDbEntity
  8
0
  6
Continuous
 62
   179
370
     0
100
AcDbMText
 10
-174.7485158139
 20
-8.9932672184
 30
0.0
 40
2.5
 41
0.0
 71
     1
 72
     1
  1
Medium
  7
SLDTEXTSTYLE2
 73
     1
 44
1.0
  0
MTEXT
  5
198
330
15E
100
AcDbEntity
  8
0
  6
Continuous
 62
   179
370
     0
100
AcDbMText
 10
-174.7485158139
 20
-12.9932672184
 30
0.0
 40
2.5
 41
0.0
 71
     1
 72
     1
  1
Coarse
  7
SLDTEXTSTYLE2
 73
     1
 44
1.0
  0
MTEXT
  5
199
330
15E
100
AcDbEntity
  8
0
  6
Continuous
 62
   179
370
     0
100
AcDbMText
 10
-151.7789943692
 20
-4.9932672184
 30
0.0
 40
2.5
 41
0.0
 71
     1
 72
     1
  1
(f)
  7
SLDTEXTSTYLE2
 73
     1
 44
1.0
  0
MTEXT
  5
19A
330
15E
100
AcDbEntity
  8
0
  6
Continuous
 62
   179
370
     0
100
AcDbMText
 10
-152.7844291518
 20
-8.9932672184
 30
0.0
 40
2.5
 41
0.0
 71
     1
 72
     1
  1
(m)
  7
SLDTEXTSTYLE2
 73
     1
 44
1.0
  0
MTEXT
  5
19B
330
15E
100
AcDbEntity
  8
0
  6
Continuous
 62
   179
370
     0
100
AcDbMText
 10
-152.1866030649
 20
-16.9932672184
 30
0.0
 40
2.5
 41
0.0
 71
     1
 72
     1
  1
(v)
  7
SLDTEXTSTYLE2
 73
     1
 44
1.0
  0
MTEXT
  5
19C
330
15E
100
AcDbEntity
  8
0
  6
Continuous
 62
   179
370
     0
100
AcDbMText
 10
-174.7485158139
 20
-16.9932672184
 30
0.0
 40
2.5
 41
0.0
 71
     1
 72
     1
  1
Very Coarse
  7
SLDTEXTSTYLE2
 73
     1
 44
1.0
  0
MTEXT
  5
19D
330
15E
100
AcDbEntity
  8
0
  6
Continuous
 62
   179
370
     0
100
AcDbMText
 10
-178.6122169322
 20
-18.8727771349
 30
0.0
 40
2.5
 41
0.0
 71
     1
 72
     1
  1
ISO 2768
  7
SLDTEXTSTYLE2
 11
6.123233995736766E-17
 21
1.0
 31
0.0
 73
     1
 44
1.0
  0
MTEXT
  5
19E
330
15E
100
AcDbEntity
  8
0
  6
Continuous
 62
   179
370
     0
100
AcDbMText
 10
-174.565631434
 20
-0.9932672184
 30
0.0
 40
2.5
 41
0.0
 71
     1
 72
     1
  1
Tolerance Class
  7
SLDTEXTSTYLE2
 73
     1
 44
1.0
  0
MTEXT
  5
19F
330
15E
100
AcDbEntity
  8
0
  6
Continuous
 62
   179
370
     0
100
AcDbMText
 10
-174.7485158139
 20
-4.9932672184
 30
0.0
 40
2.5
 41
0.0
 71
     1
 72
     1
  1
Fine
  7
SLDTEXTSTYLE2
 73
     1
 44
1.0
  0
ENDBLK
  5
160
330
15E
100
AcDbEntity
  8
0
100
AcDbBlockEnd
  0
BLOCK
  5
1A1
330
1A0
100
AcDbEntity
  8
0
100
AcDbBlockBegin
  2
Nota legale
 70
     0
 10
0.0
 20
0.0
 30
0.0
  3
Nota legale
  1

  0
MTEXT
  5
1A4
330
1A0
100
AcDbEntity
  8
0
  6
Continuous
 62
     7
370
     0
100
AcDbMText
 10
2.8916698098
 20
-1.0663983927
 30
0.0
 40
1.5
 41
0.0
 71
     3
 72
     1
  1
BY TERM LAWS WE RESERVE THE PROPERTY OF THIS DRAWING WITH PROHIBITION OF USE AND REPRODUCTION
  7
SLDTEXTSTYLE3
 73
     1
 44
1.0
  0
ENDBLK
  5
1A2
330
1A0
100
AcDbEntity
  8
0
100
AcDbBlockEnd
  0
ENDSEC
  0
SECTION
  2
ENTITIES
  0
LINE
  5
1A5
330
1F
100
AcDbEntity
  8
0
  6
Continuous
 62
     7
370
    15
100
AcDbLine
 10
250.5366281708
 20
735.0368960747
 30
0.0
 11
226.5366316874
 21
735.0368960747
 31
0.0
  0
LINE
  5
1A6
330
1F
100
AcDbEntity
  8
0
  6
Continuous
 62
     7
370
    15
100
AcDbLine
 10
226.5366316874
 20
485.0368960747
 30
0.0
 11
250.5366281708
 21
485.0368960747
 31
0.0
  0
LINE
  5
1A7
330
1F
100
AcDbEntity
  8
0
  6
Continuous
 62
     7
370
    15
100
AcDbLine
 10
461.5366310914
 20
735.0368960747
 30
0.0
 11
437.5366346081
 21
735.0368960747
 31
0.0
  0
LINE
  5
1A8
330
1F
100
AcDbEntity
  8
0
  6
Continuous
 62
     7
370
    15
100
AcDbLine
 10
437.5366346081
 20
485.0368960747
 30
0.0
 11
461.5366310914
 21
485.0368960747
 31
0.0
  0
LINE
  5
1A9
330
1F
100
AcDbEntity
  8
0
  6
Continuous
 62
     7
370
    15
100
AcDbLine
 10
226.5366316874
 20
711.0368995914
 30
0.0
 11
224.0366340716
 21
711.0368995914
 31
0.0
  0
LINE
  5
1AA
330
1F
100
AcDbEntity
  8
0
  6
Continuous
 62
     7
370
    15
100
AcDbLine
 10
224.0366340716
 20
509.0368925581
 30
0.0
 11
226.5366316874
 21
509.0368925581
 31
0.0
  0
LINE
  5
1AB
330
1F
100
AcDbEntity
  8
0
  6
Continuous
 62
     7
370
    15
100
AcDbLine
 10
464.0366287072
 20
711.0368995914
 30
0.0
 11
461.5366310914
 21
711.0368995914
 31
0.0
  0
LINE
  5
1AC
330
1F
100
AcDbEntity
  8
0
  6
Continuous
 62
     7
370
    15
100
AcDbLine
 10
461.5366310914
 20
509.0368925581
 30
0.0
 11
464.0366287072
 21
509.0368925581
 31
0.0
  0
ARC
  5
1AD
330
1F
100
AcDbEntity
  8
0
  6
Continuous
 62
     7
370
    15
100
AcDbCircle
 10
261.5366313894
 20
698.0368960747
 30
0.0
 40
4.0
100
AcDbArc
 50
0.0
 51
180.0
  0
ARC
  5
1AE
330
1F
100
AcDbEntity
  8
0
  6
Continuous
 62
     7
370
    15
100
AcDbCircle
 10
261.5366313894
 20
522.0368960747
 30
0.0
 40
4.0
100
AcDbArc
 50
180.0
 51
0.0
  0
ARC
  5
1AF
330
1F
100
AcDbEntity
  8
0
  6
Continuous
 62
     7
370
    15
100
AcDbCircle
 10
250.5366313894
 20
698.0368960747
 30
0.0
 40
4.0
100
AcDbArc
 50
0.0
 51
90.0
  0
ARC
  5
1B0
330
1F
100
AcDbEntity
  8
0
  6
Continuous
 62
     7
370
    15
100
AcDbCircle
 10
250.5366313894
 20
522.0368960747
 30
0.0
 40
4.0
100
AcDbArc
 50
270.0
 51
0.0
  0
ARC
  5
1B1
330
1F
100
AcDbEntity
  8
0
  6
Continuous
 62
     7
370
    15
100
AcDbCircle
 10
272.5366313894
 20
698.0368960747
 30
0.0
 40
4.0
100
AcDbArc
 50
0.0
 51
180.0
  0
ARC
  5
1B2
330
1F
100
AcDbEntity
  8
0
  6
Continuous
 62
     7
370
    15
100
AcDbCircle
 10
272.5366313894
 20
522.0368960747
 30
0.0
 40
4.0
100
AcDbArc
 50
180.0
 51
0.0
  0
ARC
  5
1B3
330
1F
100
AcDbEntity
  8
0
  6
Continuous
 62
     7
370
    15
100
AcDbCircle
 10
283.5366313894
 20
698.0368960747
 30
0.0
 40
4.0
100
AcDbArc
 50
0.0
 51
180.0
  0
ARC
  5
1B4
330
1F
100
AcDbEntity
  8
0
  6
Continuous
 62
     7
370
    15
100
AcDbCircle
 10
283.5366313894
 20
522.0368960747
 30
0.0
 40
4.0
100
AcDbArc
 50
180.0
 51
0.0
  0
ARC
  5
1B5
330
1F
100
AcDbEntity
  8
0
  6
Continuous
 62
     7
370
    15
100
AcDbCircle
 10
338.5366313894
 20
698.0368960747
 30
0.0
 40
4.0
100
AcDbArc
 50
0.0
 51
180.0
  0
ARC
  5
1B6
330
1F
100
AcDbEntity
  8
0
  6
Continuous
 62
     7
370
    15
100
AcDbCircle
 10
338.5366313894
 20
522.0368960747
 30
0.0
 40
4.0
100
AcDbArc
 50
180.0
 51
0.0
  0
ARC
  5
1B7
330
1F
100
AcDbEntity
  8
0
  6
Continuous
 62
     7
370
    15
100
AcDbCircle
 10
382.5366313894
 20
698.0368960747
 30
0.0
 40
4.0
100
AcDbArc
 50
0.0
 51
180.0
  0
ARC
  5
1B8
330
1F
100
AcDbEntity
  8
0
  6
Continuous
 62
     7
370
    15
100
AcDbCircle
 10
382.5366313894
 20
522.0368960747
 30
0.0
 40
4.0
100
AcDbArc
 50
180.0
 51
0.0
  0
ARC
  5
1B9
330
1F
100
AcDbEntity
  8
0
  6
Continuous
 62
     7
370
    15
100
AcDbCircle
 10
371.5366313894
 20
698.0368960747
 30
0.0
 40
4.0
100
AcDbArc
 50
0.0
 51
180.0
  0
ARC
  5
1BA
330
1F
100
AcDbEntity
  8
0
  6
Continuous
 62
     7
370
    15
100
AcDbCircle
 10
371.5366313894
 20
522.0368960747
 30
0.0
 40
4.0
100
AcDbArc
 50
180.0
 51
0.0
  0
ARC
  5
1BB
330
1F
100
AcDbEntity
  8
0
  6
Continuous
 62
     7
370
    15
100
AcDbCircle
 10
305.5366313894
 20
698.0368960747
 30
0.0
 40
4.0
100
AcDbArc
 50
0.0
 51
180.0
  0
ARC
  5
1BC
330
1F
100
AcDbEntity
  8
0
  6
Continuous
 62
     7
370
    15
100
AcDbCircle
 10
305.5366313894
 20
522.0368960747
 30
0.0
 40
4.0
100
AcDbArc
 50
180.0
 51
0.0
  0
ARC
  5
1BD
330
1F
100
AcDbEntity
  8
0
  6
Continuous
 62
     7
370
    15
100
AcDbCircle
 10
349.5366313894
 20
698.0368960747
 30
0.0
 40
4.0
100
AcDbArc
 50
0.0
 51
180.0
  0
ARC
  5
1BE
330
1F
100
AcDbEntity
  8
0
  6
Continuous
 62
     7
370
    15
100
AcDbCircle
 10
349.5366313894
 20
522.0368960747
 30
0.0
 40
4.0
100
AcDbArc
 50
180.0
 51
0.0
  0
ARC
  5
1BF
330
1F
100
AcDbEntity
  8
0
  6
Continuous
 62
     7
370
    15
100
AcDbCircle
 10
327.5366313894
 20
698.0368960747
 30
0.0
 40
4.0
100
AcDbArc
 50
0.0
 51
180.0
  0
ARC
  5
1C0
330
1F
100
AcDbEntity
  8
0
  6
Continuous
 62
     7
370
    15
100
AcDbCircle
 10
327.5366313894
 20
522.0368960747
 30
0.0
 40
4.0
100
AcDbArc
 50
180.0
 51
0.0
  0
ARC
  5
1C1
330
1F
100
AcDbEntity
  8
0
  6
Continuous
 62
     7
370
    15
100
AcDbCircle
 10
393.5366313894
 20
698.0368960747
 30
0.0
 40
4.0
100
AcDbArc
 50
0.0
 51
180.0
  0
ARC
  5
1C2
330
1F
100
AcDbEntity
  8
0
  6
Continuous
 62
     7
370
    15
100
AcDbCircle
 10
393.5366313894
 20
522.0368960747
 30
0.0
 40
4.0
100
AcDbArc
 50
180.0
 51
0.0
  0
ARC
  5
1C3
330
1F
100
AcDbEntity
  8
0
  6
Continuous
 62
     7
370
    15
100
AcDbCircle
 10
294.5366313894
 20
698.0368960747
 30
0.0
 40
4.0
100
AcDbArc
 50
0.0
 51
180.0
  0
ARC
  5
1C4
330
1F
100
AcDbEntity
  8
0
  6
Continuous
 62
     7
370
    15
100
AcDbCircle
 10
294.5366313894
 20
522.0368960747
 30
0.0
 40
4.0
100
AcDbArc
 50
180.0
 51
0.0
  0
ARC
  5
1C5
330
1F
100
AcDbEntity
  8
0
  6
Continuous
 62
     7
370
    15
100
AcDbCircle
 10
316.5366313894
 20
698.0368960747
 30
0.0
 40
4.000000000000057
100
AcDbArc
 50
0.0
 51
180.0
  0
ARC
  5
1C6
330
1F
100
AcDbEntity
  8
0
  6
Continuous
 62
     7
370
    15
100
AcDbCircle
 10
316.5366313894
 20
522.0368960747
 30
0.0
 40
4.000000000000057
100
AcDbArc
 50
180.0
 51
0.0
  0
ARC
  5
1C7
330
1F
100
AcDbEntity
  8
0
  6
Continuous
 62
     7
370
    15
100
AcDbCircle
 10
360.5366313894
 20
698.0368960747
 30
0.0
 40
4.0
100
AcDbArc
 50
0.0
 51
180.0
  0
ARC
  5
1C8
330
1F
100
AcDbEntity
  8
0
  6
Continuous
 62
     7
370
    15
100
AcDbCircle
 10
360.5366313894
 20
522.0368960747
 30
0.0
 40
4.0
100
AcDbArc
 50
180.0
 51
0.0
  0
ARC
  5
1C9
330
1F
100
AcDbEntity
  8
0
  6
Continuous
 62
     7
370
    15
100
AcDbCircle
 10
404.5366313894
 20
698.0368960747
 30
0.0
 40
4.0
100
AcDbArc
 50
0.0
 51
180.0
  0
ARC
  5
1CA
330
1F
100
AcDbEntity
  8
0
  6
Continuous
 62
     7
370
    15
100
AcDbCircle
 10
404.5366313894
 20
522.0368960747
 30
0.0
 40
4.0
100
AcDbArc
 50
180.0
 51
0.0
  0
ARC
  5
1CB
330
1F
100
AcDbEntity
  8
0
  6
Continuous
 62
     7
370
    15
100
AcDbCircle
 10
415.5366313894
 20
698.0368960747
 30
0.0
 40
4.0
100
AcDbArc
 50
0.0
 51
180.0
  0
ARC
  5
1CC
330
1F
100
AcDbEntity
  8
0
  6
Continuous
 62
     7
370
    15
100
AcDbCircle
 10
415.5366313894
 20
522.0368960747
 30
0.0
 40
4.0
100
AcDbArc
 50
180.0
 51
0.0
  0
ARC
  5
1CD
330
1F
100
AcDbEntity
  8
0
  6
Continuous
 62
     7
370
    15
100
AcDbCircle
 10
426.5366313894
 20
698.0368960747
 30
0.0
 40
4.0
100
AcDbArc
 50
0.0
 51
180.0
  0
ARC
  5
1CE
330
1F
100
AcDbEntity
  8
0
  6
Continuous
 62
     7
370
    15
100
AcDbCircle
 10
426.5366313894
 20
522.0368960747
 30
0.0
 40
4.0
100
AcDbArc
 50
180.0
 51
0.0
  0
ARC
  5
1CF
330
1F
100
AcDbEntity
  8
0
  6
Continuous
 62
     7
370
    15
100
AcDbCircle
 10
437.5366313894
 20
698.0368960747
 30
0.0
 40
4.0
100
AcDbArc
 50
90.0
 51
180.0
  0
ARC
  5
1D0
330
1F
100
AcDbEntity
  8
0
  6
Continuous
 62
     7
370
    15
100
AcDbCircle
 10
437.5366313894
 20
522.0368960747
 30
0.0
 40
4.0
100
AcDbArc
 50
180.0
 51
270.0
  0
ARC
  5
1D1
330
1F
100
AcDbEntity
  8
0
  6
Continuous
 62
     7
370
    15
100
AcDbCircle
 10
289.0366313894
 20
672.0368960747
 30
0.0
 40
1.500000000000057
100
AcDbArc
 50
180.0
 51
0.0
  0
ARC
  5
1D2
330
1F
100
AcDbEntity
  8
0
  6
Continuous
 62
     7
370
    15
100
AcDbCircle
 10
289.0366313894
 20
548.0368960747
 30
0.0
 40
1.5
100
AcDbArc
 50
0.0
 51
180.0
  0
ARC
  5
1D3
330
1F
100
AcDbEntity
  8
0
  6
Continuous
 62
     7
370
    15
100
AcDbCircle
 10
256.0366313894
 20
672.0368960747
 30
0.0
 40
1.500000000000057
100
AcDbArc
 50
180.0
 51
0.0
  0
ARC
  5
1D4
330
1F
100
AcDbEntity
  8
0
  6
Continuous
 62
     7
370
    15
100
AcDbCircle
 10
256.0366313894
 20
548.0368960747
 30
0.0
 40
1.5
100
AcDbArc
 50
0.0
 51
180.0
  0
ARC
  5
1D5
330
1F
100
AcDbEntity
  8
0
  6
Continuous
 62
     7
370
    15
100
AcDbCircle
 10
311.0366313894
 20
672.0368960747
 30
0.0
 40
1.500000000000057
100
AcDbArc
 50
180.0
 51
0.0
  0
ARC
  5
1D6
330
1F
100
AcDbEntity
  8
0
  6
Continuous
 62
     7
370
    15
100
AcDbCircle
 10
311.0366313894
 20
548.0368960747
 30
0.0
 40
1.5
100
AcDbArc
 50
0.0
 51
180.0
  0
ARC
  5
1D7
330
1F
100
AcDbEntity
  8
0
  6
Continuous
 62
     7
370
    15
100
AcDbCircle
 10
300.0366313894
 20
672.0368960747
 30
0.0
 40
1.5
100
AcDbArc
 50
180.0
 51
0.0
  0
ARC
  5
1D8
330
1F
100
AcDbEntity
  8
0
  6
Continuous
 62
     7
370
    15
100
AcDbCircle
 10
300.0366313894
 20
548.0368960747
 30
0.0
 40
1.5
100
AcDbArc
 50
0.0
 51
180.0
  0
ARC
  5
1D9
330
1F
100
AcDbEntity
  8
0
  6
Continuous
 62
     7
370
    15
100
AcDbCircle
 10
278.0366313894
 20
672.0368960747
 30
0.0
 40
1.5
100
AcDbArc
 50
180.0
 51
0.0
  0
ARC
  5
1DA
330
1F
100
AcDbEntity
  8
0
  6
Continuous
 62
     7
370
    15
100
AcDbCircle
 10
278.0366313894
 20
548.0368960747
 30
0.0
 40
1.500000000000057
100
AcDbArc
 50
0.0
 51
180.0
  0
ARC
  5
1DB
330
1F
100
AcDbEntity
  8
0
  6
Continuous
 62
     7
370
    15
100
AcDbCircle
 10
267.0366313894
 20
672.0368960747
 30
0.0
 40
1.500000000000057
100
AcDbArc
 50
180.0
 51
0.0
  0
ARC
  5
1DC
330
1F
100
AcDbEntity
  8
0
  6
Continuous
 62
     7
370
    15
100
AcDbCircle
 10
267.0366313894
 20
548.0368960747
 30
0.0
 40
1.5
100
AcDbArc
 50
0.0
 51
180.0
  0
ARC
  5
1DD
330
1F
100
AcDbEntity
  8
0
  6
Continuous
 62
     7
370
    15
100
AcDbCircle
 10
344.0366313894
 20
672.0368960747
 30
0.0
 40
1.5
100
AcDbArc
 50
180.0
 51
0.0
  0
ARC
  5
1DE
330
1F
100
AcDbEntity
  8
0
  6
Continuous
 62
     7
370
    15
100
AcDbCircle
 10
344.0366313894
 20
548.0368960747
 30
0.0
 40
1.5
100
AcDbArc
 50
0.0
 51
180.0
  0
ARC
  5
1DF
330
1F
100
AcDbEntity
  8
0
  6
Continuous
 62
     7
370
    15
100
AcDbCircle
 10
322.0366313894
 20
672.0368960747
 30
0.0
 40
1.5
100
AcDbArc
 50
180.0
 51
0.0
  0
ARC
  5
1E0
330
1F
100
AcDbEntity
  8
0
  6
Continuous
 62
     7
370
    15
100
AcDbCircle
 10
322.0366313894
 20
548.0368960747
 30
0.0
 40
1.5
100
AcDbArc
 50
0.0
 51
180.0
  0
ARC
  5
1E1
330
1F
100
AcDbEntity
  8
0
  6
Continuous
 62
     7
370
    15
100
AcDbCircle
 10
366.0366313894
 20
672.0368960747
 30
0.0
 40
1.5
100
AcDbArc
 50
180.0
 51
0.0
  0
ARC
  5
1E2
330
1F
100
AcDbEntity
  8
0
  6
Continuous
 62
     7
370
    15
100
AcDbCircle
 10
366.0366313894
 20
548.0368960747
 30
0.0
 40
1.5
100
AcDbArc
 50
0.0
 51
180.0
  0
ARC
  5
1E3
330
1F
100
AcDbEntity
  8
0
  6
Continuous
 62
     7
370
    15
100
AcDbCircle
 10
355.0366313894
 20
672.0368960747
 30
0.0
 40
1.500000000000057
100
AcDbArc
 50
180.0
 51
0.0
  0
ARC
  5
1E4
330
1F
100
AcDbEntity
  8
0
  6
Continuous
 62
     7
370
    15
100
AcDbCircle
 10
355.0366313894
 20
548.0368960747
 30
0.0
 40
1.5
100
AcDbArc
 50
0.0
 51
180.0
  0
ARC
  5
1E5
330
1F
100
AcDbEntity
  8
0
  6
Continuous
 62
     7
370
    15
100
AcDbCircle
 10
333.0366313894
 20
672.0368960747
 30
0.0
 40
1.500000000000057
100
AcDbArc
 50
180.0
 51
0.0
  0
ARC
  5
1E6
330
1F
100
AcDbEntity
  8
0
  6
Continuous
 62
     7
370
    15
100
AcDbCircle
 10
333.0366313894
 20
548.0368960747
 30
0.0
 40
1.5
100
AcDbArc
 50
0.0
 51
180.0
  0
ARC
  5
1E7
330
1F
100
AcDbEntity
  8
0
  6
Continuous
 62
     7
370
    15
100
AcDbCircle
 10
432.0366313894
 20
672.0368960747
 30
0.0
 40
1.5
100
AcDbArc
 50
180.0
 51
0.0
  0
ARC
  5
1E8
330
1F
100
AcDbEntity
  8
0
  6
Continuous
 62
     7
370
    15
100
AcDbCircle
 10
432.0366313894
 20
548.0368960747
 30
0.0
 40
1.500000000000057
100
AcDbArc
 50
0.0
 51
180.0
  0
ARC
  5
1E9
330
1F
100
AcDbEntity
  8
0
  6
Continuous
 62
     7
370
    15
100
AcDbCircle
 10
399.0366313894
 20
672.0368960747
 30
0.0
 40
1.500000000000057
100
AcDbArc
 50
180.0
 51
0.0
  0
ARC
  5
1EA
330
1F
100
AcDbEntity
  8
0
  6
Continuous
 62
     7
370
    15
100
AcDbCircle
 10
399.0366313894
 20
548.0368960747
 30
0.0
 40
1.5
100
AcDbArc
 50
0.0
 51
180.0
  0
ARC
  5
1EB
330
1F
100
AcDbEntity
  8
0
  6
Continuous
 62
     7
370
    15
100
AcDbCircle
 10
410.0366313894
 20
672.0368960747
 30
0.0
 40
1.5
100
AcDbArc
 50
180.0
 51
0.0
  0
ARC
  5
1EC
330
1F
100
AcDbEntity
  8
0
  6
Continuous
 62
     7
370
    15
100
AcDbCircle
 10
410.0366313894
 20
548.0368960747
 30
0.0
 40
1.500000000000057
100
AcDbArc
 50
0.0
 51
180.0
  0
ARC
  5
1ED
330
1F
100
AcDbEntity
  8
0
  6
Continuous
 62
     7
370
    15
100
AcDbCircle
 10
377.0366313894
 20
672.0368960747
 30
0.0
 40
1.500000000000057
100
AcDbArc
 50
180.0
 51
0.0
  0
ARC
  5
1EE
330
1F
100
AcDbEntity
  8
0
  6
Continuous
 62
     7
370
    15
100
AcDbCircle
 10
377.0366313894
 20
548.0368960747
 30
0.0
 40
1.500000000000057
100
AcDbArc
 50
0.0
 51
180.0
  0
ARC
  5
1EF
330
1F
100
AcDbEntity
  8
0
  6
Continuous
 62
     7
370
    15
100
AcDbCircle
 10
421.0366313894
 20
672.0368960747
 30
0.0
 40
1.500000000000057
100
AcDbArc
 50
180.0
 51
0.0
  0
ARC
  5
1F0
330
1F
100
AcDbEntity
  8
0
  6
Continuous
 62
     7
370
    15
100
AcDbCircle
 10
421.0366313894
 20
548.0368960747
 30
0.0
 40
1.5
100
AcDbArc
 50
0.0
 51
180.0
  0
ARC
  5
1F1
330
1F
100
AcDbEntity
  8
0
  6
Continuous
 62
     7
370
    15
100
AcDbCircle
 10
388.0366313894
 20
672.0368960747
 30
0.0
 40
1.5
100
AcDbArc
 50
180.0
 51
0.0
  0
ARC
  5
1F2
330
1F
100
AcDbEntity
  8
0
  6
Continuous
 62
     7
370
    15
100
AcDbCircle
 10
388.0366313894
 20
548.0368960747
 30
0.0
 40
1.5
100
AcDbArc
 50
0.0
 51
180.0
  0
LINE
  5
1F3
330
1F
100
AcDbEntity
  8
0
  6
Continuous
 62
     7
370
    15
100
AcDbLine
 10
226.5366316874
 20
735.0368960747
 30
0.0
 11
226.5366316874
 21
485.0368960747
 31
0.0
  0
LINE
  5
1F4
330
1F
100
AcDbEntity
  8
0
  6
Continuous
 62
     7
370
    15
100
AcDbLine
 10
250.5366281708
 20
735.0368960747
 30
0.0
 11
250.5366281708
 21
485.0368960747
 31
0.0
  0
LINE
  5
1F5
330
1F
100
AcDbEntity
  8
0
  6
Continuous
 62
     7
370
    15
100
AcDbLine
 10
461.5366310914
 20
735.0368960747
 30
0.0
 11
461.5366310914
 21
485.0368960747
 31
0.0
  0
LINE
  5
1F6
330
1F
100
AcDbEntity
  8
0
  6
Continuous
 62
     7
370
    15
100
AcDbLine
 10
437.5366346081
 20
735.0368960747
 30
0.0
 11
437.5366346081
 21
485.0368960747
 31
0.0
  0
LINE
  5
1F7
330
1F
100
AcDbEntity
  8
0
  6
Continuous
 62
     7
370
    15
100
AcDbLine
 10
224.0366340716
 20
711.0368995914
 30
0.0
 11
224.0366340716
 21
509.0368925581
 31
0.0
  0
LINE
  5
1F8
330
1F
100
AcDbEntity
  8
0
  6
Continuous
 62
     7
370
    15
100
AcDbLine
 10
464.0366287072
 20
711.0368995914
 30
0.0
 11
464.0366287072
 21
509.0368925581
 31
0.0
  0
LINE
  5
1F9
330
1F
100
AcDbEntity
  8
0
  6
Continuous
 62
     7
370
    15
100
AcDbLine
 10
265.5366287668
 20
698.0368955979
 30
0.0
 11
265.5366287668
 21
522.0368965516
 31
0.0
  0
LINE
  5
1FA
330
1F
100
AcDbEntity
  8
0
  6
Continuous
 62
     7
370
    15
100
AcDbLine
 10
257.5366349061
 20
698.0368955979
 30
0.0
 11
257.5366349061
 21
522.0368965516
 31
0.0
  0
LINE
  5
1FB
330
1F
100
AcDbEntity
  8
0
  6
Continuous
 62
     7
370
    15
100
AcDbLine
 10
254.5366288264
 20
698.0368955979
 30
0.0
 11
254.5366288264
 21
522.0368965516
 31
0.0
  0
LINE
  5
1FC
330
1F
100
AcDbEntity
  8
0
  6
Continuous
 62
     7
370
    15
100
AcDbLine
 10
276.5366287072
 20
698.0368955979
 30
0.0
 11
276.5366287072
 21
522.0368965516
 31
0.0
  0
LINE
  5
1FD
330
1F
100
AcDbEntity
  8
0
  6
Continuous
 62
     7
370
    15
100
AcDbLine
 10
268.5366348465
 20
698.0368955979
 30
0.0
 11
268.5366348465
 21
522.0368965516
 31
0.0
  0
LINE
  5
1FE
330
1F
100
AcDbEntity
  8
0
  6
Continuous
 62
     7
370
    15
100
AcDbLine
 10
287.5366323729
 20
698.0368955979
 30
0.0
 11
287.5366323729
 21
522.0368965516
 31
0.0
  0
LINE
  5
1FF
330
1F
100
AcDbEntity
  8
0
  6
Continuous
 62
     7
370
    15
100
AcDbLine
 10
279.5366347869
 20
698.0368955979
 30
0.0
 11
279.5366347869
 21
522.0368965516
 31
0.0
  0
LINE
  5
200
330
1F
100
AcDbEntity
  8
0
  6
Continuous
 62
     7
370
    15
100
AcDbLine
 10
342.5366313764
 20
698.0368955979
 30
0.0
 11
342.5366313764
 21
522.0368965516
 31
0.0
  0
LINE
  5
201
330
1F
100
AcDbEntity
  8
0
  6
Continuous
 62
     7
370
    15
100
AcDbLine
 10
334.5366316949
 20
698.0368955979
 30
0.0
 11
334.5366316949
 21
522.0368965516
 31
0.0
  0
LINE
  5
202
330
1F
100
AcDbEntity
  8
0
  6
Continuous
 62
     7
370
    15
100
AcDbLine
 10
386.5366318364
 20
698.0368955979
 30
0.0
 11
386.5366318364
 21
522.0368965516
 31
0.0
  0
LINE
  5
203
330
1F
100
AcDbEntity
  8
0
  6
Continuous
 62
     7
370
    15
100
AcDbLine
 10
378.5366305251
 20
698.0368955979
 30
0.0
 11
378.5366305251
 21
522.0368965516
 31
0.0
  0
LINE
  5
204
330
1F
100
AcDbEntity
  8
0
  6
Continuous
 62
     7
370
    15
100
AcDbLine
 10
375.536631896
 20
698.0368955979
 30
0.0
 11
375.536631896
 21
522.0368965516
 31
0.0
  0
LINE
  5
205
330
1F
100
AcDbEntity
  8
0
  6
Continuous
 62
     7
370
    15
100
AcDbLine
 10
367.5366305847
 20
698.0368955979
 30
0.0
 11
367.5366305847
 21
522.0368965516
 31
0.0
  0
LINE
  5
206
330
1F
100
AcDbEntity
  8
0
  6
Continuous
 62
     7
370
    15
100
AcDbLine
 10
309.5366322537
 20
698.0368955979
 30
0.0
 11
309.5366322537
 21
522.0368965516
 31
0.0
  0
LINE
  5
207
330
1F
100
AcDbEntity
  8
0
  6
Continuous
 62
     7
370
    15
100
AcDbLine
 10
301.5366309424
 20
698.0368955979
 30
0.0
 11
301.5366309424
 21
522.0368965516
 31
0.0
  0
LINE
  5
208
330
1F
100
AcDbEntity
  8
0
  6
Continuous
 62
     7
370
    15
100
AcDbLine
 10
353.5366310839
 20
698.0368955979
 30
0.0
 11
353.5366310839
 21
522.0368965516
 31
0.0
  0
LINE
  5
209
330
1F
100
AcDbEntity
  8
0
  6
Continuous
 62
     7
370
    15
100
AcDbLine
 10
345.5366314024
 20
698.0368955979
 30
0.0
 11
345.5366314024
 21
522.0368965516
 31
0.0
  0
LINE
  5
20A
330
1F
100
AcDbEntity
  8
0
  6
Continuous
 62
     7
370
    15
100
AcDbLine
 10
331.5366312031
 20
698.0368955979
 30
0.0
 11
331.5366312031
 21
522.0368965516
 31
0.0
  0
LINE
  5
20B
330
1F
100
AcDbEntity
  8
0
  6
Continuous
 62
     7
370
    15
100
AcDbLine
 10
323.5366308232
 20
698.0368955979
 30
0.0
 11
323.5366308232
 21
522.0368965516
 31
0.0
  0
LINE
  5
20C
330
1F
100
AcDbEntity
  8
0
  6
Continuous
 62
     7
370
    15
100
AcDbLine
 10
397.5366317768
 20
698.0368955979
 30
0.0
 11
397.5366317768
 21
522.0368965516
 31
0.0
  0
LINE
  5
20D
330
1F
100
AcDbEntity
  8
0
  6
Continuous
 62
     7
370
    15
100
AcDbLine
 10
389.5366304655
 20
698.0368955979
 30
0.0
 11
389.5366304655
 21
522.0368965516
 31
0.0
  0
LINE
  5
20E
330
1F
100
AcDbEntity
  8
0
  6
Continuous
 62
     7
370
    15
100
AcDbLine
 10
298.5366323133
 20
698.0368955979
 30
0.0
 11
298.5366323133
 21
522.0368965516
 31
0.0
  0
LINE
  5
20F
330
1F
100
AcDbEntity
  8
0
  6
Continuous
 62
     7
370
    15
100
AcDbLine
 10
290.536631002
 20
698.0368955979
 30
0.0
 11
290.536631002
 21
522.0368965516
 31
0.0
  0
LINE
  5
210
330
1F
100
AcDbEntity
  8
0
  6
Continuous
 62
     7
370
    15
100
AcDbLine
 10
320.5366321941
 20
698.0368955979
 30
0.0
 11
320.5366321941
 21
522.0368965516
 31
0.0
  0
LINE
  5
211
330
1F
100
AcDbEntity
  8
0
  6
Continuous
 62
     7
370
    15
100
AcDbLine
 10
312.5366308828
 20
698.0368955979
 30
0.0
 11
312.5366308828
 21
522.0368965516
 31
0.0
  0
LINE
  5
212
330
1F
100
AcDbEntity
  8
0
  6
Continuous
 62
     7
370
    15
100
AcDbLine
 10
364.5366319557
 20
698.0368955979
 30
0.0
 11
364.5366319557
 21
522.0368965516
 31
0.0
  0
LINE
  5
213
330
1F
100
AcDbEntity
  8
0
  6
Continuous
 62
     7
370
    15
100
AcDbLine
 10
356.5366315757
 20
698.0368955979
 30
0.0
 11
356.5366315757
 21
522.0368965516
 31
0.0
  0
LINE
  5
214
330
1F
100
AcDbEntity
  8
0
  6
Continuous
 62
     7
370
    15
100
AcDbLine
 10
408.5366279919
 20
698.0368955979
 30
0.0
 11
408.5366279919
 21
522.0368965516
 31
0.0
  0
LINE
  5
215
330
1F
100
AcDbEntity
  8
0
  6
Continuous
 62
     7
370
    15
100
AcDbLine
 10
400.5366304059
 20
698.0368955979
 30
0.0
 11
400.5366304059
 21
522.0368965516
 31
0.0
  0
LINE
  5
216
330
1F
100
AcDbEntity
  8
0
  6
Continuous
 62
     7
370
    15
100
AcDbLine
 10
419.5366279323
 20
698.0368955979
 30
0.0
 11
419.5366279323
 21
522.0368965516
 31
0.0
  0
LINE
  5
217
330
1F
100
AcDbEntity
  8
0
  6
Continuous
 62
     7
370
    15
100
AcDbLine
 10
411.5366340716
 20
698.0368955979
 30
0.0
 11
411.5366340716
 21
522.0368965516
 31
0.0
  0
LINE
  5
218
330
1F
100
AcDbEntity
  8
0
  6
Continuous
 62
     7
370
    15
100
AcDbLine
 10
430.5366278727
 20
698.0368955979
 30
0.0
 11
430.5366278727
 21
522.0368965516
 31
0.0
  0
LINE
  5
219
330
1F
100
AcDbEntity
  8
0
  6
Continuous
 62
     7
370
    15
100
AcDbLine
 10
422.536634012
 20
698.0368955979
 30
0.0
 11
422.536634012
 21
522.0368965516
 31
0.0
  0
LINE
  5
21A
330
1F
100
AcDbEntity
  8
0
  6
Continuous
 62
     7
370
    15
100
AcDbLine
 10
433.5366339524
 20
698.0368955979
 30
0.0
 11
433.5366339524
 21
522.0368965516
 31
0.0
  0
CIRCLE
  5
21B
330
1F
100
AcDbEntity
  8
0
  6
Continuous
 62
     7
370
    15
100
AcDbCircle
 10
858.0080126506
 20
610.0368960747
 30
0.0
 40
58.00000000000011
  0
CIRCLE
  5
21C
330
1F
100
AcDbEntity
  8
0
  6
Continuous
 62
     7
370
    15
100
AcDbCircle
 10
858.0080126506
 20
610.0368960747
 30
0.0
 40
101.0
  0
CIRCLE
  5
21D
330
1F
100
AcDbEntity
  8
0
  6
Continuous
 62
     7
370
    15
100
AcDbCircle
 10
858.0080126506
 20
610.0368960747
 30
0.0
 40
82.50000000000261
  0
CIRCLE
  5
21E
330
1F
100
AcDbEntity
  8
0
  6
Continuous
 62
     7
370
    15
100
AcDbCircle
 10
858.0080126506
 20
610.0368960747
 30
0.0
 40
79.6715728752556
  0
CIRCLE
  5
21F
330
1F
100
AcDbEntity
  8
0
  6
Continuous
 62
     7
370
    15
100
AcDbCircle
 10
858.0080126506
 20
610.0368960747
 30
0.0
 40
73.67157287525401
  0
CIRCLE
  5
220
330
1F
100
AcDbEntity
  8
0
  6
Continuous
 62
     7
370
    15
100
AcDbCircle
 10
858.0080126506
 20
610.0368960747
 30
0.0
 40
125.0
  0
CIRCLE
  5
221
330
1F
100
AcDbEntity
  8
0
  6
Continuous
 62
     7
370
    15
100
AcDbCircle
 10
858.0080126506
 20
722.5368960747
 30
0.0
 40
7.5
  0
CIRCLE
  5
222
330
1F
100
AcDbEntity
  8
0
  6
Continuous
 62
     7
370
    15
100
AcDbCircle
 10
937.5575255341
 20
689.5864089582
 30
0.0
 40
7.50000000000006
  0
CIRCLE
  5
223
330
1F
100
AcDbEntity
  8
0
  6
Continuous
 62
     7
370
    15
100
AcDbCircle
 10
778.4584997671
 20
689.5864089582
 30
0.0
 40
7.49999999999998
  0
CIRCLE
  5
224
330
1F
100
AcDbEntity
  8
0
  6
Continuous
 62
     7
370
    15
100
AcDbCircle
 10
745.5080126506
 20
610.0368960747
 30
0.0
 40
7.500000000000114
  0
CIRCLE
  5
225
330
1F
100
AcDbEntity
  8
0
  6
Continuous
 62
     7
370
    15
100
AcDbCircle
 10
778.4584997671
 20
530.4873831912
 30
0.0
 40
7.4999999999999
  0
CIRCLE
  5
226
330
1F
100
AcDbEntity
  8
0
  6
Continuous
 62
     7
370
    15
100
AcDbCircle
 10
858.0080126506
 20
497.5368960747
 30
0.0
 40
7.500000000000114
  0
CIRCLE
  5
227
330
1F
100
AcDbEntity
  8
0
  6
Continuous
 62
     7
370
    15
100
AcDbCircle
 10
937.5575255341
 20
530.4873831912
 30
0.0
 40
7.49999999999998
  0
CIRCLE
  5
228
330
1F
100
AcDbEntity
  8
0
  6
Continuous
 62
     7
370
    15
100
AcDbCircle
 10
970.5080126506
 20
610.0368960747
 30
0.0
 40
7.5
  0
CIRCLE
  5
229
330
1F
100
AcDbEntity
  8
0
  6
Continuous
 62
     7
370
    15
100
AcDbCircle
 10
858.0080126506
 20
610.0368960747
 30
0.0
 40
72.5
  0
CIRCLE
  5
22A
330
1F
100
AcDbEntity
  8
0
  6
Continuous
 62
     7
370
    15
100
AcDbCircle
 10
858.0080126506
 20
610.0368960747
 30
0.0
 40
71.00000000000011
  0
CIRCLE
  5
22B
330
1F
100
AcDbEntity
  8
0
  6
Continuous
 62
     7
370
    15
100
AcDbCircle
 10
858.0080126506
 20
610.0368960747
 30
0.0
 40
62.0
  0
LINE
  5
22C
330
1F
100
AcDbEntity
  8
0
  6
Continuous
 62
     7
370
    15
100
AcDbLine
 10
935.9835847962
 20
287.1332989
 30
0.0
 11
919.0130245344
 21
296.9301948064
 31
0.0
  0
LINE
  5
22D
330
1F
100
AcDbEntity
  8
0
  6
Continuous
 62
     7
370
    15
100
AcDbLine
 10
794.0231840642
 20
80.4179825581
 30
0.0
 11
810.993744326
 21
70.6210866518
 31
0.0
  0
LINE
  5
22E
330
1F
100
AcDbEntity
  8
0
  6
Continuous
 62
     7
370
    15
100
AcDbLine
 10
925.7523266847
 20
265.3276206914
 30
0.0
 11
923.9845614176
 21
266.348129858
 31
0.0
  0
LINE
  5
22F
330
1F
100
AcDbEntity
  8
0
  6
Continuous
 62
     7
370
    15
100
AcDbLine
 10
822.9927677046
 20
91.4062556939
 30
0.0
 11
824.7605329716
 21
90.3857465273
 31
0.0
  0
SPLINE
  5
230
330
1F
100
AcDbEntity
  8
0
  6
Continuous
 62
     7
370
    15
100
AcDbSpline
210
0.0
220
0.0
230
1.0
 70
     8
 71
     3
 72
    33
 73
    29
 74
     0
 42
0.000000001
 43
0.00000001
 40
0.0
 40
0.0
 40
0.0
 40
0.0
 40
0.0161060062707805
 40
0.0556957738393032
 40
0.0953140490893039
 40
0.1349609818510419
 40
0.1746353996460299
 40
0.2143351880728924
 40
0.2540576410049755
 40
0.2937996832162836
 40
0.3335579687449973
 40
0.3733288852706219
 40
0.4131089291160839
 40
0.4528944013812338
 40
0.4926815741178028
 40
0.5324660327343395
 40
0.5722435516099748
 40
0.6120103049762501
 40
0.6517626809625663
 40
0.6914968829653022
 40
0.7312093401692832
 40
0.7708966211583971
 40
0.810555489792267
 40
0.8501831992066887
 40
0.8897775813796346
 40
0.9293375146351457
 40
0.9688632594250237
 40
1.0
 40
1.0
 40
1.0
 40
1.0
 10
818.6735744742249
 20
155.2327000831364
 30
0.0
 10
818.7290423853217
 20
155.7564039384751
 30
0.0
 10
818.9208545689168
 20
157.5674110246097
 30
0.0
 10
819.4365438167873
 20
160.7505092800658
 30
0.0
 10
820.2156109818319
 20
164.7638362303362
 30
0.0
 10
821.1813891692796
 20
168.8344742210584
 30
0.0
 10
822.3172969193071
 20
172.94181437112
 30
0.0
 10
823.6237605716808
 20
177.0733581466325
 30
0.0
 10
825.0957865616119
 20
181.2142899156028
 30
0.0
 10
826.7289948423746
 20
185.3503665614063
 30
0.0
 10
828.5180210959873
 20
189.4672027102618
 30
0.0
 10
830.4569670987778
 20
193.5505609632526
 30
0.0
 10
832.539358906516
 20
197.5863104769762
 30
0.0
 10
834.7581503432752
 20
201.5605247628065
 30
0.0
 10
837.1057261355712
 20
205.4595019088593
 30
0.0
 10
839.5739903373703
 20
209.2697941396847
 30
0.0
 10
842.154328715131
 20
212.9783113568335
 30
0.0
 10
844.8377014790791
 20
216.5723715830477
 30
0.0
 10
847.6146686624625
 20
220.039730910701
 30
0.0
 10
850.4753837774828
 20
223.3686410033026
 30
0.0
 10
853.4096423744386
 20
226.5478718538563
 30
0.0
 10
856.4069037429964
 20
229.5667773957926
 30
0.0
 10
859.4563727311438
 20
232.4154061429568
 30
0.0
 10
862.5469352521122
 20
235.0841230936151
 30
0.0
 10
865.6674074665176
 20
237.5655324191089
 30
0.0
 10
868.8060705488099
 20
239.8472457331417
 30
0.0
 10
871.73070714001
 20
241.7920537876188
 30
0.0
 10
873.6028862478029
 20
242.9011908519017
 30
0.0
 10
874.427843859869
 20
243.3899213692951
 30
0.0
  0
SPLINE
  5
231
330
1F
100
AcDbEntity
  8
0
  6
Continuous
 62
     7
370
    15
100
AcDbSpline
210
0.0
220
0.0
230
1.0
 70
     8
 71
     3
 72
    18
 73
    14
 74
     0
 42
0.000000001
 43
0.00000001
 40
0.0
 40
0.0
 40
0.0
 40
0.0
 40
0.0868012142206124
 40
0.1874587614041457
 40
0.2875017026556188
 40
0.3865428189758996
 40
0.484452604779878
 40
0.5813028435788624
 40
0.6772714994162068
 40
0.7725663082974031
 40
0.8673818876108779
 40
0.9618810831085397
 40
1.0
 40
1.0
 40
1.0
 40
1.0
 10
831.7973549939562
 20
119.2502587427213
 30
0.0
 10
831.2146231066589
 20
119.60744869604
 30
0.0
 10
829.9561361280573
 20
120.3788478848228
 30
0.0
 10
828.1855390685877
 20
121.8386702318683
 30
0.0
 10
826.4592853469152
 20
123.5660838596976
 30
0.0
 10
824.887484794387
 20
125.5084985723883
 30
0.0
 10
823.4710170630354
 20
127.6480174051545
 30
0.0
 10
822.2137148835451
 20
129.9771679987574
 30
0.0
 10
821.1183869982632
 20
132.4883353502807
 30
0.0
 10
820.1835098957956
 20
135.171096776213
 30
0.0
 10
819.4250943373133
 20
138.0298455192048
 30
0.0
 10
818.9201476297038
 20
140.4214420976831
 30
0.0
 10
818.7303310605803
 20
141.9098472460467
 30
0.0
 10
818.6757713787035
 20
142.337665069187
 30
0.0
  0
SPLINE
  5
232
330
1F
100
AcDbEntity
  8
0
  6
Continuous
 62
     7
370
    15
100
AcDbSpline
210
0.0
220
0.0
230
1.0
 70
     8
 71
     3
 72
    20
 73
    16
 74
     0
 42
0.000000001
 43
0.00000001
 40
0.0
 40
0.0
 40
0.0
 40
0.0
 40
0.0679243084608091
 40
0.1469118334008047
 40
0.2258972685913418
 40
0.3049257250808736
 40
0.3840685547952822
 40
0.4634225075557517
 40
0.5431131718455353
 40
0.6232938078654445
 40
0.7041362482324685
 40
0.7858074015480853
 40
0.8684236579694221
 40
0.9519835405230722
 40
1.0
 40
1.0
 40
1.0
 40
1.0
 10
872.1787006674151
 20
242.0334608849133
 30
0.0
 10
873.035785393034
 20
242.4799625572328
 30
0.0
 10
874.8895530834795
 20
243.445690155841
 30
0.0
 10
877.7047928562072
 20
244.6658895938759
 30
0.0
 10
880.6162893289506
 20
245.7452408255284
 30
0.0
 10
883.4721920170952
 20
246.5950039349973
 30
0.0
 10
886.2633356873279
 20
247.2217729916129
 30
0.0
 10
888.98083681938
 20
247.6237806319852
 30
0.0
 10
891.6173561655106
 20
247.8020568968964
 30
0.0
 10
894.1671511157537
 20
247.7572671215106
 30
0.0
 10
896.6252224148813
 20
247.488546629059
 30
0.0
 10
898.9899006545905
 20
246.9980653044738
 30
0.0
 10
901.2499747132947
 20
246.2705015240203
 30
0.0
 10
903.1126659774126
 20
245.4846719256016
 30
0.0
 10
904.1693086203952
 20
244.8503870532134
 30
0.0
 10
904.5549116692821
 20
244.6189160045291
 30
0.0
  0
SPLINE
  5
233
330
1F
100
AcDbEntity
  8
0
  6
Continuous
 62
     7
370
    15
100
AcDbSpline
210
0.0
220
0.0
230
1.0
 70
     8
 71
     3
 72
    19
 73
    15
 74
     0
 42
0.000000001
 43
0.00000001
 40
0.0
 40
0.0
 40
0.0
 40
0.0
 40
0.0288545008176114
 40
0.1224811813510307
 40
0.2160803313033798
 40
0.3096585357888317
 40
0.4032226594656705
 40
0.4967796035443887
 40
0.5903363109793108
 40
0.6838983160378054
 40
0.7774719023343648
 40
0.8710640880801148
 40
0.9646818580559197
 40
1.0
 40
1.0
 40
1.0
 40
1.0
 10
807.927616414535
 20
245.8701792679249
 30
0.0
 10
807.6110382266959
 20
245.4941992165276
 30
0.0
 10
806.2672315643797
 20
243.8982443549049
 30
0.0
 10
803.991791541869
 20
240.9445523173374
 30
0.0
 10
801.1138452374919
 20
237.0207837453871
 30
0.0
 10
798.3554804840957
 20
232.976153393308
 30
0.0
 10
795.715747846128
 20
228.8348128902588
 30
0.0
 10
793.2043058706616
 20
224.6049311277014
 30
0.0
 10
790.8272516084874
 20
220.2992953168549
 30
0.0
 10
788.5924283420723
 20
215.9296389108495
 30
0.0
 10
786.5024433186388
 20
211.5083754509295
 30
0.0
 10
784.5769607750658
 20
207.0471576313587
 30
0.0
 10
783.1455341046192
 20
203.4924340465845
 30
0.0
 10
782.4160082712162
 20
201.4264679846993
 30
0.0
 10
782.2161764590211
 20
200.8605582894186
 30
0.0
  0
SPLINE
  5
234
330
1F
100
AcDbEntity
  8
0
  6
Continuous
 62
     7
370
    15
100
AcDbSpline
210
0.0
220
0.0
230
1.0
 70
     8
 71
     3
 72
    41
 73
    37
 74
     0
 42
0.000000001
 43
0.00000001
 40
0.0
 40
0.0
 40
0.0
 40
0.0
 40
0.0160259253479978
 40
0.0463314730671205
 40
0.0766255986567223
 40
0.1069065746452361
 40
0.1371719965863004
 40
0.1674208859298484
 40
0.1976532720570499
 40
0.2278699701481412
 40
0.2580722158534823
 40
0.2882617185544104
 40
0.3184403249572527
 40
0.3486100574518733
 40
0.3787730385759924
 40
0.4089314810817299
 40
0.4390876094055914
 40
0.4692436614496769
 40
0.4994014210630084
 40
0.5295629136467199
 40
0.5597304013746921
 40
0.5899061355723834
 40
0.6200924002597116
 40
0.6502913875922389
 40
0.6805052282619443
 40
0.7107358818035179
 40
0.7409850725980466
 40
0.7712541876795929
 40
0.8015440368960426
 40
0.8318546388126566
 40
0.8621849116354846
 40
0.8925322075652334
 40
0.9228918090173327
 40
0.9532549711226866
 40
0.9836078290438589
 40
1.0
 40
1.0
 40
1.0
 40
1.0
 10
831.1837416606643
 20
277.46461037902
 30
0.0
 10
830.5586166627736
 20
277.0974662694521
 30
0.0
 10
828.7513598975988
 20
276.036040669693
 30
0.0
 10
825.7728299053938
 20
274.1161533405962
 30
0.0
 10
822.2638334046297
 20
271.6433657101246
 30
0.0
 10
818.7896092031332
 20
268.9692558627933
 30
0.0
 10
815.3594022401738
 20
266.1057750439911
 30
0.0
 10
811.9825046743117
 20
263.060550953003
 30
0.0
 10
808.6680061687109
 20
259.8428908072356
 30
0.0
 10
805.4248140468605
 20
256.4621441740728
 30
0.0
 10
802.261664992043
 20
252.9281081828267
 30
0.0
 10
799.1871001235763
 20
249.2509241956226
 30
0.0
 10
796.209438492487
 20
245.441070477076
 30
0.0
 10
793.3367897725753
 20
241.5093483652718
 30
0.0
 10
790.5770066337153
 20
237.4668465013076
 30
0.0
 10
787.9376674810238
 20
233.3249338306942
 30
0.0
 10
785.426069636891
 20
229.0952127381096
 30
0.0
 10
783.0492138061854
 20
224.7895245983465
 30
0.0
 10
780.8137684274984
 20
220.4199077226617
 30
0.0
 10
778.726073854911
 20
215.9985384509618
 30
0.0
 10
776.7920491076045
 20
211.537704462228
 30
0.0
 10
775.0172871738939
 20
207.0497350261898
 30
0.0
 10
773.406962271534
 20
202.5470149238965
 30
0.0
 10
771.9658587128096
 20
198.041939382879
 30
0.0
 10
770.6983820742142
 20
193.5468773837979
 30
0.0
 10
769.6085128939634
 20
189.074157235269
 30
0.0
 10
768.6998524275366
 20
184.6360321821624
 30
0.0
 10
767.9755861733905
 20
180.2446642906065
 30
0.0
 10
767.4385056879412
 20
175.9120958094128
 30
0.0
 10
767.0910537253806
 20
171.6503358899251
 30
0.0
 10
766.9349802778504
 20
167.471041779994
 30
0.0
 10
766.9727613775751
 20
163.3866457837455
 30
0.0
 10
767.2022328932172
 20
159.4065036521892
 30
0.0
 10
767.6361408100612
 20
155.5514323281005
 30
0.0
 10
768.1385346393264
 20
152.3741899051626
 30
0.0
 10
768.5726938224686
 20
150.5416231982302
 30
0.0
 10
768.7249412747256
 20
149.8989934369478
 30
0.0
  0
SPLINE
  5
235
330
1F
100
AcDbEntity
  8
0
  6
Continuous
 62
     7
370
    15
100
AcDbSpline
210
0.0
220
0.0
230
1.0
 70
     8
 71
     3
 72
    12
 73
     8
 74
     0
 42
0.000000001
 43
0.00000001
 40
0.0
 40
0.0
 40
0.0
 40
0.0
 40
0.2205681713646019
 40
0.4520020994963601
 40
0.6837667586024923
 40
0.9157213911616415
 40
1.0
 40
1.0
 40
1.0
 40
1.0
 10
846.4507658183376
 20
284.1942326681872
 30
0.0
 10
845.336468297056
 20
283.8393955277592
 30
0.0
 10
843.0529800858295
 20
283.1122410545617
 30
0.0
 10
839.572036156115
 20
281.718500761085
 30
0.0
 10
836.0247010746479
 20
280.0885611841799
 30
0.0
 10
833.2257127609705
 20
278.62897507453
 30
0.0
 10
831.6134280320427
 20
277.7096244445472
 30
0.0
 10
831.1837416606643
 20
277.46461037902
 30
0.0
  0
SPLINE
  5
236
330
1F
100
AcDbEntity
  8
0
  6
Continuous
 62
     7
370
    15
100
AcDbSpline
210
0.0
220
0.0
230
1.0
 70
     8
 71
     3
 72
    46
 73
    42
 74
     0
 42
0.000000001
 43
0.00000001
 40
0.0
 40
0.0
 40
0.0
 40
0.0
 40
0.0137643780306674
 40
0.0397932659840581
 40
0.0658123436765603
 40
0.0918201274140242
 40
0.1178145520608676
 40
0.1437947771580998
 40
0.1697608279406775
 40
0.1957134045521921
 40
0.221653568270436
 40
0.2475827872521871
 40
0.2735026476001788
 40
0.2994148863085633
 40
0.3253213263866791
 40
0.3512238683273841
 40
0.3771244226590443
 40
0.4030249114753817
 40
0.4289268668921247
 40
0.454832028489751
 40
0.4807423392085768
 40
0.5066597326714045
 40
0.5325861705817173
 40
0.5585235357423616
 40
0.5844736581662212
 40
0.6104382208622743
 40
0.636418704870313
 40
0.6624163014888592
 40
0.6884317062816451
 40
0.7144649351940382
 40
0.7405150590927396
 40
0.7665798038307267
 40
0.792655117559759
 40
0.8187334894696059
 40
0.8448030113016385
 40
0.8708497801666071
 40
0.8968561124938885
 40
0.922800743484538
 40
0.9486599990792157
 40
0.9744096877060903
 40
1.0
 40
1.0
 40
1.0
 40
1.0
 10
823.4055671097591
 20
281.9548549697141
 30
0.0
 10
822.7804421118685
 20
281.5877108601462
 30
0.0
 10
820.9731853466936
 20
280.526285260387
 30
0.0
 10
817.9946553544887
 20
278.6063979312902
 30
0.0
 10
814.4856588537245
 20
276.1336103008186
 30
0.0
 10
811.0114346522279
 20
273.4595004534874
 30
0.0
 10
807.5812276892686
 20
270.5960196346851
 30
0.0
 10
804.2043301234065
 20
267.5507955436971
 30
0.0
 10
800.8898316178057
 20
264.3331353979296
 30
0.0
 10
797.6466394959554
 20
260.9523887647669
 30
0.0
 10
794.4834904411379
 20
257.4183527735207
 30
0.0
 10
791.4089255726711
 20
253.7411687863167
 30
0.0
 10
788.431263941582
 20
249.93131506777
 30
0.0
 10
785.5586152216702
 20
245.9995929559658
 30
0.0
 10
782.7988320828103
 20
241.9570910920017
 30
0.0
 10
780.1594929301183
 20
237.8151784213881
 30
0.0
 10
777.6478950859869
 20
233.5854573288045
 30
0.0
 10
775.2710392552762
 20
229.2797691890375
 30
0.0
 10
773.0355938766088
 20
224.9101523133672
 30
0.0
 10
770.947899303948
 20
220.4887830416131
 30
0.0
 10
769.0138745569152
 20
216.0279490530815
 30
0.0
 10
767.2391126221827
 20
211.5399796162887
 30
0.0
 10
765.6287877236388
 20
207.0372595168128
 30
0.0
 10
764.1876841506639
 20
202.5321839652738
 30
0.0
 10
762.9202075652913
 20
198.0371220054889
 30
0.0
 10
761.8303381862434
 20
193.5644017101815
 30
0.0
 10
760.9216784624233
 20
189.1262772053659
 30
0.0
 10
760.1974094340916
 20
184.7349072655376
 30
0.0
 10
759.6603393126361
 20
180.4023464364203
 30
0.0
 10
759.3128486318199
 20
176.1405579299759
 30
0.0
 10
759.1569198202975
 20
171.9613706095484
 30
0.0
 10
759.1941606953679
 20
167.8765757477368
 30
0.0
 10
759.4256494503406
 20
163.8979230100746
 30
0.0
 10
759.8520283285877
 20
160.0372927500952
 30
0.0
 10
760.4732915153862
 20
156.3066257171034
 30
0.0
 10
761.2886138511341
 20
152.7177381369465
 30
0.0
 10
762.296751356594
 20
149.2828224807997
 30
0.0
 10
763.4939170573873
 20
146.0123075832751
 30
0.0
 10
764.8808514631638
 20
142.9224638852953
 30
0.0
 10
766.4355182441644
 20
140.00744571122
 30
0.0
 10
767.6237933927243
 20
138.2259597095277
 30
0.0
 10
768.2160865675853
 20
137.3379818693855
 30
0.0
  0
SPLINE
  5
237
330
1F
100
AcDbEntity
  8
0
  6
Continuous
 62
     7
370
    15
100
AcDbSpline
210
0.0
220
0.0
230
1.0
 70
     8
 71
     3
 72
    18
 73
    14
 74
     0
 42
0.000000001
 43
0.00000001
 40
0.0
 40
0.0
 40
0.0
 40
0.0
 40
0.0345134378061355
 40
0.1358520854515901
 40
0.237764920159754
 40
0.34022299227494
 40
0.4431639987692221
 40
0.546505486879109
 40
0.6501580471161299
 40
0.754035375994641
 40
0.8580611527036001
 40
0.9621721975292788
 40
0.9999999999999999
 40
0.9999999999999999
 40
0.9999999999999999
 40
0.9999999999999999
 10
856.6236242028665
 20
290.802410380841
 30
0.0
 10
856.2689453045235
 20
290.8396014780381
 30
0.0
 10
854.8728552286462
 20
290.9859933890049
 30
0.0
 10
852.3535940604622
 20
290.9904987967681
 30
0.0
 10
849.0718143343253
 20
290.8146682197498
 30
0.0
 10
845.7141562035208
 20
290.3765812980772
 30
0.0
 10
842.2975485433134
 20
289.6981782892361
 30
0.0
 10
838.8310087944159
 20
288.775203593347
 30
0.0
 10
835.3262112063157
 20
287.6117305126824
 30
0.0
 10
831.7942277984799
 20
286.2119433399533
 30
0.0
 10
828.2464255771134
 20
284.5779242481533
 30
0.0
 10
825.4475459551257
 20
283.1192872997525
 30
0.0
 10
823.8352551109094
 20
282.1998832673893
 30
0.0
 10
823.4055671097591
 20
281.9548549697141
 30
0.0
  0
SPLINE
  5
238
330
1F
100
AcDbEntity
  8
0
  6
Continuous
 62
     7
370
    15
100
AcDbSpline
210
0.0
220
0.0
230
1.0
 70
     8
 71
     3
 72
    80
 73
    76
 74
     0
 42
0.000000001
 43
0.00000001
 40
0.0
 40
0.0
 40
0.0
 40
0.0
 40
0.0070963147756959
 40
0.0206330162148279
 40
0.0341611461019893
 40
0.0476894418816045
 40
0.0612308854115877
 40
0.074806219477341
 40
0.0884443284435444
 40
0.1021832255925178
 40
0.116069084162025
 40
0.1301510236041567
 40
0.1444677937220523
 40
0.1590238925571457
 40
0.1737613817065177
 40
0.188534393572523
 40
0.2031645145958046
 40
0.2175666694820176
 40
0.2317294148366031
 40
0.2456872267830897
 40
0.2594901321650719
 40
0.2731861030601224
 40
0.2868144481339103
 40
0.3004047436799718
 40
0.313978006883407
 40
0.3275476267065725
 40
0.3411209304229448
 40
0.3547044173841779
 40
0.3683016388946336
 40
0.3819140851337989
 40
0.3955418540667925
 40
0.4091841314555977
 40
0.4228394800553323
 40
0.43650611480151
 40
0.4501820159152843
 40
0.4638650324562686
 40
0.4775529286417292
 40
0.4912434295508951
 40
0.504934255910924
 40
0.5186224163209474
 40
0.5323055116587181
 40
0.5459812196332051
 40
0.5596472703531393
 40
0.5733014016810078
 40
0.586941487392435
 40
0.6005655932376547
 40
0.6141721196929179
 40
0.6277600341608012
 40
0.6413291748692688
 40
0.654880714028296
 40
0.6684177871544356
 40
0.6819463661923875
 40
0.6954741355083573
 40
0.7090130082140905
 40
0.7225828102824188
 40
0.7362113608598101
 40
0.7499355678230151
 40
0.7638007519545172
 40
0.7778561933298485
 40
0.7921429758894276
 40
0.8066713847978814
 40
0.8213922760029102
 40
0.8361734451924299
 40
0.8508272405232767
 40
0.8652592064059144
 40
0.8794500031913626
 40
0.893430315911707
 40
0.9072494678546169
 40
0.9209562246233014
 40
0.9345910713838463
 40
0.9481847402522103
 40
0.9617592071464054
 40
0.9753290092894669
 40
0.9889014419383187
 40
1.0
 40
1.0
 40
1.0
 40
1.0
 10
862.4070252922435
 20
233.5903020697241
 30
0.0
 10
862.8729756253776
 20
233.8537193670853
 30
0.0
 10
864.2277578021478
 20
234.6196230141915
 30
0.0
 10
866.4547235692899
 20
235.7256563736114
 30
0.0
 10
869.0640716985027
 20
236.8322393385683
 30
0.0
 10
871.6215050687164
 20
237.7148905273785
 30
0.0
 10
874.1154151545531
 20
238.3764216475398
 30
0.0
 10
876.5353619573305
 20
238.8164003263498
 30
0.0
 10
878.8729501836807
 20
239.03645792668
 30
0.0
 10
881.121988463024
 20
239.0380211975839
 30
0.0
 10
883.2786372491839
 20
238.8217536904357
 30
0.0
 10
885.340815714316
 20
238.3863690944703
 30
0.0
 10
887.3066790086734
 20
237.7279768906508
 30
0.0
 10
889.1720107161264
 20
236.8408646440357
 30
0.0
 10
890.9271053562973
 20
235.7208196913465
 30
0.0
 10
892.556705888417
 20
234.3701020039322
 30
0.0
 10
894.0455447814087
 20
232.7986458454491
 30
0.0
 10
895.3828389286983
 20
231.0206632218392
 30
0.0
 10
896.563710381444
 20
229.0487180538224
 30
0.0
 10
897.5860436446202
 20
226.8927712019421
 30
0.0
 10
898.4482461002714
 20
224.5608733639656
 30
0.0
 10
899.1481197800259
 20
222.0605619870162
 30
0.0
 10
899.6827930318974
 20
219.4000461515865
 30
0.0
 10
900.0490318499436
 20
216.5887457829321
 30
0.0
 10
900.2437114809574
 20
213.6375542060071
 30
0.0
 10
900.264161514377
 20
210.5588519872923
 30
0.0
 10
900.1084958162236
 20
207.366171043944
 30
0.0
 10
899.7757165921769
 20
204.073918734798
 30
0.0
 10
899.2657953629962
 20
200.6970973691625
 30
0.0
 10
898.5796502910388
 20
197.2514140477434
 30
0.0
 10
897.7192868042082
 20
193.7530388301504
 30
0.0
 10
896.6876701626312
 20
190.2185318341924
 30
0.0
 10
895.4887621097912
 20
186.6646613639021
 30
0.0
 10
894.127501102363
 20
183.1082938224694
 30
0.0
 10
892.6097062725399
 20
179.5663032467104
 30
0.0
 10
890.9420920574196
 20
176.0554632508761
 30
0.0
 10
889.1322071148797
 20
172.5923540722091
 30
0.0
 10
887.1883563894045
 20
169.1933040437467
 30
0.0
 10
885.1196659840407
 20
165.8743221197753
 30
0.0
 10
882.9359383499899
 20
162.6510088742549
 30
0.0
 10
880.6476650077641
 20
159.5384394435873
 30
0.0
 10
878.2659129305816
 20
156.5510420829025
 30
0.0
 10
875.8022814499911
 20
153.7025885208737
 30
0.0
 10
873.268927510444
 20
151.0060840594617
 30
0.0
 10
870.6784403413669
 20
148.4737168336322
 30
0.0
 10
868.043827788229
 20
146.116745036647
 30
0.0
 10
865.3784343820965
 20
143.9454259042576
 30
0.0
 10
862.695834129358
 20
141.9689112584919
 30
0.0
 10
860.0097716533912
 20
140.1951357508674
 30
0.0
 10
857.334019194044
 20
138.6307209720959
 30
0.0
 10
854.6821317700491
 20
137.2809416390806
 30
0.0
 10
852.0675179717199
 20
136.1496210560004
 30
0.0
 10
849.5030453680381
 20
135.2392243622971
 30
0.0
 10
847.0007765215132
 20
134.5506679103621
 30
0.0
 10
844.5712658521032
 20
134.0835850335464
 30
0.0
 10
842.223205530905
 20
133.8366665448472
 30
0.0
 10
839.9630592083854
 20
133.8084003195239
 30
0.0
 10
837.7949628353277
 20
133.9979461393188
 30
0.0
 10
835.7211154223097
 20
134.4063309328461
 30
0.0
 10
833.7433036616011
 20
135.0371053513884
 30
0.0
 10
831.8652722982126
 20
135.8958850216557
 30
0.0
 10
830.0958555903167
 20
136.9873822969153
 30
0.0
 10
828.4499680280908
 20
138.3102821722964
 30
0.0
 10
826.943134744083
 20
139.8555042500176
 30
0.0
 10
825.5869400198746
 20
141.6089232906089
 30
0.0
 10
824.3867685243881
 20
143.5577113006914
 30
0.0
 10
823.3449365809101
 20
145.691584425415
 30
0.0
 10
822.4630337987328
 20
148.0023372846088
 30
0.0
 10
821.7431563847141
 20
150.4824559007949
 30
0.0
 10
821.1880132229467
 20
153.1238001572594
 30
0.0
 10
820.8012623566141
 20
155.9173369064511
 30
0.0
 10
820.5843300592522
 20
158.8515112585064
 30
0.0
 10
820.5464860494842
 20
161.9173273953399
 30
0.0
 10
820.6581308650681
 20
164.8958931523992
 30
0.0
 10
820.8669349652239
 20
166.8917009363357
 30
0.0
 10
820.960868137843
 20
167.7895403798291
 30
0.0
  0
SPLINE
  5
239
330
1F
100
AcDbEntity
  8
0
  6
Continuous
 62
     7
370
    15
100
AcDbSpline
210
0.0
220
0.0
230
1.0
 70
     8
 71
     3
 72
    10
 73
     6
 74
     0
 42
0.000000001
 43
0.00000001
 40
0.0
 40
0.0
 40
0.0
 40
0.0
 40
0.1871817455798777
 40
0.6596623569437521
 40
0.9999999999999999
 40
0.9999999999999999
 40
0.9999999999999999
 40
0.9999999999999999
 10
856.7324928052926
 20
229.8344604863879
 30
0.0
 10
857.0855746727999
 20
230.1012045213394
 30
0.0
 10
858.329899092323
 20
231.0412587891941
 30
0.0
 10
860.2277323763259
 20
232.2921807307173
 30
0.0
 10
861.7638378306385
 20
233.2071799282292
 30
0.0
 10
862.4070252922435
 20
233.5903020697241
 30
0.0
  0
SPLINE
  5
23A
330
1F
100
AcDbEntity
  8
0
  6
Continuous
 62
     7
370
    15
100
AcDbSpline
210
0.0
220
0.0
230
1.0
 70
     8
 71
     3
 72
    50
 73
    46
 74
     0
 42
0.000000001
 43
0.00000001
 40
0.0
 40
0.0
 40
0.0
 40
0.0
 40
0.0125865433304697
 40
0.0363881074359716
 40
0.0601807007566345
 40
0.0839629665598357
 40
0.107733016426176
 40
0.131490081815771
 40
0.1552341858041909
 40
0.1789659686228821
 40
0.2026864007347952
 40
0.2263968246647331
 40
0.250098690790674
 40
0.2737935874700513
 40
0.2974831817150599
 40
0.3211692113910543
 40
0.3448534235401461
 40
0.3685375757801416
 40
0.3922230691217483
 40
0.41591149428741
 40
0.4396046279576584
 40
0.4633042382928227
 40
0.4870121191310142
 40
0.510729992161332
 40
0.5344595308002141
 40
0.5582022740394975
 40
0.5819595761845838
 40
0.6057325265931202
 40
0.6295217611188653
 40
0.653327294940418
 40
0.6771482778053598
 40
0.7009826303864476
 40
0.7248266475570617
 40
0.7486734612162093
 40
0.7725121821095496
 40
0.7963300970351076
 40
0.8201110356270747
 40
0.8438355527414177
 40
0.8674820001370739
 40
0.891028256344667
 40
0.9144546262717067
 40
0.9377470774751406
 40
0.9609007803426576
 40
0.9839222900315606
 40
0.9999999999999999
 40
0.9999999999999999
 40
0.9999999999999999
 40
0.9999999999999999
 10
815.627392558854
 20
286.4450995604081
 30
0.0
 10
815.0022675609633
 20
286.0779554508402
 30
0.0
 10
813.1950107957884
 20
285.016529851081
 30
0.0
 10
810.2164808035835
 20
283.0966425219842
 30
0.0
 10
806.7074843028195
 20
280.6238548915127
 30
0.0
 10
803.2332601013228
 20
277.9497450441814
 30
0.0
 10
799.8030531383636
 20
275.0862642253792
 30
0.0
 10
796.4261555725014
 20
272.0410401343911
 30
0.0
 10
793.1116570669005
 20
268.8233799886236
 30
0.0
 10
789.8684649450503
 20
265.4426333554609
 30
0.0
 10
786.7053158902328
 20
261.9085973642148
 30
0.0
 10
783.630751021766
 20
258.2314133770107
 30
0.0
 10
780.6530893906768
 20
254.4215596584641
 30
0.0
 10
777.780440670765
 20
250.4898375466599
 30
0.0
 10
775.020657531905
 20
246.4473356826958
 30
0.0
 10
772.3813183792133
 20
242.305423012082
 30
0.0
 10
769.8697205350811
 20
238.0757019194989
 30
0.0
 10
767.4928647043732
 20
233.7700137797302
 30
0.0
 10
765.2574193256949
 20
229.4003969040661
 30
0.0
 10
763.1697247530752
 20
224.979027632289
 30
0.0
 10
761.2357000058893
 20
220.5181936438433
 30
0.0
 10
759.4609380717284
 20
216.0302242067296
 30
0.0
 10
757.85061317105
 20
211.5275041084524
 30
0.0
 10
756.4095096060461
 20
207.0224285524369
 30
0.0
 10
755.1420329909039
 20
202.5273666093709
 30
0.0
 10
754.0521637230511
 20
198.0546462516149
 30
0.0
 10
753.1435035838612
 20
193.6165219800762
 30
0.0
 10
752.4192361091697
 20
189.2251511804685
 30
0.0
 10
751.8821601897533
 20
184.8925936050418
 30
0.0
 10
751.5346753225125
 20
180.6308018615053
 30
0.0
 10
751.3787448825708
 20
176.4516153224394
 30
0.0
 10
751.4159864497557
 20
172.3668205223107
 30
0.0
 10
751.6474740649584
 20
168.3881667425596
 30
0.0
 10
752.0738568100793
 20
164.5275405895594
 30
0.0
 10
752.6951056778299
 20
160.796858180026
 30
0.0
 10
753.5104813486529
 20
157.2080279192445
 30
0.0
 10
754.5184203039785
 20
153.7728988684945
 30
0.0
 10
755.7163242572661
 20
150.5031774216633
 30
0.0
 10
757.1005174345119
 20
147.4103875361217
 30
0.0
 10
758.665917975428
 20
144.5052262579775
 30
0.0
 10
760.4068893672472
 20
141.7985539209274
 30
0.0
 10
762.3143499495287
 20
139.2964456678173
 30
0.0
 10
764.3873130456805
 20
137.016843374705
 30
0.0
 10
766.373669651606
 20
135.1339209897581
 30
0.0
 10
767.732147620284
 20
134.1096910462861
 30
0.0
 10
768.2907576122565
 20
133.6885247898634
 30
0.0
  0
SPLINE
  5
23B
330
1F
100
AcDbEntity
  8
0
  6
Continuous
 62
     7
370
    15
100
AcDbSpline
210
0.0
220
0.0
230
1.0
 70
     8
 71
     3
 72
    22
 73
    18
 74
     0
 42
0.000000001
 43
0.00000001
 40
0.0
 40
0.0
 40
0.0
 40
0.0
 40
0.0106831131502976
 40
0.082876314468405
 40
0.1552284209014893
 40
0.2278528902255208
 40
0.300833876434373
 40
0.3742192058797233
 40
0.4480203382565238
 40
0.5222163094008617
 40
0.5967620019923858
 40
0.6715977070912881
 40
0.7466586779803048
 40
0.8218824171831682
 40
0.8972136562707842
 40
0.9726066430625787
 40
1.0
 40
1.0
 40
1.0
 40
1.0
 10
860.0332937106858
 20
292.5780474506327
 30
0.0
 10
859.900837794329
 20
292.6404025093358
 30
0.0
 10
858.8732854298872
 20
293.12413392555
 30
0.0
 10
856.836355353076
 20
293.8048244202214
 30
0.0
 10
853.9260999193748
 20
294.6015139742597
 30
0.0
 10
850.9018262826781
 20
295.1364539624597
 30
0.0
 10
847.7848317975976
 20
295.4362223030018
 30
0.0
 10
844.5786582486531
 20
295.491217025171
 30
0.0
 10
841.2927648583074
 20
295.3020834227161
 30
0.0
 10
837.9362178173104
 20
294.8675896129794
 30
0.0
 10
834.5193103185902
 20
294.188216967542
 30
0.0
 10
831.0528513889939
 20
293.2655036301803
 30
0.0
 10
827.5480320439342
 20
292.1019601904948
 30
0.0
 10
824.0160544887021
 20
290.7021919442831
 30
0.0
 10
820.468250684092
 20
289.0681677324903
 30
0.0
 10
817.6693714304691
 20
287.609531975331
 30
0.0
 10
816.0570805655277
 20
286.6901278759453
 30
0.0
 10
815.627392558854
 20
286.4450995604081
 30
0.0
  0
SPLINE
  5
23C
330
1F
100
AcDbEntity
  8
0
  6
Continuous
 62
     7
370
    15
100
AcDbSpline
210
0.0
220
0.0
230
1.0
 70
     8
 71
     3
 72
    51
 73
    47
 74
     0
 42
0.000000001
 43
0.00000001
 40
0.0
 40
0.0
 40
0.0
 40
0.0
 40
0.0180742943581507
 40
0.0426507962671173
 40
0.0668187587000435
 40
0.0906370133055544
 40
0.1141909281988258
 40
0.137562365147444
 40
0.1608184022730159
 40
0.1840095099280889
 40
0.2071715528074825
 40
0.2303273784546034
 40
0.2534894904671429
 40
0.2766689796387767
 40
0.2998719060791983
 40
0.3231008126994716
 40
0.346355866671797
 40
0.3696356785428375
 40
0.3929377957315818
 40
0.4162591721215914
 40
0.4395963610690081
 40
0.4629456921098678
 40
0.4863033500013089
 40
0.5096654527135164
 40
0.5330281107900993
 40
0.556386219566531
 40
0.5797356850698644
 40
0.6030725444354857
 40
0.6263929242161544
 40
0.6496929641959965
 40
0.6729690360875901
 40
0.6962178391978482
 40
0.7194366440256103
 40
0.7426236884989684
 40
0.7657786965626525
 40
0.7889036685298749
 40
0.8120039549908179
 40
0.8350897467475858
 40
0.8581741567573866
 40
0.8812775141040177
 40
0.9044336507426969
 40
0.9276900385491038
 40
0.9511096588278127
 40
0.974769849054085
 40
0.9987547030236029
 40
1.0
 40
1.0
 40
1.0
 40
1.0
 10
885.1735437701118
 20
238.3820550226685
 30
0.0
 10
885.5390601854842
 20
238.0120788662275
 30
0.0
 10
886.4015871453435
 20
237.1390280372783
 30
0.0
 10
887.6019405725827
 20
235.5060590531162
 30
0.0
 10
888.7862491047749
 20
233.5402323737745
 30
0.0
 10
889.8076814464698
 20
231.3826817539376
 30
0.0
 10
890.6701211688979
 20
229.0512062844604
 30
0.0
 10
891.3699320489102
 20
226.5507831150667
 30
0.0
 10
891.9046219944228
 20
223.8902969966851
 30
0.0
 10
892.2708563600346
 20
221.0789887020661
 30
0.0
 10
892.4655371814463
 20
218.1277992442181
 30
0.0
 10
892.4859868961001
 20
215.0490964580553
 30
0.0
 10
892.330321283387
 20
211.8564156668028
 30
0.0
 10
891.9975420364234
 20
208.5641633168615
 30
0.0
 10
891.4876208133923
 20
205.1873419621729
 30
0.0
 10
890.8014757397843
 20
201.7416586378157
 30
0.0
 10
889.9411122533968
 20
198.2432834210113
 30
0.0
 10
888.9094956117009
 20
194.7087764248417
 30
0.0
 10
887.7105875588927
 20
191.1549059546082
 30
0.0
 10
886.3493265514559
 20
187.5985384131603
 30
0.0
 10
884.8315317216354
 20
184.0565478374053
 30
0.0
 10
883.1639175065143
 20
180.5457078415699
 30
0.0
 10
881.3540325639746
 20
177.0825986629033
 30
0.0
 10
879.4101818384994
 20
173.6835486344408
 30
0.0
 10
877.3414914331354
 20
170.3645667104692
 30
0.0
 10
875.1577637990852
 20
167.1412534649496
 30
0.0
 10
872.8694904568572
 20
164.0286840342786
 30
0.0
 10
870.4877383796825
 20
161.0412866736067
 30
0.0
 10
868.0241068990634
 20
158.1928331115299
 30
0.0
 10
865.490752959623
 20
155.4963286502968
 30
0.0
 10
862.9002657901478
 20
152.9639614238006
 30
0.0
 10
860.2656532384926
 20
150.6069896292993
 30
0.0
 10
857.6002598268379
 20
148.4356704876576
 30
0.0
 10
854.9176595946662
 20
146.4591558763513
 30
0.0
 10
852.2315970420998
 20
144.6853802403854
 30
0.0
 10
849.5558448680873
 20
143.1209659396873
 30
0.0
 10
846.9039563808058
 20
141.7711848251527
 30
0.0
 10
844.2893465473926
 20
140.6398708852245
 30
0.0
 10
841.7248591450385
 20
139.729449396588
 30
0.0
 10
839.2226456135255
 20
139.0409856240494
 30
0.0
 10
836.7929277149018
 20
138.5735555380817
 30
0.0
 10
834.4456462080705
 20
138.3279419400908
 30
0.0
 10
832.1825609426388
 20
138.2947515640834
 30
0.0
 10
830.0256084951385
 20
138.5029688485175
 30
0.0
 10
828.5890580738276
 20
138.7318880821507
 30
0.0
 10
827.9078264144516
 20
138.9508183625666
 30
0.0
 10
827.8742025281948
 20
138.9616242121561
 30
0.0
  0
SPLINE
  5
23D
330
1F
100
AcDbEntity
  8
0
  6
Continuous
 62
     7
370
    15
100
AcDbSpline
210
0.0
220
0.0
230
1.0
 70
     8
 71
     3
 72
    53
 73
    49
 74
     0
 42
0.000000001
 43
0.00000001
 40
0.0
 40
0.0
 40
0.0
 40
0.0
 40
0.0118125148503471
 40
0.0341503657312438
 40
0.0564797976133261
 40
0.0787995370842212
 40
0.1011078118557314
 40
0.1234039006504923
 40
0.1456878251801311
 40
0.1679601861471196
 40
0.1902218944438341
 40
0.2124742101299372
 40
0.2347184941721485
 40
0.2569562374346573
 40
0.2791890043247085
 40
0.3014184258620288
 40
0.3236461416319445
 40
0.3458738011779224
 40
0.3681027193647726
 40
0.3903343890404218
 40
0.412570477714024
 40
0.4348126447396485
 40
0.4570625736612333
 40
0.4793218802900073
 40
0.5015921351331392
 40
0.5238747824827815
 40
0.5461710935399555
 40
0.5684820905575929
 40
0.5908083701989205
 40
0.6131499467862581
 40
0.635506022354743
 40
0.6578746453138917
 40
0.6802523388125841
 40
0.7026326564958637
 40
0.725005379265917
 40
0.7473585755625811
 40
0.7696770694411004
 40
0.791942611565924
 40
0.8141348849872492
 40
0.8362331286288489
 40
0.8582188589742389
 40
0.8800789048718847
 40
0.9018087367567237
 40
0.9234145039588479
 40
0.9449140542669425
 40
0.9663357254057195
 40
0.9877157883772743
 40
1.0
 40
1.0
 40
1.0
 40
1.0
 10
807.8492166908599
 20
290.9353449114415
 30
0.0
 10
807.2240916378397
 20
290.5682008346465
 30
0.0
 10
805.4168347193208
 20
289.5067753331801
 30
0.0
 10
802.4383067556718
 20
287.5868868061455
 30
0.0
 10
798.9293096057902
 20
285.114099568935
 30
0.0
 10
795.4550856262088
 20
282.4399895901275
 30
0.0
 10
792.024878430435
 20
279.5765089083275
 30
0.0
 10
788.6479815707225
 20
276.531284398537
 30
0.0
 10
785.3334804637833
 20
273.3136257791924
 30
0.0
 10
782.0902901838448
 20
269.9328780670188
 30
0.0
 10
778.9271442267209
 20
266.3988402705541
 30
0.0
 10
775.8525730072166
 20
262.7216599880855
 30
0.0
 10
772.8749179331878
 20
258.9118024493766
 30
0.0
 10
770.0022650954652
 20
254.9800827340159
 30
0.0
 10
767.2424839883666
 20
250.9375796894956
 30
0.0
 10
764.6031408226191
 20
246.7956693401167
 30
0.0
 10
762.0915490999569
 20
242.5659447115146
 30
0.0
 10
759.7146885980872
 20
238.2602592654445
 30
0.0
 10
757.4792478789936
 20
233.8906397100803
 30
0.0
 10
755.391547249469
 20
229.4692739184962
 30
0.0
 10
753.4575262498589
 20
225.0084377800889
 30
0.0
 10
751.6827632975865
 20
220.5204689254637
 30
0.0
 10
750.0724387184347
 20
216.0177486430106
 30
0.0
 10
748.6313348852382
 20
211.512673239622
 30
0.0
 10
747.363859022781
 20
207.0176108738606
 30
0.0
 10
746.273987014222
 20
202.5448920701415
 30
0.0
 10
745.3653291668638
 20
198.1067664933268
 30
0.0
 10
744.6410631825247
 20
193.7153948429686
 30
0.0
 10
744.1039869165713
 20
189.382837457751
 30
0.0
 10
743.7565019391399
 20
185.1210457755505
 30
0.0
 10
743.6005722872944
 20
180.9418588037101
 30
0.0
 10
743.6378108106145
 20
176.8570657067455
 30
0.0
 10
743.8693019139766
 20
172.8784099742355
 30
0.0
 10
744.295681641932
 20
169.0177855675926
 30
0.0
 10
744.9169312040756
 20
165.287102529591
 30
0.0
 10
745.7323071068698
 20
161.6982730768261
 30
0.0
 10
746.740244443166
 20
158.2631414378141
 30
0.0
 10
747.9381546180849
 20
154.9934295026234
 30
0.0
 10
749.3223246398037
 20
151.9006043289971
 30
0.0
 10
750.8878110646682
 20
148.9955738730641
 30
0.0
 10
752.6284644116728
 20
146.2884170037844
 30
0.0
 10
754.537109451988
 20
143.7880974571034
 30
0.0
 10
756.6056737660958
 20
141.5018878414245
 30
0.0
 10
758.826280211492
 20
139.4368064104507
 30
0.0
 10
761.1888035246172
 20
137.5938032508583
 30
0.0
 10
763.6919743796343
 20
135.9902134155118
 30
0.0
 10
765.9332554472916
 20
134.7775862972534
 30
0.0
 10
767.3833878811816
 20
134.1954424157086
 30
0.0
 10
767.912546281699
 20
133.9830160758586
 30
0.0
  0
SPLINE
  5
23E
330
1F
100
AcDbEntity
  8
0
  6
Continuous
 62
     7
370
    15
100
AcDbSpline
210
0.0
220
0.0
230
1.0
 70
     8
 71
     3
 72
    25
 73
    21
 74
     0
 42
0.000000001
 43
0.00000001
 40
0.0
 40
0.0
 40
0.0
 40
0.0
 40
0.0008333200866673
 40
0.0608342690815758
 40
0.1206715539026681
 40
0.1804542950244058
 40
0.2402588203212435
 40
0.3001949819677812
 40
0.3603567704116384
 40
0.4208138957667551
 40
0.4816059750219306
 40
0.5427425036745648
 40
0.6042061159759728
 40
0.6659594359678634
 40
0.7279530010302224
 40
0.7901331752706113
 40
0.852448187130252
 40
0.9148522498730373
 40
0.9773074650217821
 40
1.0
 40
1.0
 40
1.0
 40
1.0
 10
859.5835907883416
 20
292.7816822162356
 30
0.0
 10
859.5730000131039
 20
292.7906285397574
 30
0.0
 10
858.7998492383838
 20
293.443730584369
 30
0.0
 10
857.1289655769585
 20
294.5406856416374
 30
0.0
 10
854.5726865933163
 20
296.0456744036908
 30
0.0
 10
851.8746912458255
 20
297.2916153987058
 30
0.0
 10
849.0654915693209
 20
298.3093462684133
 30
0.0
 10
846.1459586650114
 20
299.0879129395316
 30
0.0
 10
843.124182839295
 20
299.6277357517602
 30
0.0
 10
840.0065118627177
 20
299.9261878903842
 30
0.0
 10
836.8005225482106
 20
299.9815372652209
 30
0.0
 10
833.514581458026
 20
299.7923066054154
 30
0.0
 10
830.1580473035037
 20
299.3578390277015
 30
0.0
 10
826.741136424335
 20
298.6784592484757
 30
0.0
 10
823.2746780593951
 20
297.7557480420462
 30
0.0
 10
819.7698598410906
 20
296.5922032420624
 30
0.0
 10
816.2378771029977
 20
295.192438273371
 30
0.0
 10
812.6900773848096
 20
293.5584115456058
 30
0.0
 10
809.8911953737103
 20
292.0997774490565
 30
0.0
 10
808.2789046561703
 20
291.1803732518602
 30
0.0
 10
807.8492166908599
 20
290.9353449114415
 30
0.0
  0
SPLINE
  5
23F
330
1F
100
AcDbEntity
  8
0
  6
Continuous
 62
     7
370
    15
100
AcDbSpline
210
0.0
220
0.0
230
1.0
 70
     8
 71
     3
 72
    46
 73
    42
 74
     0
 42
0.000000001
 43
0.00000001
 40
0.0
 40
0.0
 40
0.0
 40
0.0
 40
0.013997708205067
 40
0.0406956329866718
 40
0.0670972589054486
 40
0.0932943449651406
 40
0.1193620791539031
 40
0.1453570337814342
 40
0.1713194096491973
 40
0.197274816610031
 40
0.2232372699692627
 40
0.2492192014176368
 40
0.2752274037430983
 40
0.3012647272992706
 40
0.3273313594697762
 40
0.3534257428138498
 40
0.3795451282289882
 40
0.4056861013177512
 40
0.4318447987307881
 40
0.4580171062383848
 40
0.4841987473278989
 40
0.5103853706250705
 40
0.5365726164311778
 40
0.5627547629184956
 40
0.5889272211453229
 40
0.6150855491295275
 40
0.641225405117073
 40
0.667342462184986
 40
0.6934326533793151
 40
0.7194922789471936
 40
0.7455182793858205
 40
0.7715086795855988
 40
0.7974631701156755
 40
0.823383991957207
 40
0.8492771463264058
 40
0.8751540521725368
 40
0.9010294092159866
 40
0.9269260043636502
 40
0.9528817599154856
 40
0.9789498871830322
 40
1.0
 40
1.0
 40
1.0
 40
1.0
 10
880.3801352737632
 20
239.0014793359186
 30
0.0
 10
880.5866946617389
 20
238.6677372308886
 30
0.0
 10
881.1872261858897
 20
237.6974465219008
 30
0.0
 10
882.0254016882177
 20
235.8665550472974
 30
0.0
 10
882.8930321573293
 20
233.5431356363117
 30
0.0
 10
883.5914691511248
 20
231.0405801903117
 30
0.0
 10
884.1265243077481
 20
228.3806608809556
 30
0.0
 10
884.4926612662981
 20
225.5692014102081
 30
0.0
 10
884.6873681303538
 20
222.6180523706421
 30
0.0
 10
884.7078108712873
 20
219.5393387612388
 30
0.0
 10
884.552147127775
 20
216.3466608709934
 30
0.0
 10
884.2193673794511
 20
213.054407742939
 30
0.0
 10
883.7094462909541
 20
209.6775865970478
 30
0.0
 10
883.0233011812386
 20
206.2319032166515
 30
0.0
 10
882.1629377045423
 20
202.7335280148879
 30
0.0
 10
881.1313210602453
 20
199.1990210146816
 30
0.0
 10
879.9324130081352
 20
195.6451505455314
 30
0.0
 10
878.5711520005111
 20
192.0887830037929
 30
0.0
 10
877.0533571707409
 20
188.5467924281159
 30
0.0
 10
875.3857429556061
 20
185.0359524322595
 30
0.0
 10
873.5758580130707
 20
181.5728432535985
 30
0.0
 10
871.6320072875923
 20
178.1737932251344
 30
0.0
 10
869.5633168822367
 20
174.8548113011637
 30
0.0
 10
867.3795892481561
 20
171.6314980556423
 30
0.0
 10
865.0913159060415
 20
168.5189286249778
 30
0.0
 10
862.7095638284437
 20
165.5315312642817
 30
0.0
 10
860.2459323494019
 20
162.6830777022948
 30
0.0
 10
857.7125784040832
 20
159.9865732407266
 30
0.0
 10
855.1220912565118
 20
157.4542060154794
 30
0.0
 10
852.4874786232552
 20
155.0972342163248
 30
0.0
 10
849.8220855155505
 20
152.925915092016
 30
0.0
 10
847.1394841513378
 20
150.9494004161546
 30
0.0
 10
844.453425855464
 20
149.175625047353
 30
0.0
 10
841.7776579686519
 20
147.6112098421495
 30
0.0
 10
839.1257957120858
 20
146.261449883552
 30
0.0
 10
836.5111290713712
 20
145.1300344568508
 30
0.0
 10
833.9468425157328
 20
144.2199977226891
 30
0.0
 10
831.4438812054871
 20
143.5300941804031
 30
0.0
 10
829.016963951138
 20
143.0680584068509
 30
0.0
 10
826.8158217059487
 20
142.8198384922667
 30
0.0
 10
825.4780412725838
 20
142.8272402135486
 30
0.0
 10
824.8803867550096
 20
142.8305469386671
 30
0.0
  0
SPLINE
  5
240
330
1F
100
AcDbEntity
  8
0
  6
Continuous
 62
     7
370
    15
100
AcDbSpline
210
0.0
220
0.0
230
1.0
 70
     8
 71
     3
 72
    53
 73
    49
 74
     0
 42
0.000000001
 43
0.00000001
 40
0.0
 40
0.0
 40
0.0
 40
0.0
 40
0.0118125148493052
 40
0.0341503657282315
 40
0.0564797976083442
 40
0.0787995370341027
 40
0.1011078118783975
 40
0.1234039006389851
 40
0.1456878251666583
 40
0.1679601861316823
 40
0.1902218944264331
 40
0.2124742101105735
 40
0.2347184941635543
 40
0.2569562374144543
 40
0.2791890043092501
 40
0.3014184258407435
 40
0.3236461416086985
 40
0.3458738011527159
 40
0.3681027193376052
 40
0.3903343890112936
 40
0.4125704776829344
 40
0.434812644706597
 40
0.4570625736094646
 40
0.4793218802769508
 40
0.5015921350696354
 40
0.5238747824743705
 40
0.5461710934962983
 40
0.5684820904733915
 40
0.5908083701572648
 40
0.613149946691428
 40
0.6355060222579408
 40
0.6578746452824199
 40
0.6802523387021728
 40
0.7026326564713443
 40
0.7250053792394242
 40
0.7473585755341167
 40
0.7696770692818957
 40
0.7919426114047554
 40
0.814134885148954
 40
0.8362331284278911
 40
0.858218858771342
 40
0.8800789048824625
 40
0.9018087367653848
 40
0.9234145039656032
 40
0.9449140542718014
 40
0.966335725408689
 40
0.9877157883783578
 40
1.0
 40
1.0
 40
1.0
 40
1.0
 10
800.0710421399547
 20
295.4255895021355
 30
0.0
 10
799.4459170837393
 20
295.0584454272279
 30
0.0
 10
797.638660155983
 20
293.9970199312181
 30
0.0
 10
794.6601323095585
 20
292.0771313349397
 30
0.0
 10
791.1511346724815
 20
289.6043443884412
 30
0.0
 10
787.6769125088385
 20
286.9302333349197
 30
0.0
 10
784.2467024451038
 20
284.0667543444335
 30
0.0
 10
780.8698074039638
 20
281.0215287605637
 30
0.0
 10
777.5553058037492
 20
277.8038704340979
 30
0.0
 10
774.3121156839787
 20
274.4231226278269
 30
0.0
 10
771.1489695807729
 20
270.8890849165898
 30
0.0
 10
768.0743987846927
 20
267.2119043866936
 30
0.0
 10
765.0967421613254
 20
263.402047749023
 30
0.0
 10
762.2240911542892
 20
259.4703269694285
 30
0.0
 10
759.464308215983
 20
255.4278249875322
 30
0.0
 10
756.8249665989445
 20
251.2859137409642
 30
0.0
 10
754.3133744608031
 20
247.0561893533138
 30
0.0
 10
751.9365140728146
 20
242.7505038413118
 30
0.0
 10
749.70107331381
 20
238.3808843089745
 30
0.0
 10
747.6133727300485
 20
233.9595184912147
 30
0.0
 10
745.6793515872602
 20
229.498682434504
 30
0.0
 10
743.904589162591
 20
225.0107132802765
 30
0.0
 10
742.2942626163589
 20
220.5079941179987
 30
0.0
 10
740.8531621660009
 20
216.0029167894842
 30
0.0
 10
739.5856826567034
 20
211.507856493839
 30
0.0
 10
738.4958139310407
 20
207.0351358281191
 30
0.0
 10
737.5871545208006
 20
202.5970111391578
 30
0.0
 10
736.8628875427977
 20
198.2056400502404
 30
0.0
 10
736.3258128608036
 20
193.8730817763166
 30
0.0
 10
735.978326500222
 20
189.6112908723963
 30
0.0
 10
735.8223968396584
 20
185.4321039030429
 30
0.0
 10
735.8596367838771
 20
181.347310013701
 30
0.0
 10
736.0911261617705
 20
177.3686552380135
 30
0.0
 10
736.517507424961
 20
173.508029977181
 30
0.0
 10
737.1387565147588
 20
169.7773471970511
 30
0.0
 10
737.9541327732835
 20
166.1885175533464
 30
0.0
 10
738.9620691528045
 20
162.753386448125
 30
0.0
 10
740.1599788800655
 20
159.4836747528488
 30
0.0
 10
741.5441516452726
 20
156.3908480668434
 30
0.0
 10
743.1096353369758
 20
153.4858191194515
 30
0.0
 10
744.8502891294722
 20
150.7786620104727
 30
0.0
 10
746.7589350852126
 20
148.2783419493214
 30
0.0
 10
748.8274991644665
 20
145.9921324602822
 30
0.0
 10
751.0481056740739
 20
143.9270509936563
 30
0.0
 10
753.4106289701167
 20
142.0840478435487
 30
0.0
 10
755.9137998297018
 20
140.4804580056657
 30
0.0
 10
758.1550808962593
 20
139.267830888018
 30
0.0
 10
759.6052133302426
 20
138.6856870064215
 30
0.0
 10
760.1343717307938
 20
138.4732606665526
 30
0.0
  0
SPLINE
  5
241
330
1F
100
AcDbEntity
  8
0
  6
Continuous
 62
     7
370
    15
100
AcDbSpline
210
0.0
220
0.0
230
1.0
 70
     8
 71
     3
 72
    25
 73
    21
 74
     0
 42
0.000000001
 43
0.00000001
 40
0.0
 40
0.0
 40
0.0
 40
0.0
 40
0.0008333200866689
 40
0.0608342690816938
 40
0.1206715539029021
 40
0.1804542950247558
 40
0.2402588203217095
 40
0.3001949819683635
 40
0.3603567704123374
 40
0.4208138951839633
 40
0.4816059744392566
 40
0.5427425040629074
 40
0.6042061163644347
 40
0.6659594359672154
 40
0.7279530010296947
 40
0.7901331752702042
 40
0.8524481871299658
 40
0.914852249872872
 40
0.9773074650217379
 40
1.0
 40
1.0
 40
1.0
 40
1.0
 10
851.8054162374365
 20
297.2719268069296
 30
0.0
 10
851.7948254621987
 20
297.2808731304515
 30
0.0
 10
851.0216746874783
 20
297.9339751750636
 30
0.0
 10
849.3507910263424
 20
299.0309302321575
 30
0.0
 10
846.7945120414003
 20
300.5359189949926
 30
0.0
 10
844.0965166986729
 20
301.7818599871439
 30
0.0
 10
841.2873170043963
 20
302.7995908675353
 30
0.0
 10
838.3677841666372
 20
303.5781574986461
 30
0.0
 10
835.3460081008936
 20
304.1179804592968
 30
0.0
 10
832.2283380738629
 20
304.4164320335758
 30
0.0
 10
829.0223490196504
 20
304.4717812454685
 30
0.0
 10
825.7364058787599
 20
304.2825518119634
 30
0.0
 10
822.379871990501
 20
303.8480840665462
 30
0.0
 10
818.9629620677848
 20
303.168703715707
 30
0.0
 10
815.4965034542017
 20
302.2459926654649
 30
0.0
 10
811.991685304787
 20
301.0824478239547
 30
0.0
 10
808.4597025481627
 20
299.6826828664339
 30
0.0
 10
804.9119028349877
 20
298.0486561356469
 30
0.0
 10
802.113020822722
 20
296.5900220398007
 30
0.0
 10
800.5007301052477
 20
295.6706178425648
 30
0.0
 10
800.0710421399547
 20
295.4255895021355
 30
0.0
  0
SPLINE
  5
242
330
1F
100
AcDbEntity
  8
0
  6
Continuous
 62
     7
370
    15
100
AcDbSpline
210
0.0
220
0.0
230
1.0
 70
     8
 71
     3
 72
    42
 73
    38
 74
     0
 42
0.000000001
 43
0.00000001
 40
0.0
 40
0.0
 40
0.0
 40
0.0
 40
0.0063598771093429
 40
0.036217948435705
 40
0.0659285912511398
 40
0.0955562837214332
 40
0.125146844621801
 40
0.1547294627257947
 40
0.1843201119468936
 40
0.2139329612773325
 40
0.2435757527822597
 40
0.2732517351459599
 40
0.3029611219385057
 40
0.3327021380702037
 40
0.3624716502575111
 40
0.392265766948441
 40
0.422080084899052
 40
0.4519099149250594
 40
0.4817503828805672
 40
0.5115965292963154
 40
0.5414433852152564
 40
0.5712844291968016
 40
0.6011144310047212
 40
0.6309283278996317
 40
0.6607211713769012
 40
0.6904880298355698
 40
0.7202242679737997
 40
0.7499256690063826
 40
0.779588745871718
 40
0.8092112474429785
 40
0.8387928210470287
 40
0.8683360208372221
 40
0.8978476866865625
 40
0.9273408333174062
 40
0.9568322147037943
 40
0.9863478021728364
 40
1.0
 40
1.0
 40
1.0
 40
1.0
 10
874.9080650518022
 20
238.4860429558362
 30
0.0
 10
874.9694770254933
 20
238.3231064501091
 30
0.0
 10
875.3192032321856
 20
237.3952228037336
 30
0.0
 10
875.8055128043011
 20
235.5211495350395
 30
0.0
 10
876.350424139454
 20
232.8734845886301
 30
0.0
 10
876.7139323132748
 20
230.0587567028386
 30
0.0
 10
876.909342006299
 20
227.1084815030926
 30
0.0
 10
876.9295965431194
 20
224.0295338961513
 30
0.0
 10
876.7739832448912
 20
220.8369187254291
 30
0.0
 10
876.4411899660486
 20
217.5446487746387
 30
0.0
 10
875.931272508306
 20
214.1678321429297
 30
0.0
 10
875.245126424132
 20
210.7221475509716
 30
0.0
 10
874.3847632089785
 20
207.223772674389
 30
0.0
 10
873.3531464944895
 20
203.6892655869115
 30
0.0
 10
872.1542384612145
 20
200.1353951411793
 30
0.0
 10
870.7929774485373
 20
196.579027593158
 30
0.0
 10
869.2751826201225
 20
193.0370370191666
 30
0.0
 10
867.6075684046236
 20
189.5261970228566
 30
0.0
 10
865.7976834621882
 20
186.0630878443235
 30
0.0
 10
863.853832736674
 20
182.6640378158017
 30
0.0
 10
861.7851423313612
 20
179.345055891934
 30
0.0
 10
859.6014146971453
 20
176.121742646058
 30
0.0
 10
857.3131413555288
 20
173.0091732167082
 30
0.0
 10
854.9313892760756
 20
170.0217758511119
 30
0.0
 10
852.4677578039505
 20
167.1733223073926
 30
0.0
 10
849.9344038328522
 20
164.4768177777393
 30
0.0
 10
847.343916781341
 20
161.9444508061925
 30
0.0
 10
844.7093037902177
 20
159.5874780618905
 30
0.0
 10
842.0439120155008
 20
157.4161624580831
 30
0.0
 10
839.3613056866644
 20
155.4396346703502
 30
0.0
 10
836.6752658811936
 20
153.665908135821
 30
0.0
 10
833.9994291173743
 20
152.1013110222755
 30
0.0
 10
831.3478235279289
 20
150.7522289370697
 30
0.0
 10
828.7321997947738
 20
149.618285771337
 30
0.0
 10
826.1714854956292
 20
148.7176835826671
 30
0.0
 10
824.1076713211743
 20
148.122919662238
 30
0.0
 10
822.9332474435548
 20
147.910530859437
 30
0.0
 10
822.5618253981525
 20
147.8433610027436
 30
0.0
  0
SPLINE
  5
243
330
1F
100
AcDbEntity
  8
0
  6
Continuous
 62
     7
370
    15
100
AcDbSpline
210
0.0
220
0.0
230
1.0
 70
     8
 71
     3
 72
    53
 73
    49
 74
     0
 42
0.000000001
 43
0.00000001
 40
0.0
 40
0.0
 40
0.0
 40
0.0
 40
0.0118125148332968
 40
0.0341503657403733
 40
0.0564797976076984
 40
0.0787995370546739
 40
0.1011078118892578
 40
0.1234039006414274
 40
0.1456878251687344
 40
0.1679601861392331
 40
0.1902218944433852
 40
0.2124742101111493
 40
0.2347184941669476
 40
0.2569562374174821
 40
0.2791890043135891
 40
0.3014184258437507
 40
0.3236461416121514
 40
0.3458738011570678
 40
0.3681027193393525
 40
0.3903343890145098
 40
0.4125704776857851
 40
0.4348126447124391
 40
0.4570625736107524
 40
0.4793218802727882
 40
0.5015921350772272
 40
0.5238747824673312
 40
0.5461710934972125
 40
0.5684820904739389
 40
0.5908083701463165
 40
0.6131499467057142
 40
0.6355060222571701
 40
0.6578746452644557
 40
0.6802523387223235
 40
0.7026326564691605
 40
0.7250053792618991
 40
0.7473585755277884
 40
0.7696770692752006
 40
0.7919426113976945
 40
0.8141348850603204
 40
0.8362331284290723
 40
0.8582188588713036
 40
0.880078904982065
 40
0.901808736518447
 40
0.9234145038400488
 40
0.9449140541458937
 40
0.9663357251537015
 40
0.9877157882518754
 40
1.0
 40
1.0
 40
1.0
 40
1.0
 10
792.2928677536855
 20
299.9158339977872
 30
0.0
 10
791.667742779293
 20
299.5486898751698
 30
0.0
 10
789.8604860849969
 20
298.4872642394134
 30
0.0
 10
786.8819575084683
 20
296.5673760768661
 30
0.0
 10
783.3729605172858
 20
294.0945887449307
 30
0.0
 10
779.8987376045344
 20
291.4204781344873
 30
0.0
 10
776.4685279338519
 20
288.5569989114859
 30
0.0
 10
773.0916330481182
 20
285.51177323777
 30
0.0
 10
769.7771314174928
 20
282.2941149292107
 30
0.0
 10
766.5339412646888
 20
278.913367141446
 30
0.0
 10
763.3707943389761
 20
275.3793299104611
 30
0.0
 10
760.2962248971699
 20
271.7021485909119
 30
0.0
 10
757.3185676182339
 20
267.8922923362448
 30
0.0
 10
754.4459168967966
 20
263.960571390223
 30
0.0
 10
751.6861334712307
 20
259.91806969066
 30
0.0
 10
749.0467925306104
 20
255.7761580527537
 30
0.0
 10
746.5351991609011
 20
251.5464343762827
 30
0.0
 10
744.1583400596888
 20
247.2407481221983
 30
0.0
 10
741.9228983492781
 20
242.871129137679
 30
0.0
 10
739.8351983072636
 20
238.4497630084247
 30
0.0
 10
737.9011769377378
 20
233.9889270814413
 30
0.0
 10
736.1264148777067
 20
229.5009577184954
 30
0.0
 10
734.5160880891251
 20
224.99823869546
 30
0.0
 10
733.0749872539437
 20
220.4931615855837
 30
0.0
 10
731.8075085373226
 20
215.9981008399347
 30
0.0
 10
730.7176390055266
 20
211.525380631294
 30
0.0
 10
729.8089800468664
 20
207.0872556867381
 30
0.0
 10
729.084713059572
 20
202.6958846037395
 30
0.0
 10
728.5476379623034
 20
198.3633265623947
 30
0.0
 10
728.2001522830666
 20
194.1015352756463
 30
0.0
 10
728.0442222903977
 20
189.9223484932252
 30
0.0
 10
728.081461892222
 20
185.837554794264
 30
0.0
 10
728.3129519851088
 20
181.8588996203753
 30
0.0
 10
728.7393327042461
 20
177.9982746597063
 30
0.0
 10
729.3605822704042
 20
174.267591616672
 30
0.0
 10
730.1759581506177
 20
170.6787621825086
 30
0.0
 10
731.1838945851013
 20
167.2436310480863
 30
0.0
 10
732.3818044663008
 20
163.9739192709561
 30
0.0
 10
733.7659765579872
 20
160.8810929562164
 30
0.0
 10
735.331460844111
 20
157.9760636776725
 30
0.0
 10
737.0721148795577
 20
155.2689064297098
 30
0.0
 10
738.9807612134923
 20
152.7685861610975
 30
0.0
 10
741.0493235219943
 20
150.4823776667808
 30
0.0
 10
743.2699309593457
 20
148.4172956833405
 30
0.0
 10
745.6324541650349
 20
146.5742925811684
 30
0.0
 10
748.1356244585227
 20
144.970703069456
 30
0.0
 10
750.3769059308048
 20
143.7580757188337
 30
0.0
 10
751.8270386674534
 20
143.1759316617351
 30
0.0
 10
752.3561971798887
 20
142.9635052572466
 30
0.0
  0
SPLINE
  5
244
330
1F
100
AcDbEntity
  8
0
  6
Continuous
 62
     7
370
    15
100
AcDbSpline
210
0.0
220
0.0
230
1.0
 70
     8
 71
     3
 72
    25
 73
    21
 74
     0
 42
0.000000001
 43
0.00000001
 40
0.0
 40
0.0
 40
0.0
 40
0.0
 40
0.0008333200869472
 40
0.0608342694597984
 40
0.1206715528567831
 40
0.1804542947142285
 40
0.2402588200311569
 40
0.3001949820312848
 40
0.3603567701811689
 40
0.4208138952647911
 40
0.4816059744065906
 40
0.5427425039292981
 40
0.6042061160331982
 40
0.6659594360458341
 40
0.7279530011290192
 40
0.7901331753141114
 40
0.8524481871276584
 40
0.9148522498914073
 40
0.9773074650611333
 40
1.0
 40
1.0
 40
1.0
 40
1.0
 10
844.0272413572591
 20
301.7621715877085
 30
0.0
 10
844.0166505820537
 20
301.7711179112116
 30
0.0
 10
843.2434998051507
 20
302.4242199582991
 30
0.0
 10
841.572615135593
 20
303.5211755948835
 30
0.0
 10
839.0163388649897
 20
305.0261627888656
 30
0.0
 10
836.3183417523836
 20
306.2721048099476
 30
0.0
 10
833.5091427002412
 20
307.2898353115878
 30
0.0
 10
830.5896090071317
 20
308.0684024495037
 30
0.0
 10
827.567833822112
 20
308.6082248825729
 30
0.0
 10
824.4501629893634
 20
308.90667694094
 30
0.0
 10
821.2441743937848
 20
308.9620258771334
 30
0.0
 10
817.9582311843852
 20
308.7727964903523
 30
0.0
 10
814.6016980949827
 20
308.3383282618134
 30
0.0
 10
811.1847869429802
 20
307.6589486502483
 30
0.0
 10
807.7183286026728
 20
306.7362374302014
 30
0.0
 10
804.2135105735489
 20
305.5726925188948
 30
0.0
 10
800.681528031404
 20
304.1729274352577
 30
0.0
 10
797.1337283192818
 20
302.538900705399
 30
0.0
 10
794.3348461412128
 20
301.0802667093612
 30
0.0
 10
792.722555656337
 20
300.1608623745178
 30
0.0
 10
792.2928677536855
 20
299.9158339977872
 30
0.0
  0
SPLINE
  5
245
330
1F
100
AcDbEntity
  8
0
  6
Continuous
 62
     7
370
    15
100
AcDbSpline
210
0.0
220
0.0
230
1.0
 70
     8
 71
     3
 72
    36
 73
    32
 74
     0
 42
0.000000001
 43
0.00000001
 40
0.0
 40
0.0
 40
0.0
 40
0.0
 40
0.0259007913631073
 40
0.0606051277318422
 40
0.0953001486476528
 40
0.1300045879125089
 40
0.1647350645486395
 40
0.1995006583892831
 40
0.2343051777504938
 40
0.2691488755802332
 40
0.3040296688003248
 40
0.3389438821987872
 40
0.3738869525950198
 40
0.4088537152138912
 40
0.4438386705853749
 40
0.4788361024396904
 40
0.5138401940445425
 40
0.5488451177716633
 40
0.5838432252316776
 40
0.6188283821574847
 40
0.6537946506265168
 40
0.6887362278138326
 40
0.7236473290960431
 40
0.7585225183215745
 40
0.7933568499696994
 40
0.8281462338807198
 40
0.8628880313975418
 40
0.8975818279694074
 40
0.9322306183853698
 40
0.9668424243101038
 40
1.0
 40
1.0
 40
1.0
 40
1.0
 10
868.6356788601798
 20
236.617188785526
 30
0.0
 10
868.7341499710999
 20
235.9263063408321
 30
0.0
 10
868.9645620141739
 20
234.3097140822649
 30
0.0
 10
869.1275024395354
 20
231.5953277654527
 30
0.0
 10
869.1524000559951
 20
228.5206916393301
 30
0.0
 10
868.9955460035786
 20
225.3269186059843
 30
0.0
 10
868.6630873082357
 20
222.0349581658398
 30
0.0
 10
868.1530733945042
 20
218.6580624726158
 30
0.0
 10
867.4669623695361
 20
215.2123936512606
 30
0.0
 10
866.6065870287332
 20
211.7140161612765
 30
0.0
 10
865.5749679406254
 20
208.1795130778831
 30
0.0
 10
864.3760657846475
 20
204.6256384664709
 30
0.0
 10
863.0147993783432
 20
201.0692742722515
 30
0.0
 10
861.4970044739458
 20
197.5272836799448
 30
0.0
 10
859.829395962637
 20
194.0164403881217
 30
0.0
 10
858.0195040580487
 20
190.5533352409138
 30
0.0
 10
856.0756596875802
 20
187.1542815396545
 30
0.0
 10
854.0069666259425
 20
183.8353011419005
 30
0.0
 10
851.8232432522344
 20
180.6119854525557
 30
0.0
 10
849.5349713542025
 20
177.4994151861181
 30
0.0
 10
847.1532092740188
 20
174.5120236363157
 30
0.0
 10
844.6895846303709
 20
171.6635657741149
 30
0.0
 10
842.1562292399905
 20
168.9670636966101
 30
0.0
 10
839.5657410300399
 20
166.4346912187362
 30
0.0
 10
836.9311340858725
 20
164.0777380219199
 30
0.0
 10
834.2657193697879
 20
161.9063499050508
 30
0.0
 10
831.5831825906437
 20
159.9301010274025
 30
0.0
 10
828.8969039224995
 20
158.155324356277
 30
0.0
 10
826.2219674753271
 20
156.5946330536443
 30
0.0
 10
823.6036265330033
 20
155.2498076563207
 30
0.0
 10
821.9032468259794
 20
154.5410143504202
 30
0.0
 10
821.0713007834756
 20
154.1942225230647
 30
0.0
  0
SPLINE
  5
246
330
1F
100
AcDbEntity
  8
0
  6
Continuous
 62
     7
370
    15
100
AcDbSpline
210
0.0
220
0.0
230
1.0
 70
     8
 71
     3
 72
    53
 73
    49
 74
     0
 42
0.000000001
 43
0.00000001
 40
0.0
 40
0.0
 40
0.0
 40
0.0
 40
0.0118125148491071
 40
0.0341503657276588
 40
0.056479797607397
 40
0.0787995370327811
 40
0.1011078118767018
 40
0.1234039006369154
 40
0.145687825164215
 40
0.1679601861288654
 40
0.1902218944427772
 40
0.2124742101105338
 40
0.2347184941631416
 40
0.2569562374136686
 40
0.2791890043080915
 40
0.3014184258392121
 40
0.3236461416078759
 40
0.3458738011532063
 40
0.3681027193377229
 40
0.3903343890110383
 40
0.4125704776823062
 40
0.4348126447055958
 40
0.4570625736080902
 40
0.4793218802752031
 40
0.5015921350675142
 40
0.5238747824718755
 40
0.5461710934934295
 40
0.5684820904701485
 40
0.5908083701536474
 40
0.6131499466874357
 40
0.6355060222535737
 40
0.6578746452776777
 40
0.6802523386970553
 40
0.7026326564658513
 40
0.7250053792335559
 40
0.7473585755278734
 40
0.7696770692752782
 40
0.7919426113977646
 40
0.814134885060383
 40
0.8362331284291274
 40
0.8582188588713513
 40
0.8800789049821053
 40
0.90180873651848
 40
0.9234145038400746
 40
0.9449140541459122
 40
0.9663357251537129
 40
0.9877157882518797
 40
1.0
 40
1.0
 40
1.0
 40
1.0
 10
784.5146930381444
 20
304.4060786835236
 30
0.0
 10
783.8895679819256
 20
304.0389346086181
 30
0.0
 10
782.082311054159
 20
302.9775091126141
 30
0.0
 10
779.1037832078634
 20
301.0576205162605
 30
0.0
 10
775.5947855702481
 20
298.5848335700765
 30
0.0
 10
772.1205634086041
 20
295.910722515387
 30
0.0
 10
768.6903533374169
 20
293.0472435292549
 30
0.0
 10
765.3134583240666
 20
290.0020179291492
 30
0.0
 10
761.9989566202244
 20
286.7843596632269
 30
0.0
 10
758.7557668859516
 20
283.4036116301905
 30
0.0
 10
755.5926193413964
 20
279.8695747607148
 30
0.0
 10
752.5180499881116
 20
276.1923933886634
 30
0.0
 10
749.5403929721141
 20
272.382536981373
 30
0.0
 10
746.6677420962669
 20
268.4508161253987
 30
0.0
 10
743.9079590264153
 20
264.4083142196336
 30
0.0
 10
741.2686178042862
 20
260.2664027448766
 30
0.0
 10
738.7570242179022
 20
256.036679193334
 30
0.0
 10
736.3801652768756
 20
251.7309928463971
 30
0.0
 10
734.1447241300442
 20
247.3613735376397
 30
0.0
 10
732.0570236502039
 20
242.9400076599316
 30
0.0
 10
730.1230024795619
 20
238.4791716192887
 30
0.0
 10
728.3482400623591
 20
233.9912024607541
 30
0.0
 10
726.7379135141255
 20
229.488483299631
 30
0.0
 10
725.296813064304
 20
224.9834059708068
 30
0.0
 10
724.0293335548628
 20
220.4883456752447
 30
0.0
 10
722.9394648292385
 20
216.0156250095024
 30
0.0
 10
722.0308054189882
 20
211.5775003205472
 30
0.0
 10
721.3065384409882
 20
207.186129231628
 30
0.0
 10
720.7694637589921
 20
202.8535709577053
 30
0.0
 10
720.4219773984155
 20
198.5917800537822
 30
0.0
 10
720.2660477378336
 20
194.4125930844389
 30
0.0
 10
720.3032876821208
 20
190.3277991950593
 30
0.0
 10
720.5347770597589
 20
186.3491444195129
 30
0.0
 10
720.9611583239022
 20
182.4885191581538
 30
0.0
 10
721.5824074101457
 20
178.7578363799875
 30
0.0
 10
722.3977836819163
 20
175.1690067289653
 30
0.0
 10
723.4057200121252
 20
171.7338756509859
 30
0.0
 10
724.6036299212828
 20
168.4641638583944
 30
0.0
 10
725.9878020055139
 20
165.3713375477777
 30
0.0
 10
727.553286293623
 20
162.4663082681359
 30
0.0
 10
729.2939403285417
 20
159.7591510204652
 30
0.0
 10
731.2025866626166
 20
157.2588307517752
 30
0.0
 10
733.2711489710814
 20
154.9726222574792
 30
0.0
 10
735.4917564084427
 20
152.9075402740334
 30
0.0
 10
737.8542796141292
 20
151.0645371718628
 30
0.0
 10
740.3574499076177
 20
149.4609476601499
 30
0.0
 10
742.5987313798996
 20
148.2483203095278
 30
0.0
 10
744.0488641165482
 20
147.6661762524292
 30
0.0
 10
744.5780226289834
 20
147.4537498479407
 30
0.0
  0
SPLINE
  5
247
330
1F
100
AcDbEntity
  8
0
  6
Continuous
 62
     7
370
    15
100
AcDbSpline
210
0.0
220
0.0
230
1.0
 70
     8
 71
     3
 72
    25
 73
    21
 74
     0
 42
0.000000001
 43
0.00000001
 40
0.0
 40
0.0
 40
0.0
 40
0.0
 40
0.0008333204351201
 40
0.0608342694463358
 40
0.120671553200533
 40
0.1804542946963304
 40
0.2402588200094219
 40
0.3001949820057045
 40
0.3603567701517288
 40
0.4208138952314723
 40
0.4816059745031699
 40
0.5427425039005925
 40
0.6042061160005493
 40
0.6659594360092234
 40
0.7279530012610252
 40
0.7901331752135733
 40
0.8524481870901501
 40
0.9148522498498955
 40
0.9773074650156145
 40
1.0
 40
1.0
 40
1.0
 40
1.0
 10
836.2490668063539
 20
306.2524161784025
 30
0.0
 10
836.2384759205438
 20
306.2613625657544
 30
0.0
 10
835.4653173924477
 20
306.9144690009213
 30
0.0
 10
833.7944443300246
 20
308.011418063361
 30
0.0
 10
831.2381628007948
 20
309.5164082437645
 30
0.0
 10
828.5401676002838
 20
310.7623491716346
 30
0.0
 10
825.7309680394217
 20
311.7800799651175
 30
0.0
 10
822.8114344906472
 20
312.5586470203658
 30
0.0
 10
819.7896592438069
 20
313.0984694895525
 30
0.0
 10
816.6719885116822
 20
313.3969214863298
 30
0.0
 10
813.4659995634956
 20
313.4522706348591
 30
0.0
 10
810.1800567172023
 20
313.2630410290076
 30
0.0
 10
806.823523479584
 20
312.8285728913802
 30
0.0
 10
803.4066125614421
 20
312.1491931362636
 30
0.0
 10
799.9401534208878
 20
311.2264823993093
 30
0.0
 10
796.4353364455524
 20
310.0629368537888
 30
0.0
 10
792.9033533795159
 20
308.6631720879968
 30
0.0
 10
789.3555537516008
 20
307.0291453059609
 30
0.0
 10
786.5566717194981
 20
305.5705112220384
 30
0.0
 10
784.94438100314
 20
304.6511070241316
 30
0.0
 10
784.5146930381444
 20
304.4060786835236
 30
0.0
  0
SPLINE
  5
248
330
1F
100
AcDbEntity
  8
0
  6
Continuous
 62
     7
370
    15
100
AcDbSpline
210
0.0
220
0.0
230
1.0
 70
     8
 71
     3
 72
    31
 73
    27
 74
     0
 42
0.000000001
 43
0.00000001
 40
0.0
 40
0.0
 40
0.0
 40
0.0
 40
0.0423090720178733
 40
0.0852587659292614
 40
0.1282518877843735
 40
0.1712931471646689
 40
0.2143828568800648
 40
0.257518440876941
 40
0.3006953541779478
 40
0.3439079536929507
 40
0.3871498523656092
 40
0.4304142492367318
 40
0.47369407524015
 40
0.5169821370720044
 40
0.5602712279538515
 40
0.6035518894499201
 40
0.6468165355746472
 40
0.6900578231533504
 40
0.7332685760807988
 40
0.7764416407608424
 40
0.8195702945375098
 40
0.8626484214969974
 40
0.9056709635138745
 40
0.9486346574738539
 40
0.9915389907197572
 40
1.0
 40
1.0
 40
1.0
 40
1.0
 10
861.3417426227064
 20
232.946281026644
 30
0.0
 10
861.3027451583305
 20
231.9051224120283
 30
0.0
 10
861.22415975032
 20
229.8070405022842
 30
0.0
 10
860.8826565789827
 20
226.5237395333404
 30
0.0
 10
860.3755043725109
 20
223.1486997733759
 30
0.0
 10
859.6886252936465
 20
219.7025328379091
 30
0.0
 10
858.8284560971274
 20
216.2042890408539
 30
0.0
 10
857.7967816845786
 20
212.6697500773256
 30
0.0
 10
856.5978943742056
 20
209.1158850938538
 30
0.0
 10
855.2366239850455
 20
205.5595183167277
 30
0.0
 10
853.7188301489299
 20
202.0175284167341
 30
0.0
 10
852.0512213512496
 20
198.5066849410958
 30
0.0
 10
850.2413295230509
 20
195.0435798363043
 30
0.0
 10
848.2974851335498
 20
191.6445261493005
 30
0.0
 10
846.228792071629
 20
188.3255456520953
 30
0.0
 10
844.0450687180811
 20
185.102230346182
 30
0.0
 10
841.7567967397378
 20
181.9896586462689
 30
0.0
 10
839.3750349604003
 20
179.002272442702
 30
0.0
 10
836.9114091948278
 20
176.1537946494467
 30
0.0
 10
834.3780579860627
 20
173.4573668568876
 30
0.0
 10
831.787554194438
 20
170.9247175764326
 30
0.0
 10
829.1530052989928
 20
168.5687955932203
 30
0.0
 10
826.487374362019
 20
166.3935663940214
 30
0.0
 10
823.8056428831102
 20
164.4316233705071
 30
0.0
 10
821.8348264170918
 20
163.0919453698578
 30
0.0
 10
820.7669527990947
 20
162.4733889385009
 30
0.0
 10
820.59105036863
 20
162.3714989977613
 30
0.0
  0
SPLINE
  5
249
330
1F
100
AcDbEntity
  8
0
  6
Continuous
 62
     7
370
    15
100
AcDbSpline
210
0.0
220
0.0
230
1.0
 70
     8
 71
     3
 72
    53
 73
    49
 74
     0
 42
0.000000001
 43
0.00000001
 40
0.0
 40
0.0
 40
0.0
 40
0.0
 40
0.0118125148482067
 40
0.0341503657250558
 40
0.056479797603092
 40
0.0787995370699429
 40
0.1011078119121631
 40
0.1234039006384715
 40
0.1456878251640725
 40
0.1679601861270253
 40
0.190221894419706
 40
0.2124742101017771
 40
0.2347184941399578
 40
0.2569562373984371
 40
0.2791890042978719
 40
0.3014184258234328
 40
0.3236461415893208
 40
0.3458738011312711
 40
0.3681027193140934
 40
0.3903343889857144
 40
0.4125704776552874
 40
0.4348126446768817
 40
0.4570625735609263
 40
0.4793218802263426
 40
0.5015921350654391
 40
0.523874782411044
 40
0.5461710934641779
 40
0.5684820904006209
 40
0.5908083701269339
 40
0.6131499467102232
 40
0.635506022157141
 40
0.6578746452468442
 40
0.6802523387414817
 40
0.702632656420706
 40
0.7250053791867055
 40
0.7473585754793193
 40
0.7696770690962521
 40
0.7919426112170413
 40
0.8141348849591763
 40
0.8362331282360584
 40
0.8582188589740336
 40
0.8800789048677183
 40
0.9018087362870428
 40
0.9234145039722069
 40
0.9449140542764057
 40
0.966335724896392
 40
0.9877157883795
 40
0.9999999999999999
 40
0.9999999999999999
 40
0.9999999999999999
 40
0.9999999999999999
 10
776.7365184872391
 20
308.8963232742177
 30
0.0
 10
776.1113934328664
 20
308.5291791982202
 30
0.0
 10
774.3041365104365
 20
307.4677536990594
 30
0.0
 10
771.3256085964172
 20
305.5478651427664
 30
0.0
 10
767.8166112393128
 20
303.0750780277208
 30
0.0
 10
764.3423880253799
 20
300.4009675922654
 30
0.0
 10
760.9121779603214
 20
297.537488600974
 30
0.0
 10
757.5352839701875
 20
294.4922624014088
 30
0.0
 10
754.2207820970538
 20
291.2746042379536
 30
0.0
 10
750.9775920268256
 20
287.8938564023971
 30
0.0
 10
747.8144459996988
 20
284.3598186469981
 30
0.0
 10
744.7398748506031
 20
280.6826383235866
 30
0.0
 10
741.7622195650108
 20
276.8727809075447
 30
0.0
 10
738.88956750226
 20
272.9410607418401
 30
0.0
 10
736.1297835051732
 20
268.8985593719976
 30
0.0
 10
733.490443229612
 20
264.7566473486833
 30
0.0
 10
730.9788507318683
 20
260.5269231695129
 30
0.0
 10
728.6019904414592
 20
256.2212376010369
 30
0.0
 10
726.3665496518763
 20
251.8516180863658
 30
0.0
 10
724.278849092846
 20
247.4302522544168
 30
0.0
 10
722.3448278816957
 20
242.9694162368059
 30
0.0
 10
720.5700657062863
 20
238.48144694144
 30
0.0
 10
718.9597382330355
 20
233.9787283105244
 30
0.0
 10
717.5186372838265
 20
229.4736512621844
 30
0.0
 10
716.2511606977869
 20
224.9785893060704
 30
0.0
 10
715.1612886940742
 20
220.5058704984657
 30
0.0
 10
714.2526315524367
 20
216.0677445292212
 30
0.0
 10
713.5283627413195
 20
211.6763744736562
 30
0.0
 10
712.9912891620312
 20
207.3438155729057
 30
0.0
 10
712.6438041829317
 20
203.0820238960412
 30
0.0
 10
712.4878718453714
 20
198.9028384264058
 30
0.0
 10
712.5251132087958
 20
194.8180437410328
 30
0.0
 10
712.7566035411847
 20
190.8393884314766
 30
0.0
 10
713.1829835125264
 20
186.9787638890904
 30
0.0
 10
713.8042328728178
 20
183.2480809629872
 30
0.0
 10
714.6196093358126
 20
179.6592512125387
 30
0.0
 10
715.6275446204216
 20
176.2241207172246
 30
0.0
 10
716.8254545950658
 20
172.9544088907312
 30
0.0
 10
718.2096274507714
 20
169.8615821543221
 30
0.0
 10
719.7751105452849
 20
166.9565535258446
 30
0.0
 10
721.5157666626235
 20
164.2493951258911
 30
0.0
 10
723.4244116525988
 20
161.7490756015819
 30
0.0
 10
725.4929734342228
 20
159.4628674053356
 30
0.0
 10
727.7135824027185
 20
157.3977845581091
 30
0.0
 10
730.0761057432404
 20
155.5547813714287
 30
0.0
 10
732.5792739909076
 20
153.9511930396613
 30
0.0
 10
734.8205575041873
 20
152.7385645059023
 30
0.0
 10
736.2706897531452
 20
152.1564207348964
 30
0.0
 10
736.7998480780783
 20
151.9439944386347
 30
0.0
  0
SPLINE
  5
24A
330
1F
100
AcDbEntity
  8
0
  6
Continuous
 62
     7
370
    15
100
AcDbSpline
210
0.0
220
0.0
230
1.0
 70
     8
 71
     3
 72
    25
 73
    21
 74
     0
 42
0.000000001
 43
0.00000001
 40
0.0
 40
0.0
 40
0.0
 40
0.0
 40
0.0008333200865963
 40
0.0608342705075395
 40
0.1206715538793234
 40
0.1804542949959667
 40
0.2402588202877082
 40
0.3001949819291383
 40
0.3603567703678688
 40
0.4208138957178336
 40
0.4816059749678285
 40
0.5427425045861509
 40
0.6042061160097008
 40
0.665959435996329
 40
0.7279530010534052
 40
0.7901331752884954
 40
0.8524481871428259
 40
0.9148522498802931
 40
0.9773074650237158
 40
1.0
 40
1.0
 40
1.0
 40
1.0
 10
828.4708925847209
 20
310.7426605790118
 30
0.0
 10
828.4603018095571
 20
310.7516069024911
 30
0.0
 10
827.6871510220423
 20
311.4047089593606
 30
0.0
 10
826.0162650250873
 20
312.501665355094
 30
0.0
 10
823.4599889906212
 20
314.0066524187979
 30
0.0
 10
820.7619928746526
 20
315.25259385776
 30
0.0
 10
817.9527934134212
 20
316.2703246036871
 30
0.0
 10
815.0332604383682
 20
317.0488913158632
 30
0.0
 10
812.0114846800863
 20
317.588714087786
 30
0.0
 10
808.893813503435
 20
317.8871663472362
 30
0.0
 10
805.6878249102749
 20
317.9425152760086
 30
0.0
 10
802.4018810428117
 20
317.7532862917249
 30
0.0
 10
799.0453496769728
 20
317.3188170296819
 30
0.0
 10
795.6284380607811
 20
316.6394377076653
 30
0.0
 10
792.1619798988397
 20
315.7167263788611
 30
0.0
 10
788.657161625887
 20
314.5531816118212
 30
0.0
 10
785.1251789024944
 20
313.1534166342679
 30
0.0
 10
781.5773791803297
 20
311.5193899089001
 30
0.0
 10
778.7784971701556
 20
310.0607558117929
 30
0.0
 10
777.1662064525636
 20
309.141351614628
 30
0.0
 10
776.7365184872391
 20
308.8963232742177
 30
0.0
  0
SPLINE
  5
24B
330
1F
100
AcDbEntity
  8
0
  6
Continuous
 62
     7
370
    15
100
AcDbSpline
210
0.0
220
0.0
230
1.0
 70
     8
 71
     3
 72
    24
 73
    20
 74
     0
 42
0.000000001
 43
0.00000001
 40
0.0
 40
0.0
 40
0.0
 40
0.0
 40
0.0157020696719347
 40
0.0791928900251085
 40
0.1427513038904701
 40
0.2063706151528424
 40
0.2700425079840014
 40
0.333757572288905
 40
0.3975057866753502
 40
0.4612767351014728
 40
0.5250598187044087
 40
0.5888444185679244
 40
0.6526165980967081
 40
0.7163651796697051
 40
0.7800793435866687
 40
0.8437485158684618
 40
0.9073621559076651
 40
0.9709103589453862
 40
1.0
 40
1.0
 40
1.0
 40
1.0
 10
852.0517737866057
 20
225.0384783389445
 30
0.0
 10
851.9964388739845
 20
224.7547099347977
 30
0.0
 10
851.7173589984444
 20
223.3235329949599
 30
0.0
 10
851.0414658768884
 20
220.6917197118053
 30
0.0
 10
850.0209735007058
 20
217.1607493529181
 30
0.0
 10
848.8190822953785
 20
213.605928744346
 30
0.0
 10
847.4586224030664
 20
210.0498156718505
 30
0.0
 10
845.9406097873974
 20
206.507758487549
 30
0.0
 10
844.2730569321437
 20
202.9969348043674
 30
0.0
 10
842.4631523874089
 20
199.5338224418734
 30
0.0
 10
840.519310784441
 20
196.1347734035758
 30
0.0
 10
838.4506192980602
 20
192.8157815737159
 30
0.0
 10
836.2668868588738
 20
189.5925069378146
 30
0.0
 10
833.9786496261657
 20
186.4797839722095
 30
0.0
 10
831.5967580437452
 20
183.4929617028379
 30
0.0
 10
829.1336241683377
 20
180.6423770661112
 30
0.0
 10
826.5984375056139
 20
177.9538028778763
 30
0.0
 10
824.4807712960039
 20
175.8539739032803
 30
0.0
 10
823.197111056216
 20
174.7197391711399
 30
0.0
 10
822.7940229233112
 20
174.3635728381157
 30
0.0
  0
SPLINE
  5
24C
330
1F
100
AcDbEntity
  8
0
  6
Continuous
 62
     7
370
    15
100
AcDbSpline
210
0.0
220
0.0
230
1.0
 70
     8
 71
     3
 72
    53
 73
    49
 74
     0
 42
0.000000001
 43
0.00000001
 40
0.0
 40
0.0
 40
0.0
 40
0.0
 40
0.0118125148482067
 40
0.0341503657250558
 40
0.056479797603092
 40
0.0787995370699429
 40
0.1011078119121631
 40
0.1234039006384715
 40
0.1456878251640725
 40
0.1679601861270253
 40
0.190221894419706
 40
0.2124742101017771
 40
0.2347184941399578
 40
0.2569562373984371
 40
0.2791890042978719
 40
0.3014184258234328
 40
0.3236461415893208
 40
0.3458738011312711
 40
0.3681027193140934
 40
0.3903343889857144
 40
0.4125704776552874
 40
0.4348126446768817
 40
0.4570625735609263
 40
0.4793218802263426
 40
0.5015921350654391
 40
0.523874782411044
 40
0.5461710934641779
 40
0.5684820904006209
 40
0.5908083701269339
 40
0.6131499467102232
 40
0.635506022157141
 40
0.6578746452468442
 40
0.6802523387414817
 40
0.702632656420706
 40
0.7250053791867055
 40
0.7473585754793193
 40
0.7696770690962521
 40
0.7919426112170413
 40
0.8141348849591763
 40
0.8362331282360584
 40
0.8582188589740336
 40
0.8800789048677183
 40
0.9018087362870428
 40
0.9234145039722069
 40
0.9449140542764057
 40
0.966335724896392
 40
0.9877157883795
 40
0.9999999999999999
 40
0.9999999999999999
 40
0.9999999999999999
 40
0.9999999999999999
 10
768.958343936334
 20
313.3865678649117
 30
0.0
 10
768.3332188819611
 20
313.0194237889143
 30
0.0
 10
766.5259619595314
 20
311.9579982897534
 30
0.0
 10
763.5474340455121
 20
310.0381097334604
 30
0.0
 10
760.0384366884075
 20
307.5653226184148
 30
0.0
 10
756.5642134744747
 20
304.8912121829595
 30
0.0
 10
753.1340034094163
 20
302.027733191668
 30
0.0
 10
749.7571094192824
 20
298.9825069921028
 30
0.0
 10
746.4426075461486
 20
295.7648488286476
 30
0.0
 10
743.1994174759204
 20
292.3841009930912
 30
0.0
 10
740.0362714487936
 20
288.8500632376922
 30
0.0
 10
736.961700299698
 20
285.1728829142806
 30
0.0
 10
733.9840450141056
 20
281.3630254982388
 30
0.0
 10
731.1113929513549
 20
277.4313053325342
 30
0.0
 10
728.3516089542679
 20
273.3888039626917
 30
0.0
 10
725.7122686787069
 20
269.2468919393773
 30
0.0
 10
723.2006761809632
 20
265.017167760207
 30
0.0
 10
720.8238158905541
 20
260.711482191731
 30
0.0
 10
718.5883751009711
 20
256.34186267706
 30
0.0
 10
716.5006745419408
 20
251.9204968451109
 30
0.0
 10
714.5666533307905
 20
247.4596608274999
 30
0.0
 10
712.7918911553812
 20
242.9716915321341
 30
0.0
 10
711.1815636821303
 20
238.4689729012184
 30
0.0
 10
709.7404627329213
 20
233.9638958528785
 30
0.0
 10
708.4729861468817
 20
229.4688338967645
 30
0.0
 10
707.3831141431689
 20
224.9961150891598
 30
0.0
 10
706.4744570015314
 20
220.5579891199153
 30
0.0
 10
705.7501881904144
 20
216.1666190643503
 30
0.0
 10
705.2131146111261
 20
211.8340601635998
 30
0.0
 10
704.8656296320266
 20
207.5722684867352
 30
0.0
 10
704.7096972944662
 20
203.3930830170998
 30
0.0
 10
704.7469386578906
 20
199.3082883317268
 30
0.0
 10
704.9784289902796
 20
195.3296330221706
 30
0.0
 10
705.4048089616211
 20
191.4690084797845
 30
0.0
 10
706.0260583219127
 20
187.7383255536813
 30
0.0
 10
706.8414347849075
 20
184.1494958032328
 30
0.0
 10
707.8493700695166
 20
180.7143653079187
 30
0.0
 10
709.0472800441607
 20
177.4446534814252
 30
0.0
 10
710.4314528998663
 20
174.3518267450162
 30
0.0
 10
711.9969359943798
 20
171.4467981165387
 30
0.0
 10
713.7375921117183
 20
168.7396397165851
 30
0.0
 10
715.6462371016935
 20
166.239320192276
 30
0.0
 10
717.7147988833177
 20
163.9531119960297
 30
0.0
 10
719.9354078518135
 20
161.8880291488032
 30
0.0
 10
722.2979311923353
 20
160.0450259621227
 30
0.0
 10
724.8010994400025
 20
158.4414376303554
 30
0.0
 10
727.0423829532822
 20
157.2288090965964
 30
0.0
 10
728.4925152022402
 20
156.6466653255904
 30
0.0
 10
729.0216735271732
 20
156.4342390293288
 30
0.0
  0
SPLINE
  5
24D
330
1F
100
AcDbEntity
  8
0
  6
Continuous
 62
     7
370
    15
100
AcDbSpline
210
0.0
220
0.0
230
1.0
 70
     8
 71
     3
 72
    25
 73
    21
 74
     0
 42
0.000000001
 43
0.00000001
 40
0.0
 40
0.0
 40
0.0
 40
0.0
 40
0.0008333200865963
 40
0.0608342705075395
 40
0.1206715538793234
 40
0.1804542949959667
 40
0.2402588202877082
 40
0.3001949819291383
 40
0.3603567703678688
 40
0.4208138957178336
 40
0.4816059749678285
 40
0.5427425045861509
 40
0.6042061160097008
 40
0.665959435996329
 40
0.7279530010534052
 40
0.7901331752884954
 40
0.8524481871428259
 40
0.9148522498802931
 40
0.9773074650237158
 40
1.0
 40
1.0
 40
1.0
 40
1.0
 10
820.6927180338158
 20
315.2329051697058
 30
0.0
 10
820.6821272586519
 20
315.241851493185
 30
0.0
 10
819.9089764711372
 20
315.8949535500546
 30
0.0
 10
818.2380904741821
 20
316.991909945788
 30
0.0
 10
815.681814439716
 20
318.4968970094919
 30
0.0
 10
812.9838183237474
 20
319.7428384484541
 30
0.0
 10
810.1746188625161
 20
320.7605691943811
 30
0.0
 10
807.2550858874631
 20
321.5391359065572
 30
0.0
 10
804.233310129181
 20
322.07895867848
 30
0.0
 10
801.1156389525298
 20
322.3774109379303
 30
0.0
 10
797.9096503593698
 20
322.4327598667026
 30
0.0
 10
794.6237064919067
 20
322.2435308824188
 30
0.0
 10
791.2671751260676
 20
321.809061620376
 30
0.0
 10
787.850263509876
 20
321.1296822983593
 30
0.0
 10
784.3838053479346
 20
320.2069709695551
 30
0.0
 10
780.878987074982
 20
319.0434262025152
 30
0.0
 10
777.3470043515892
 20
317.6436612249619
 30
0.0
 10
773.7992046294245
 20
316.0096344995941
 30
0.0
 10
771.0003226192505
 20
314.551000402487
 30
0.0
 10
769.3880319016585
 20
313.6315962053221
 30
0.0
 10
768.958343936334
 20
313.3865678649117
 30
0.0
  0
LINE
  5
24E
330
1F
100
AcDbEntity
  8
0
  6
Continuous
 62
     7
370
    15
100
AcDbLine
 10
786.7840519006
 20
373.2643558895
 30
0.0
 11
769.8134916388
 21
383.0612517959
 31
0.0
  0
LINE
  5
24F
330
1F
100
AcDbEntity
  8
0
  6
Continuous
 62
     7
370
    15
100
AcDbLine
 10
644.8236511686
 20
166.5490395476
 30
0.0
 11
661.7942114304
 21
156.7521436413
 31
0.0
  0
SPLINE
  5
250
330
1F
100
AcDbEntity
  8
0
  6
Continuous
 62
     7
370
    15
100
AcDbSpline
210
0.0
220
0.0
230
1.0
 70
     8
 71
     3
 72
    53
 73
    49
 74
     0
 42
0.000000001
 43
0.00000001
 40
0.0
 40
0.0
 40
0.0
 40
0.0
 40
0.0118125148533673
 40
0.0341503658540457
 40
0.0564797977418371
 40
0.0787995372184389
 40
0.1011078119956527
 40
0.1234039007961143
 40
0.1456878252763267
 40
0.1679601862957374
 40
0.1902218946372132
 40
0.2124742102649682
 40
0.2347184943637981
 40
0.2569562376126988
 40
0.2791890045084344
 40
0.3014184260437067
 40
0.3236461418236364
 40
0.34587380137867
 40
0.3681027195622472
 40
0.3903343892435807
 40
0.4125704779434797
 40
0.4348126449747911
 40
0.4570625739020646
 40
0.4793218805365298
 40
0.5015921353853556
 40
0.5238747827977532
 40
0.5461710937940698
 40
0.56848209074026
 40
0.5908083703872961
 40
0.6131499469803458
 40
0.6355060225545466
 40
0.657874645654022
 40
0.6802523390045055
 40
0.7026326568692398
 40
0.7250053796450133
 40
0.7473585759473926
 40
0.7696770698316181
 40
0.7919426119621346
 40
0.8141348853891338
 40
0.8362331290363835
 40
0.8582188589908291
 40
0.8800789057556805
 40
0.9018087367229243
 40
0.9234145039305726
 40
0.9449140542441641
 40
0.9663357253884182
 40
0.9877157888808665
 40
1.0
 40
1.0
 40
1.0
 40
1.0
 10
761.1801707025179
 20
317.8768116952664
 30
0.0
 10
760.5550457046272
 20
317.5096675856986
 30
0.0
 10
758.7477889394523
 20
316.4482419859394
 30
0.0
 10
755.7692589472473
 20
314.5283546568426
 30
0.0
 10
752.2602624464834
 20
312.055567026371
 30
0.0
 10
748.7860382449867
 20
309.3814571790398
 30
0.0
 10
745.3558312820276
 20
306.5179763602375
 30
0.0
 10
741.9789337161646
 20
303.4727522692498
 30
0.0
 10
738.6644352105668
 20
300.2550921234806
 30
0.0
 10
735.4212430887054
 20
296.8743454903243
 30
0.0
 10
732.2580940339292
 20
293.3403094990545
 30
0.0
 10
729.1835291653084
 20
289.6631255119389
 30
0.0
 10
726.2058675347939
 20
285.8532717930622
 30
0.0
 10
723.3332188127382
 20
281.9215496824891
 30
0.0
 10
720.5734356818771
 20
277.8790478139317
 30
0.0
 10
717.9340964993395
 20
273.7371351604568
 30
0.0
 10
715.4224987665818
 20
269.5074140039173
 30
0.0
 10
713.0456425202177
 20
265.2017261028374
 30
0.0
 10
710.8101986939232
 20
260.8321083382123
 30
0.0
 10
708.7224983297849
 20
256.4107423911663
 30
0.0
 10
706.7884793752465
 20
251.9499050790556
 30
0.0
 10
705.0137158871022
 20
247.4619365298924
 30
0.0
 10
703.4033914027316
 20
242.9592161928244
 30
0.0
 10
701.962287726109
 20
238.4541407008326
 30
0.0
 10
700.6948111408966
 20
233.9590787405988
 30
0.0
 10
699.6049418650182
 20
229.4863583874479
 30
0.0
 10
698.6962817279779
 20
225.0482341146695
 30
0.0
 10
697.972014252721
 20
220.6568633154112
 30
0.0
 10
697.4349383334142
 20
216.324305739828
 30
0.0
 10
697.0874534663008
 20
212.0625139965682
 30
0.0
 10
696.93152302574
 20
207.8833274565512
 30
0.0
 10
696.9687645952754
 20
203.7985326599527
 30
0.0
 10
697.2002522016912
 20
199.8198788670252
 30
0.0
 10
697.6266349796102
 20
195.9592527632028
 30
0.0
 10
698.2478837250292
 20
192.2285701702453
 30
0.0
 10
699.063259851746
 20
188.6397405930309
 30
0.0
 10
700.0711971098548
 20
185.2046089974749
 30
0.0
 10
701.2691073737797
 20
181.93489701281
 30
0.0
 10
702.6532771187957
 20
178.8420719929946
 30
0.0
 10
704.2187645459784
 20
175.9370409920763
 30
0.0
 10
705.9594141607168
 20
173.2298861826275
 30
0.0
 10
707.868065398694
 20
170.7295631980891
 30
0.0
 10
709.9366239820159
 20
168.4433567805795
 30
0.0
 10
712.1572318598912
 20
166.3782745654087
 30
0.0
 10
714.5197550016062
 20
164.5352714950838
 30
0.0
 10
717.0229251129642
 20
162.931682095104
 30
0.0
 10
719.2642089431571
 20
161.7190533678325
 30
0.0
 10
720.7143398410993
 20
161.1369103838654
 30
0.0
 10
721.243497659179
 20
160.9244843803621
 30
0.0
  0
SPLINE
  5
251
330
1F
100
AcDbEntity
  8
0
  6
Continuous
 62
     7
370
    15
100
AcDbSpline
210
0.0
220
0.0
230
1.0
 70
     8
 71
     3
 72
    25
 73
    21
 74
     0
 42
0.000000001
 43
0.00000001
 40
0.0
 40
0.0
 40
0.0
 40
0.0
 40
0.0008333186951985
 40
0.0608342691948512
 40
0.12067155264513
 40
0.1804542952714475
 40
0.2402588192481964
 40
0.3001949823020757
 40
0.360356769562995
 40
0.4208138938250539
 40
0.4816059742251886
 40
0.5427425039237102
 40
0.6042061163005087
 40
0.6659594363681451
 40
0.7279530015065447
 40
0.7901331758232031
 40
0.8524481877592788
 40
0.914852250108069
 40
0.9773074657454961
 40
1.0
 40
1.0
 40
1.0
 40
1.0
 10
812.9145421658216
 20
319.7231505207392
 30
0.0
 10
812.9039518330045
 20
319.7320965888653
 30
0.0
 10
812.1308320636111
 20
320.3851810807362
 30
0.0
 10
810.45990192659
 20
321.4821624625489
 30
0.0
 10
807.9036441858369
 20
322.9871391556359
 30
0.0
 10
805.205640448319
 20
324.2330849647942
 30
0.0
 10
802.396445653817
 20
325.2508129871411
 30
0.0
 10
799.4769090730011
 20
326.0293818323652
 30
0.0
 10
796.4551356361291
 20
326.5692032371611
 30
0.0
 10
793.3374664590174
 20
326.8676543004303
 30
0.0
 10
790.1314751621275
 20
326.9230048591325
 30
0.0
 10
786.8455325347376
 20
326.7337751042218
 30
0.0
 10
783.4889987630753
 20
326.2993072826873
 30
0.0
 10
780.0720877942033
 20
325.619927557644
 30
0.0
 10
776.6056293844348
 20
324.6972163778871
 30
0.0
 10
773.1008114368714
 20
323.5336714159968
 30
0.0
 10
769.5688276664398
 20
322.1339070736349
 30
0.0
 10
766.0210318508224
 20
320.49987801361
 30
0.0
 10
763.222144476084
 20
319.0412471353145
 30
0.0
 10
761.6098576248977
 20
318.1218406408001
 30
0.0
 10
761.1801707025179
 20
317.8768116952665
 30
0.0
  0
SPLINE
  5
252
330
1F
100
AcDbEntity
  8
0
  6
Continuous
 62
     7
370
    15
100
AcDbSpline
210
0.0
220
0.0
230
1.0
 70
     8
 71
     3
 72
    53
 73
    49
 74
     0
 42
0.000000001
 43
0.00000001
 40
0.0
 40
0.0
 40
0.0
 40
0.0
 40
0.0118125148532358
 40
0.0341503658536655
 40
0.0564797977412082
 40
0.0787995372175614
 40
0.1011078119945269
 40
0.1234039007947401
 40
0.1456878252747044
 40
0.1679601862938671
 40
0.190221894635095
 40
0.2124742102626023
 40
0.2347184943611844
 40
0.2569562376098375
 40
0.2791890045053255
 40
0.3014184260558165
 40
0.3236461418311678
 40
0.3458738013859539
 40
0.3681027195692836
 40
0.3903343892503695
 40
0.4125704779500209
 40
0.4348126449810846
 40
0.4570625739081103
 40
0.4793218805423277
 40
0.5015921353909055
 40
0.523874782803055
 40
0.5461710937991233
 40
0.5684820907450651
 40
0.5908083703918524
 40
0.6131499469846534
 40
0.6355060225586053
 40
0.6578746456578316
 40
0.6802523390080659
 40
0.702632656872551
 40
0.7250053796480754
 40
0.7473585759502058
 40
0.7696770698341828
 40
0.7919426119644514
 40
0.8141348853912034
 40
0.836233129038207
 40
0.8582188589924077
 40
0.8800789057570158
 40
0.9018087367240176
 40
0.9234145039314253
 40
0.9449140542447775
 40
0.966335725388793
 40
0.9877157888810033
 40
0.9999999999999999
 40
0.9999999999999999
 40
0.9999999999999999
 40
0.9999999999999999
 10
753.4019961516127
 20
322.3670562859605
 30
0.0
 10
752.776871153722
 20
321.9999121763926
 30
0.0
 10
750.9696143885474
 20
320.9384865766334
 30
0.0
 10
747.9910843963415
 20
319.0185992475371
 30
0.0
 10
744.4820878955805
 20
316.5458116170637
 30
0.0
 10
741.0078636940726
 20
313.8717017697389
 30
0.0
 10
737.577656731155
 20
311.0082209509126
 30
0.0
 10
734.2007591651378
 20
307.9629968600142
 30
0.0
 10
730.8862606601155
 20
304.7453367139121
 30
0.0
 10
727.6430685361081
 20
301.3645900819973
 30
0.0
 10
724.4799194893349
 20
297.8305540860973
 30
0.0
 10
721.4053545908649
 20
294.1533701162512
 30
0.0
 10
718.4276930716898
 20
290.3435163329581
 30
0.0
 10
715.5550439342886
 20
286.4117944626867
 30
0.0
 10
712.795262352375
 20
282.3692916966651
 30
0.0
 10
710.1559173875434
 20
278.227382387628
 30
0.0
 10
707.6443254376311
 20
273.9976578880326
 30
0.0
 10
705.2674676418306
 20
269.6919708827946
 30
0.0
 10
703.0320242307802
 20
265.3223528781855
 30
0.0
 10
700.9443237553579
 20
260.9009869954545
 30
0.0
 10
699.0103048306464
 20
256.4401496661058
 30
0.0
 10
697.2355413345068
 20
251.9521811215633
 30
0.0
 10
695.6252168522797
 20
247.4494607832566
 30
0.0
 10
694.1841131750823
 20
242.9443852915968
 30
0.0
 10
692.9166365900239
 20
238.449323331274
 30
0.0
 10
691.8267673141044
 20
233.976602978147
 30
0.0
 10
690.918107177075
 20
229.5384787053622
 30
0.0
 10
690.1938397018153
 20
225.1471079061056
 30
0.0
 10
689.6567637825093
 20
220.8145503305219
 30
0.0
 10
689.3092789153955
 20
216.5527585872622
 30
0.0
 10
689.1533484748348
 20
212.3735720472453
 30
0.0
 10
689.1905900443702
 20
208.2887772506468
 30
0.0
 10
689.4220776507862
 20
204.3101234577193
 30
0.0
 10
689.8484604287049
 20
200.4494973538969
 30
0.0
 10
690.469709174124
 20
196.7188147609393
 30
0.0
 10
691.2850853008408
 20
193.1299851837249
 30
0.0
 10
692.2930225589496
 20
189.694853588169
 30
0.0
 10
693.4909328228746
 20
186.425141603504
 30
0.0
 10
694.8751025678905
 20
183.3323165836887
 30
0.0
 10
696.4405899950733
 20
180.4272855827703
 30
0.0
 10
698.1812396098117
 20
177.7201307733215
 30
0.0
 10
700.0898908477889
 20
175.2198077887831
 30
0.0
 10
702.1584494311109
 20
172.9336013712735
 30
0.0
 10
704.379057308986
 20
170.8685191561028
 30
0.0
 10
706.7415804507011
 20
169.0255160857778
 30
0.0
 10
709.2447505620592
 20
167.4219266857981
 30
0.0
 10
711.486034392252
 20
166.2092979585265
 30
0.0
 10
712.9361652901941
 20
165.6271549745594
 30
0.0
 10
713.4653231082738
 20
165.4147289710562
 30
0.0
  0
SPLINE
  5
253
330
1F
100
AcDbEntity
  8
0
  6
Continuous
 62
     7
370
    15
100
AcDbSpline
210
0.0
220
0.0
230
1.0
 70
     8
 71
     3
 72
    25
 73
    21
 74
     0
 42
0.000000001
 43
0.00000001
 40
0.0
 40
0.0
 40
0.0
 40
0.0
 40
0.0008333186951985
 40
0.0608342691948512
 40
0.12067155264513
 40
0.1804542952714475
 40
0.2402588192481964
 40
0.3001949823020757
 40
0.360356769562995
 40
0.4208138938250539
 40
0.4816059742251886
 40
0.5427425039237102
 40
0.6042061163005087
 40
0.6659594363681451
 40
0.7279530015065447
 40
0.7901331758232031
 40
0.8524481877592788
 40
0.914852250108069
 40
0.9773074657454961
 40
1.0
 40
1.0
 40
1.0
 40
1.0
 10
805.1363676149165
 20
324.2133951114332
 30
0.0
 10
805.1257772820993
 20
324.2223411795594
 30
0.0
 10
804.352657512706
 20
324.8754256714303
 30
0.0
 10
802.6817273756849
 20
325.9724070532429
 30
0.0
 10
800.1254696349318
 20
327.47738374633
 30
0.0
 10
797.4274658974139
 20
328.7233295554882
 30
0.0
 10
794.6182711029119
 20
329.7410575778351
 30
0.0
 10
791.6987345220961
 20
330.5196264230592
 30
0.0
 10
788.6769610852239
 20
331.0594478278551
 30
0.0
 10
785.5592919081123
 20
331.3578988911244
 30
0.0
 10
782.3533006112224
 20
331.4132494498266
 30
0.0
 10
779.0673579838323
 20
331.2240196949159
 30
0.0
 10
775.7108242121702
 20
330.7895518733813
 30
0.0
 10
772.2939132432981
 20
330.1101721483381
 30
0.0
 10
768.8274548335296
 20
329.1874609685811
 30
0.0
 10
765.3226368859662
 20
328.0239160066908
 30
0.0
 10
761.7906531155345
 20
326.6241516643289
 30
0.0
 10
758.2428572999172
 20
324.990122604304
 30
0.0
 10
755.443969925179
 20
323.5314917260086
 30
0.0
 10
753.8316830739925
 20
322.6120852314942
 30
0.0
 10
753.4019961516127
 20
322.3670562859605
 30
0.0
  0
SPLINE
  5
254
330
1F
100
AcDbEntity
  8
0
  6
Continuous
 62
     7
370
    15
100
AcDbSpline
210
0.0
220
0.0
230
1.0
 70
     8
 71
     3
 72
    53
 73
    49
 74
     0
 42
0.000000001
 43
0.00000001
 40
0.0
 40
0.0
 40
0.0
 40
0.0
 40
0.0118125146009912
 40
0.0341503658310314
 40
0.0564797977200337
 40
0.078799536852525
 40
0.1011078119299769
 40
0.1234039007316474
 40
0.1456878252130682
 40
0.1679601861402344
 40
0.1902218944047815
 40
0.2124742100977806
 40
0.2347184941978166
 40
0.2569562374479232
 40
0.2791890043716919
 40
0.3014184259081696
 40
0.3236461416806555
 40
0.3458738012301525
 40
0.3681027194149352
 40
0.3903343891268282
 40
0.4125704777867128
 40
0.4348126447655279
 40
0.4570625737610344
 40
0.4793218803967066
 40
0.5015921352467401
 40
0.5238747826603459
 40
0.5461710935247653
 40
0.5684820906264716
 40
0.5908083702747182
 40
0.6131499468689795
 40
0.6355060226794345
 40
0.6578746452417115
 40
0.6802523392091487
 40
0.7026326567236346
 40
0.7250053795006213
 40
0.747358575349246
 40
0.7696770697497759
 40
0.7919426113011876
 40
0.8141348853790552
 40
0.8362331290275032
 40
0.8582188589831409
 40
0.8800789057491778
 40
0.9018087367175999
 40
0.9234145039264198
 40
0.9449140542411771
 40
0.9663357253865927
 40
0.9877157888802005
 40
1.0
 40
1.0
 40
1.0
 40
1.0
 10
745.6238189665295
 20
326.8573023973331
 30
0.0
 10
744.9986951005247
 20
326.4901576296208
 30
0.0
 10
743.1914415702747
 20
325.4287301051822
 30
0.0
 10
740.2129064017745
 20
323.5088458578583
 30
0.0
 10
736.7039086968088
 20
321.036058940605
 30
0.0
 10
733.2296954710947
 20
318.3619426130088
 30
0.0
 10
729.7994771228502
 20
315.4984685139778
 30
0.0
 10
726.4225827908358
 20
312.4532424937187
 30
0.0
 10
723.1080826735084
 20
309.2355833031752
 30
0.0
 10
719.8648937764974
 20
305.8548347916898
 30
0.0
 10
716.7017491961434
 20
302.3207961970853
 30
0.0
 10
713.6271789789698
 20
298.6436153314711
 30
0.0
 10
710.6495185232404
 20
294.8337609211451
 30
0.0
 10
707.7768704353193
 20
290.9020384415006
 30
0.0
 10
705.0170835863547
 20
286.8595387279935
 30
0.0
 10
702.3777428509932
 20
282.7176269673124
 30
0.0
 10
699.8661550422074
 20
278.4879000805715
 30
0.0
 10
697.4892922594769
 20
274.1822159531043
 30
0.0
 10
695.2538488473334
 20
269.8125979439228
 30
0.0
 10
693.1661533624418
 20
265.3912291964505
 30
0.0
 10
691.2321302997566
 20
260.9303942482425
 30
0.0
 10
689.4573625433659
 20
256.4424281406183
 30
0.0
 10
687.8470434185605
 20
251.9397047411112
 30
0.0
 10
686.4059384058618
 20
247.4346300074332
 30
0.0
 10
685.1384617956688
 20
242.9395680593138
 30
0.0
 10
684.0485939586897
 20
238.4668469025381
 30
0.0
 10
683.13992809362
 20
234.0287258692298
 30
0.0
 10
682.415666259525
 20
229.6373518806705
 30
0.0
 10
681.8785893414815
 20
225.3047948614046
 30
0.0
 10
681.5311028136751
 20
221.0430040298895
 30
0.0
 10
681.3751800185116
 20
216.8638132315205
 30
0.0
 10
681.4124084722118
 20
212.7790257416476
 30
0.0
 10
681.6439092957582
 20
208.8003645978208
 30
0.0
 10
682.0702838970504
 20
204.9397430273918
 30
0.0
 10
682.6915363595449
 20
201.2090584126065
 30
0.0
 10
683.5069057724296
 20
197.620232546653
 30
0.0
 10
684.5148504418498
 20
194.185096880488
 30
0.0
 10
685.7127534282632
 20
190.9153888878138
 30
0.0
 10
687.0969292880875
 20
187.8225604945081
 30
0.0
 10
688.6624151019636
 20
184.917530361891
 30
0.0
 10
690.4030651498394
 20
182.2103753139456
 30
0.0
 10
692.3117162727335
 20
179.7100523927748
 30
0.0
 10
694.3802748866203
 20
177.4238459584354
 30
0.0
 10
696.6008827563753
 20
175.358763747736
 30
0.0
 10
698.9634059002507
 20
173.5157606762215
 30
0.0
 10
701.4665760110311
 20
171.9121712765599
 30
0.0
 10
703.7078598413628
 20
170.6995425492117
 30
0.0
 10
705.1579907392933
 20
170.1173995652511
 30
0.0
 10
705.6871485573686
 20
169.9049735617502
 30
0.0
  0
SPLINE
  5
255
330
1F
100
AcDbEntity
  8
0
  6
Continuous
 62
     7
370
    15
100
AcDbSpline
210
0.0
220
0.0
230
1.0
 70
     8
 71
     3
 72
    25
 73
    21
 74
     0
 42
0.000000001
 43
0.00000001
 40
0.0
 40
0.0
 40
0.0
 40
0.0
 40
0.000833318694999
 40
0.0608342691802871
 40
0.1206715526162403
 40
0.1804542952282454
 40
0.2402588191906767
 40
0.3001949822302069
 40
0.3603567694767231
 40
0.4208138937243081
 40
0.4816059741098888
 40
0.5427425037937736
 40
0.6042061161558575
 40
0.6659594362087098
 40
0.7279529999515348
 40
0.7901331742533068
 40
0.8524481861744637
 40
0.9148522494494009
 40
0.9773074642477341
 40
1.0
 40
1.0
 40
1.0
 40
1.0
 10
797.3581930640113
 20
328.7036397021273
 30
0.0
 10
797.3476027311941
 20
328.7125857702534
 30
0.0
 10
796.5744829618009
 20
329.3656702621237
 30
0.0
 10
794.9035528247779
 20
330.4626516439384
 30
0.0
 10
792.3472950840331
 20
331.96762833702
 30
0.0
 10
789.6492913464843
 20
333.213574146197
 30
0.0
 10
786.8400965520976
 20
334.2313021684744
 30
0.0
 10
783.92055997085
 20
335.0098710139588
 30
0.0
 10
780.8987865355982
 20
335.5496924177774
 30
0.0
 10
777.7811173523952
 20
335.8481434847212
 30
0.0
 10
774.5751260784261
 20
335.9034940295965
 30
0.0
 10
771.2891833647764
 20
335.714264326721
 30
0.0
 10
767.9326499175805
 20
335.2797963094566
 30
0.0
 10
764.5157377548667
 20
334.6004173250128
 30
0.0
 10
761.0492839477521
 20
333.6777033940797
 30
0.0
 10
757.5444642765815
 20
332.5141594920209
 30
0.0
 10
754.0124828957972
 20
331.1143937013285
 30
0.0
 10
750.46467918713
 20
329.4803693587573
 30
0.0
 10
747.6658025601153
 20
328.0217320316343
 30
0.0
 10
746.0535079750773
 20
327.1023301324522
 30
0.0
 10
745.6238189665295
 20
326.8573023973331
 30
0.0
  0
SPLINE
  5
256
330
1F
100
AcDbEntity
  8
0
  6
Continuous
 62
     7
370
    15
100
AcDbSpline
210
0.0
220
0.0
230
1.0
 70
     8
 71
     3
 72
    53
 73
    49
 74
     0
 42
0.000000001
 43
0.00000001
 40
0.0
 40
0.0
 40
0.0
 40
0.0
 40
0.0118125145898362
 40
0.034150365798782
 40
0.0564797976666978
 40
0.0787995367781118
 40
0.1011078118344972
 40
0.1234039006151127
 40
0.14568782507549
 40
0.1679601859816237
 40
0.1902218942251482
 40
0.2124742098971336
 40
0.2347184939761636
 40
0.2569562372052703
 40
0.2791890041080438
 40
0.3014184256235294
 40
0.323646141375025
 40
0.3458738009035316
 40
0.3681027190673227
 40
0.3903343887582216
 40
0.4125704773971078
 40
0.4348126443549189
 40
0.457062573329414
 40
0.4793218799440659
 40
0.5015921347730687
 40
0.5238747821656324
 40
0.5461710930089966
 40
0.5684820900896337
 40
0.5908083697167968
 40
0.6131499462899602
 40
0.6355060220793035
 40
0.6578746446204571
 40
0.6802523385667623
 40
0.7026326560601136
 40
0.7250053788159729
 40
0.7473585746434888
 40
0.7696770690229425
 40
0.791942610553328
 40
0.8141348852599166
 40
0.8362331274446618
 40
0.8582188581726723
 40
0.8800789049180658
 40
0.9018087367891187
 40
0.9234145030036357
 40
0.9449140532980903
 40
0.9663357254531051
 40
0.9877157868648335
 40
1.0
 40
1.0
 40
1.0
 40
1.0
 10
737.8456444156244
 20
331.3475469880272
 30
0.0
 10
737.2205205496197
 20
330.9804022203149
 30
0.0
 10
735.4132670193696
 20
329.9189746958763
 30
0.0
 10
732.4347318508694
 20
327.9990904485524
 30
0.0
 10
728.9257341459036
 20
325.526303531299
 30
0.0
 10
725.4515209201896
 20
322.8521872037029
 30
0.0
 10
722.0213025719451
 20
319.9887131046718
 30
0.0
 10
718.6444082399307
 20
316.9434870844127
 30
0.0
 10
715.3299081226033
 20
313.7258278938693
 30
0.0
 10
712.0867192255923
 20
310.3450793823839
 30
0.0
 10
708.9235746452382
 20
306.8110407877793
 30
0.0
 10
705.8490044280646
 20
303.1338599221651
 30
0.0
 10
702.8713439723354
 20
299.3240055118392
 30
0.0
 10
699.9986958844142
 20
295.3922830321946
 30
0.0
 10
697.2389090354495
 20
291.3497833186877
 30
0.0
 10
694.599568300088
 20
287.2078715580064
 30
0.0
 10
692.0879804913022
 20
282.9781446712656
 30
0.0
 10
689.7111177085717
 20
278.6724605437984
 30
0.0
 10
687.4756742964283
 20
274.3028425346168
 30
0.0
 10
685.3879788115365
 20
269.8814737871446
 30
0.0
 10
683.4539557488516
 20
265.4206388389366
 30
0.0
 10
681.6791879924606
 20
260.9326727313124
 30
0.0
 10
680.0688688676553
 20
256.4299493318053
 30
0.0
 10
678.6277638549566
 20
251.9248745981273
 30
0.0
 10
677.3602872447638
 20
247.4298126500078
 30
0.0
 10
676.2704194077843
 20
242.9570914932322
 30
0.0
 10
675.3617535427156
 20
238.5189704599234
 30
0.0
 10
674.6374917086168
 20
234.1275964713661
 30
0.0
 10
674.1004147905874
 20
229.7950394520926
 30
0.0
 10
673.7529282627288
 20
225.5332486206063
 30
0.0
 10
673.5970054677603
 20
221.3540578221295
 30
0.0
 10
673.6342339207321
 20
217.2692703326592
 30
0.0
 10
673.8657347469986
 20
213.2906091873291
 30
0.0
 10
674.2921093381385
 20
209.4299876225109
 30
0.0
 10
674.9133618384988
 20
205.6993029867982
 30
0.0
 10
675.7287311102691
 20
202.110477198835
 30
0.0
 10
676.7366763050346
 20
198.6753412423253
 30
0.0
 10
677.9345773497491
 20
195.4056342974069
 30
0.0
 10
679.3187604489176
 20
192.3128019348098
 30
0.0
 10
680.8842348103066
 20
189.4077781263347
 30
0.0
 10
682.6248923909444
 20
186.7006189305395
 30
0.0
 10
684.5335401924937
 20
184.2002978175449
 30
0.0
 10
686.602104751272
 20
181.9140880602208
 30
0.0
 10
688.8227074935097
 20
179.8490087215945
 30
0.0
 10
691.1852300392791
 20
178.0060060237221
 30
0.0
 10
693.6884075670155
 20
176.4024123322378
 30
0.0
 10
695.9296793285987
 20
175.1897906250067
 30
0.0
 10
697.3798164600663
 20
174.6076439993903
 30
0.0
 10
697.9089766406415
 20
174.3952166317657
 30
0.0
  0
SPLINE
  5
257
330
1F
100
AcDbEntity
  8
0
  6
Continuous
 62
     7
370
    15
100
AcDbSpline
210
0.0
220
0.0
230
1.0
 70
     8
 71
     3
 72
    25
 73
    21
 74
     0
 42
0.000000001
 43
0.00000001
 40
0.0
 40
0.0
 40
0.0
 40
0.0
 40
0.000833324266563
 40
0.0608342688560586
 40
0.12067155500965
 40
0.1804542974510211
 40
0.2402588240296543
 40
0.3001949842304725
 40
0.3603567713052728
 40
0.4208138977147357
 40
0.4816059757860258
 40
0.5427425033536261
 40
0.6042061172855461
 40
0.6659594371621399
 40
0.7279530007280208
 40
0.7901331748523159
 40
0.8524481865956112
 40
0.9148522496924325
 40
0.9773074643125039
 40
1.0
 40
1.0
 40
1.0
 40
1.0
 10
789.5800211472842
 20
333.1938827721427
 30
0.0
 10
789.5694290448362
 20
333.2028298618217
 30
0.0
 10
788.7961852621593
 20
333.8559845590414
 30
0.0
 10
787.12543944716
 20
334.9528615598018
 30
0.0
 10
784.5691039374655
 20
336.4578823452905
 30
0.0
 10
781.871122269041
 20
337.7038156028303
 30
0.0
 10
779.0619165224886
 20
338.721549955694
 30
0.0
 10
776.142386573728
 20
339.5001149153538
 30
0.0
 10
773.1206126207984
 20
340.0399366026494
 30
0.0
 10
770.0029388199612
 20
340.3383904494477
 30
0.0
 10
766.7969515086473
 20
340.3937386302538
 30
0.0
 10
763.5110129261617
 20
340.2045064572354
 30
0.0
 10
760.1544742964159
 20
339.7700415712968
 30
0.0
 10
756.7375635012019
 20
339.0906617364811
 30
0.0
 10
753.2711093168089
 20
338.167948033034
 30
0.0
 10
749.7662897472036
 20
337.0044040697347
 30
0.0
 10
746.2343083390983
 20
335.6046382955161
 30
0.0
 10
742.6865046378219
 20
333.9706139484884
 30
0.0
 10
739.8876280090876
 20
332.5119766224022
 30
0.0
 10
738.2753334241463
 20
331.5925747231617
 30
0.0
 10
737.8456444156244
 20
331.3475469880272
 30
0.0
  0
SPLINE
  5
258
330
1F
100
AcDbEntity
  8
0
  6
Continuous
 62
     7
370
    15
100
AcDbSpline
210
0.0
220
0.0
230
1.0
 70
     8
 71
     3
 72
    53
 73
    49
 74
     0
 42
0.000000001
 43
0.00000001
 40
0.0
 40
0.0
 40
0.0
 40
0.0
 40
0.0118125145898362
 40
0.034150365798782
 40
0.0564797976666978
 40
0.0787995367781118
 40
0.1011078118344972
 40
0.1234039006151127
 40
0.14568782507549
 40
0.1679601859816237
 40
0.1902218942251482
 40
0.2124742098971336
 40
0.2347184939761636
 40
0.2569562372052703
 40
0.2791890041080438
 40
0.3014184256235294
 40
0.323646141375025
 40
0.3458738009035316
 40
0.3681027190673227
 40
0.3903343887582216
 40
0.4125704773971078
 40
0.4348126443549189
 40
0.457062573329414
 40
0.4793218799440659
 40
0.5015921347730687
 40
0.5238747821656324
 40
0.5461710930089966
 40
0.5684820900896337
 40
0.5908083697167968
 40
0.6131499462899602
 40
0.6355060220793035
 40
0.6578746446204571
 40
0.6802523385667623
 40
0.7026326560601136
 40
0.7250053788159729
 40
0.7473585746434888
 40
0.7696770690229425
 40
0.791942610553328
 40
0.8141348852599166
 40
0.8362331274446618
 40
0.8582188581726723
 40
0.8800789049180658
 40
0.9018087367891187
 40
0.9234145030036357
 40
0.9449140532980903
 40
0.9663357254531051
 40
0.9877157868648335
 40
1.0
 40
1.0
 40
1.0
 40
1.0
 10
730.0674698647191
 20
335.8377915787213
 30
0.0
 10
729.4423459987144
 20
335.470646811009
 30
0.0
 10
727.6350924684643
 20
334.4092192865704
 30
0.0
 10
724.6565572999642
 20
332.4893350392465
 30
0.0
 10
721.1475595949985
 20
330.016548121993
 30
0.0
 10
717.6733463692844
 20
327.342431794397
 30
0.0
 10
714.24312802104
 20
324.4789576953658
 30
0.0
 10
710.8662336890255
 20
321.4337316751067
 30
0.0
 10
707.5517335716982
 20
318.2160724845634
 30
0.0
 10
704.3085446746871
 20
314.8353239730779
 30
0.0
 10
701.1454000943331
 20
311.3012853784733
 30
0.0
 10
698.0708298771594
 20
307.6241045128592
 30
0.0
 10
695.0931694214302
 20
303.8142501025333
 30
0.0
 10
692.2205213335089
 20
299.8825276228887
 30
0.0
 10
689.4607344845442
 20
295.8400279093817
 30
0.0
 10
686.8213937491828
 20
291.6981161487005
 30
0.0
 10
684.3098059403972
 20
287.4683892619597
 30
0.0
 10
681.9329431576665
 20
283.1627051344925
 30
0.0
 10
679.6974997455231
 20
278.7930871253109
 30
0.0
 10
677.6098042606314
 20
274.3717183778386
 30
0.0
 10
675.6757811979463
 20
269.9108834296306
 30
0.0
 10
673.9010134415555
 20
265.4229173220065
 30
0.0
 10
672.2906943167502
 20
260.9201939224993
 30
0.0
 10
670.8495893040515
 20
256.4151191888213
 30
0.0
 10
669.5821126938586
 20
251.9200572407019
 30
0.0
 10
668.4922448568791
 20
247.4473360839263
 30
0.0
 10
667.5835789918106
 20
243.0092150506175
 30
0.0
 10
666.8593171577118
 20
238.6178410620602
 30
0.0
 10
666.3222402396822
 20
234.2852840427866
 30
0.0
 10
665.9747537118237
 20
230.0234932113003
 30
0.0
 10
665.8188309168552
 20
225.8443024128235
 30
0.0
 10
665.856059369827
 20
221.7595149233532
 30
0.0
 10
666.0875601960934
 20
217.7808537780231
 30
0.0
 10
666.5139347872334
 20
213.920232213205
 30
0.0
 10
667.1351872875937
 20
210.1895475774922
 30
0.0
 10
667.9505565593639
 20
206.6007217895291
 30
0.0
 10
668.9585017541295
 20
203.1655858330194
 30
0.0
 10
670.156402798844
 20
199.895878888101
 30
0.0
 10
671.5405858980124
 20
196.8030465255039
 30
0.0
 10
673.1060602594015
 20
193.8980227170288
 30
0.0
 10
674.8467178400391
 20
191.1908635212336
 30
0.0
 10
676.7553656415886
 20
188.690542408239
 30
0.0
 10
678.8239302003669
 20
186.4043326509148
 30
0.0
 10
681.0445329426045
 20
184.3392533122885
 30
0.0
 10
683.407055488374
 20
182.4962506144162
 30
0.0
 10
685.9102330161102
 20
180.8926569229318
 30
0.0
 10
688.1515047776936
 20
179.6800352157008
 30
0.0
 10
689.6016419091612
 20
179.0978885900844
 30
0.0
 10
690.1308020897363
 20
178.8854612224598
 30
0.0
  0
SPLINE
  5
259
330
1F
100
AcDbEntity
  8
0
  6
Continuous
 62
     7
370
    15
100
AcDbSpline
210
0.0
220
0.0
230
1.0
 70
     8
 71
     3
 72
    25
 73
    21
 74
     0
 42
0.000000001
 43
0.00000001
 40
0.0
 40
0.0
 40
0.0
 40
0.0
 40
0.000833324266563
 40
0.0608342688560586
 40
0.12067155500965
 40
0.1804542974510211
 40
0.2402588240296543
 40
0.3001949842304725
 40
0.3603567713052728
 40
0.4208138977147357
 40
0.4816059757860258
 40
0.5427425033536261
 40
0.6042061172855461
 40
0.6659594371621399
 40
0.7279530007280208
 40
0.7901331748523159
 40
0.8524481865956112
 40
0.9148522496924325
 40
0.9773074643125039
 40
1.0
 40
1.0
 40
1.0
 40
1.0
 10
781.8018465963789
 20
337.6841273628368
 30
0.0
 10
781.7912544939311
 20
337.6930744525158
 30
0.0
 10
781.0180107112541
 20
338.3462291497353
 30
0.0
 10
779.3472648962548
 20
339.4431061504958
 30
0.0
 10
776.7909293865603
 20
340.9481269359845
 30
0.0
 10
774.092947718136
 20
342.1940601935244
 30
0.0
 10
771.2837419715835
 20
343.211794546388
 30
0.0
 10
768.3642120228229
 20
343.9903595060479
 30
0.0
 10
765.3424380698933
 20
344.5301811933434
 30
0.0
 10
762.2247642690561
 20
344.8286350401417
 30
0.0
 10
759.0187769577423
 20
344.8839832209479
 30
0.0
 10
755.7328383752566
 20
344.6947510479295
 30
0.0
 10
752.3762997455106
 20
344.2602861619908
 30
0.0
 10
748.9593889502968
 20
343.5809063271751
 30
0.0
 10
745.4929347659037
 20
342.658192623728
 30
0.0
 10
741.9881151962984
 20
341.4946486604288
 30
0.0
 10
738.4561337881931
 20
340.0948828862101
 30
0.0
 10
734.9083300869167
 20
338.4608585391824
 30
0.0
 10
732.1094534581824
 20
337.0022212130962
 30
0.0
 10
730.4971588732412
 20
336.0828193138558
 30
0.0
 10
730.0674698647191
 20
335.8377915787213
 30
0.0
  0
SPLINE
  5
25A
330
1F
100
AcDbEntity
  8
0
  6
Continuous
 62
     7
370
    15
100
AcDbSpline
210
0.0
220
0.0
230
1.0
 70
     8
 71
     3
 72
    53
 73
    49
 74
     0
 42
0.000000001
 43
0.00000001
 40
0.0
 40
0.0
 40
0.0
 40
0.0
 40
0.0118125145881412
 40
0.0341503657938818
 40
0.0564797976585934
 40
0.0787995367668048
 40
0.1011078118199891
 40
0.1234039005974053
 40
0.1456878250545851
 40
0.1679601859575228
 40
0.1902218941978529
 40
0.2124742098666454
 40
0.2347184939424835
 40
0.2569562371683993
 40
0.2791890040679825
 40
0.3014184255802785
 40
0.3236461413285845
 40
0.3458738008539016
 40
0.3681027190145031
 40
0.3903343887022119
 40
0.4125704773379075
 40
0.434812644292527
 40
0.4570625732638294
 40
0.4793218798752873
 40
0.5015921347010945
 40
0.5238747820904608
 40
0.5461710929306256
 40
0.5684820900080613
 40
0.5908083696320209
 40
0.6131499462019784
 40
0.6355060219881138
 40
0.6578746445260576
 40
0.6802523384691518
 40
0.7026326559592918
 40
0.7250053787119408
 40
0.7473585745362491
 40
0.7696770689125003
 40
0.7919426104396909
 40
0.8141348838437521
 40
0.836233127468161
 40
0.8582188581930167
 40
0.8800789049352736
 40
0.9018087368032084
 40
0.9234145030146251
 40
0.9449140533059947
 40
0.9663357254579358
 40
0.9877157868665963
 40
1.0
 40
1.0
 40
1.0
 40
1.0
 10
722.289295313814
 20
340.3280361694153
 30
0.0
 10
721.6641714478093
 20
339.960891401703
 30
0.0
 10
719.8569179175593
 20
338.8994638772644
 30
0.0
 10
716.878382749059
 20
336.9795796299405
 30
0.0
 10
713.3693850440933
 20
334.5067927126871
 30
0.0
 10
709.8951718183793
 20
331.832676385091
 30
0.0
 10
706.4649534701347
 20
328.9692022860599
 30
0.0
 10
703.0880591381205
 20
325.9239762658008
 30
0.0
 10
699.773559020793
 20
322.7063170752574
 30
0.0
 10
696.530370123782
 20
319.325568563772
 30
0.0
 10
693.367225543428
 20
315.7915299691674
 30
0.0
 10
690.2926553262542
 20
312.1143491035533
 30
0.0
 10
687.3149948705251
 20
308.3044946932273
 30
0.0
 10
684.4423467826039
 20
304.3727722135827
 30
0.0
 10
681.6825599336391
 20
300.3302725000757
 30
0.0
 10
679.0432191982777
 20
296.1883607393946
 30
0.0
 10
676.5316313894918
 20
291.9586338526537
 30
0.0
 10
674.1547686067614
 20
287.6529497251865
 30
0.0
 10
671.919325194618
 20
283.2833317160049
 30
0.0
 10
669.8316297097264
 20
278.8619629685327
 30
0.0
 10
667.8976066470412
 20
274.4011280203246
 30
0.0
 10
666.1228388906504
 20
269.9131619127006
 30
0.0
 10
664.512519765845
 20
265.4104385131934
 30
0.0
 10
663.0714147531462
 20
260.9053637795154
 30
0.0
 10
661.8039381429534
 20
256.4103018313959
 30
0.0
 10
660.7140703059742
 20
251.9375806746201
 30
0.0
 10
659.8054044409041
 20
247.4994596413122
 30
0.0
 10
659.0811426068111
 20
243.1080856527517
 30
0.0
 10
658.5440656887598
 20
238.7755286334902
 30
0.0
 10
658.1965791609832
 20
234.5137378019586
 30
0.0
 10
658.0406563657084
 20
230.334547003651
 30
0.0
 10
658.077884819824
 20
226.2497595135489
 30
0.0
 10
658.3093856418194
 20
222.2710983705783
 30
0.0
 10
658.7357602489005
 20
218.4104767969534
 30
0.0
 10
659.357012689803
 20
214.6797921940881
 30
0.0
 10
660.1723821831548
 20
211.0909662837124
 30
0.0
 10
661.1803265530098
 20
207.655830782924
 30
0.0
 10
662.3782306416199
 20
204.3861222071531
 30
0.0
 10
663.7624023492772
 20
201.2932961248432
 30
0.0
 10
665.3278880544696
 20
198.3882660536511
 30
0.0
 10
667.0685426556264
 20
195.6811084609072
 30
0.0
 10
668.9771912589313
 20
193.1807869062505
 30
0.0
 10
671.0457556047714
 20
190.8945772662273
 30
0.0
 10
673.2663584035821
 20
188.8294978964368
 30
0.0
 10
675.628880934301
 20
186.9864952068552
 30
0.0
 10
678.1320584660621
 20
185.3829015131537
 30
0.0
 10
680.3733302266766
 20
184.1702798064565
 30
0.0
 10
681.823467358226
 20
183.5881331807949
 30
0.0
 10
682.3526275388311
 20
183.3757058131538
 30
0.0
  0
SPLINE
  5
25B
330
1F
100
AcDbEntity
  8
0
  6
Continuous
 62
     7
370
    15
100
AcDbSpline
210
0.0
220
0.0
230
1.0
 70
     8
 71
     3
 72
    25
 73
    21
 74
     0
 42
0.000000001
 43
0.00000001
 40
0.0
 40
0.0
 40
0.0
 40
0.0
 40
0.000833324266563
 40
0.0608342688560586
 40
0.12067155500965
 40
0.1804542974510211
 40
0.2402588240296543
 40
0.3001949842304725
 40
0.3603567713052728
 40
0.4208138977147357
 40
0.4816059757860258
 40
0.5427425033536261
 40
0.6042061172855461
 40
0.6659594371621399
 40
0.7279530007280208
 40
0.7901331748523159
 40
0.8524481865956112
 40
0.9148522496924325
 40
0.9773074643125039
 40
1.0
 40
1.0
 40
1.0
 40
1.0
 10
774.0236720454739
 20
342.1743719535308
 30
0.0
 10
774.0130799430258
 20
342.1833190432098
 30
0.0
 10
773.2398361603491
 20
342.8364737404294
 30
0.0
 10
771.5690903453497
 20
343.9333507411899
 30
0.0
 10
769.0127548356551
 20
345.4383715266786
 30
0.0
 10
766.3147731672309
 20
346.6843047842185
 30
0.0
 10
763.5055674206782
 20
347.7020391370821
 30
0.0
 10
760.5860374719176
 20
348.480604096742
 30
0.0
 10
757.5642635189882
 20
349.0204257840375
 30
0.0
 10
754.4465897181509
 20
349.3188796308358
 30
0.0
 10
751.240602406837
 20
349.374227811642
 30
0.0
 10
747.9546638243515
 20
349.1849956386235
 30
0.0
 10
744.5981251946055
 20
348.7505307526849
 30
0.0
 10
741.1812143993917
 20
348.0711509178691
 30
0.0
 10
737.7147602149985
 20
347.1484372144221
 30
0.0
 10
734.2099406453932
 20
345.9848932511229
 30
0.0
 10
730.677959237288
 20
344.5851274769042
 30
0.0
 10
727.1301555360116
 20
342.9511031298765
 30
0.0
 10
724.3312789072774
 20
341.4924658037902
 30
0.0
 10
722.718984322336
 20
340.5730639045498
 30
0.0
 10
722.289295313814
 20
340.3280361694153
 30
0.0
  0
LWPOLYLINE
  5
25C
330
1F
100
AcDbEntity
  8
0
  6
Continuous
 62
     7
370
    15
100
AcDbPolyline
 90
      131
 70
   128
 43
0.0
 10
873.4886645611
 20
280.9447942616
 10
869.2183247965
 20
278.3603876774
 10
864.9579586886
 20
275.5436347895
 10
860.7175161861
 20
272.5011130485
 10
856.5069011401
 20
269.2399269101
 10
852.3359489127
 20
265.7676949093
 10
848.2143980601
 20
262.092521146
 10
844.1518791372
 20
258.2230009888
 10
840.1578751849
 20
254.1681617635
 10
836.2417164618
 20
249.9374779622
 10
832.4125514682
 20
245.5408301813
 10
828.6793206044
 20
240.9884838308
 10
825.0507456338
 20
236.2910769683
 10
821.5352980729
 20
231.4595777156
 10
818.1411912889
 20
226.5052675294
 10
814.8763488893
 20
221.4397229533
 10
811.7483994536
 20
216.2747639067
 10
808.7646449234
 20
211.0224658551
 10
805.9320606021
 20
205.6950928895
 10
803.2572582766
 20
200.3050886043
 10
800.7464809487
 20
194.8650304698
 10
798.4055975672
 20
189.387632875
 10
796.2400766857
 20
183.8856923762
 10
794.2549706575
 20
178.3720542385
 10
792.4549156361
 20
172.8595911428
 10
790.8441263063
 20
167.3611879766
 10
789.4263484693
 20
161.8896749186
 10
788.2049064576
 20
156.4578396006
 10
787.1826504521
 20
151.0783662764
 10
786.3619670179
 20
145.7638206107
 10
785.7447685683
 20
140.5266093763
 10
785.3324986328
 20
135.378967525
 10
785.1261265891
 20
130.3329209261
 10
785.1261265891
 20
125.4002498659
 10
785.3324986328
 20
120.5924753569
 10
785.7447685683
 20
115.9208302413
 10
786.3619670179
 20
111.3962211685
 10
787.1826504521
 20
107.029216427
 10
788.2049064576
 20
102.830014764
 10
789.4263484693
 20
98.8084263747
 10
790.8441263063
 20
94.9738447643
 10
792.4549156361
 20
91.3352193719
 10
794.2549706575
 20
87.901055566
 10
796.2400766857
 20
84.6793720627
 10
798.4055975672
 20
81.6776887543
 10
800.7464809487
 20
78.9030175826
 10
803.2572582766
 20
76.3618412465
 10
805.9320606021
 20
74.0600979909
 10
808.7646449234
 20
72.0031572695
 10
811.7483994536
 20
70.1958288703
 10
814.8763488893
 20
68.6423233701
 10
818.1411912889
 20
67.3462855924
 10
821.5352980729
 20
66.3107276861
 10
825.0507456338
 20
65.5380777921
 10
828.6793206044
 20
65.0301344154
 10
832.4125514682
 20
64.7880846731
 10
836.2417164618
 20
64.8124966888
 10
840.1578751849
 20
65.1033135063
 10
844.1518791372
 20
65.6598530884
 10
848.2143980601
 20
66.4808174399
 10
852.3359489127
 20
67.5642850004
 10
856.5069011401
 20
68.9077319368
 10
860.7175161861
 20
70.5080184512
 10
864.9579586886
 20
72.3614074111
 10
869.2183247965
 20
74.4635685294
 10
873.4886645611
 20
76.8095912902
 10
877.7590043256
 20
79.3939978744
 10
882.0193704336
 20
82.2107507623
 10
886.259812936
 20
85.2532725034
 10
890.4704279821
 20
88.5144586418
 10
894.6413802095
 20
91.9866906425
 10
898.7629310621
 20
95.6618644059
 10
902.825449985
 20
99.531384563
 10
906.8194539372
 20
103.5862237883
 10
910.7356126603
 20
107.8169075896
 10
914.5647776539
 20
112.2135553705
 10
918.2980085177
 20
116.765901721
 10
921.9265834884
 20
121.4633085835
 10
925.4420310492
 20
126.2948078362
 10
928.8361378332
 20
131.2491180224
 10
932.1009802329
 20
136.3146625985
 10
935.2289296685
 20
141.4796216451
 10
938.2126841987
 20
146.7319196967
 10
941.04526852
 20
152.0592926623
 10
943.7200708456
 20
157.4492969475
 10
946.2308481734
 20
162.889355082
 10
948.5717315549
 20
168.3667526768
 10
950.7372524365
 20
173.8686931756
 10
952.7223584646
 20
179.3823313133
 10
954.522413486
 20
184.8947944091
 10
956.1332028158
 20
190.3931975752
 10
957.5509806529
 20
195.8647106333
 10
958.7724226645
 20
201.2965459512
 10
959.7946786701
 20
206.6760192754
 10
960.6153621043
 20
211.9905649411
 10
961.2325605539
 20
217.2277761756
 10
961.6448304893
 20
222.3754180268
 10
961.851202533
 20
227.4214646257
 10
961.851202533
 20
232.354135686
 10
961.6448304893
 20
237.1619101949
 10
961.2325605539
 20
241.8335553106
 10
960.6153621043
 20
246.3581643833
 10
959.7946786701
 20
250.7251691248
 10
958.7724226645
 20
254.9243707878
 10
957.5509806529
 20
258.9459591771
 10
956.1332028158
 20
262.7805407875
 10
954.522413486
 20
266.41916618
 10
952.7223584646
 20
269.8533299859
 10
950.7372524365
 20
273.0750134891
 10
948.5717315549
 20
276.0766967975
 10
946.2308481734
 20
278.8513679692
 10
943.7200708456
 20
281.3925443053
 10
941.04526852
 20
283.694287561
 10
938.2126841987
 20
285.7512282823
 10
935.2289296685
 20
287.5585566816
 10
932.1009802329
 20
289.1120621817
 10
928.8361378332
 20
290.4080999594
 10
925.4420310492
 20
291.4436578658
 10
921.9265834884
 20
292.2163077598
 10
918.2980085177
 20
292.7242511364
 10
914.5647776539
 20
292.9663008788
 10
910.7356126603
 20
292.941888863
 10
906.8194539372
 20
292.6510720455
 10
902.825449985
 20
292.0945324634
 10
898.7629310621
 20
291.273568112
 10
894.6413802095
 20
290.1901005514
 10
890.4704279821
 20
288.846653615
 10
886.259812936
 20
287.2463671006
 10
882.0193704336
 20
285.3929781407
 10
877.7590043256
 20
283.2908170224
 10
873.4886645611
 20
280.9447942616
  0
LWPOLYLINE
  5
25D
330
1F
100
AcDbEntity
  8
0
  6
Continuous
 62
     7
370
    15
100
AcDbPolyline
 90
       16
 70
   128
 43
0.0
 10
873.4886645611
 20
261.3478176479
 10
877.3551456499
 20
263.4589395676
 10
881.2102852853
 20
265.3219668564
 10
885.0427765872
 20
266.9314368397
 10
888.841377213
 20
268.2826298088
 10
892.5949452484
 20
269.3715836567
 10
896.2924724632
 20
270.1950948259
 10
899.9231126294
 20
270.7507650736
 10
903.476213131
 20
271.0369467158
 10
906.9413584282
 20
271.0528103045
 10
910.3083779595
 20
270.7983066033
 10
913.5674014599
 20
270.2741802712
 10
916.708866863
 20
269.4819744241
 10
919.72355718
 20
268.4240093387
 10
922.6026347436
 20
267.1033839701
 10
923.9845614176
 20
266.348129858
  0
LWPOLYLINE
  5
25E
330
1F
100
AcDbEntity
  8
0
  6
Continuous
 62
     7
370
    15
100
AcDbPolyline
 90
       45
 70
   128
 43
0.0
 10
822.9927677046
 20
91.4062556939
 10
821.6396747432
 20
92.2304080803
 10
819.0567367424
 20
94.0639622161
 10
816.6334615404
 20
96.1462883261
 10
814.3769508813
 20
98.4712807477
 10
812.2938218202
 20
101.032115987
 10
810.3901909186
 20
103.8212831385
 10
808.6716373655
 20
106.8306051818
 10
807.1432029777
 20
110.0512481068
 10
805.8093763945
 20
113.4737756687
 10
804.6740561994
 20
117.0881372242
 10
803.7405877986
 20
120.8837392113
 10
803.0117002005
 20
124.8494451554
 10
802.4895323575
 20
128.9736235757
 10
802.1756173615
 20
133.2441772651
 10
802.0708771746
 20
137.6485816933
 10
802.1756173615
 20
142.1739165673
 10
802.4895323575
 20
146.8069087964
 10
803.0117002005
 20
151.5339693755
 10
803.7405877986
 20
156.3412310273
 10
804.6740561994
 20
161.2145926893
 10
805.8093763945
 20
166.1397670405
 10
807.1432029777
 20
171.1022979955
 10
808.6716373655
 20
176.0876337021
 10
810.3901909186
 20
181.0811554429
 10
812.2938218202
 20
186.0682080502
 10
814.3769508813
 20
191.0341729088
 10
816.6334615404
 20
195.9644770818
 10
819.0567367424
 20
200.844657186
 10
821.6396747432
 20
205.6604080598
 10
824.3746943786
 20
210.397601014
 10
827.2537719422
 20
215.0423385817
 10
830.2684622592
 20
219.5809910186
 10
833.4099276623
 20
224.0002556161
 10
836.6689511626
 20
228.2871703885
 10
840.035970694
 20
232.4291520932
 10
843.5011159911
 20
236.4140601058
 10
847.0542164928
 20
240.2302009824
 10
850.684856659
 20
243.8663786446
 10
854.3823838738
 20
247.3119415278
 10
858.1359519091
 20
250.5567650864
 10
861.934552535
 20
253.5913430463
 10
865.7670438369
 20
256.4067733335
 10
869.6221834722
 20
258.9947955244
 10
873.4886645611
 20
261.3478176479
  0
LWPOLYLINE
  5
25F
330
1F
100
AcDbEntity
  8
0
  6
Continuous
 62
     7
370
    15
100
AcDbPolyline
 90
       32
 70
   128
 43
0.0
 10
873.4886645611
 20
276.8620880121
 10
872.4211179802
 20
276.1204517858
 10
871.397276858
 20
275.1584531722
 10
870.4590572232
 20
274.0154807863
 10
869.6448703305
 20
272.7383297199
 10
868.9880489042
 20
271.3792892206
 10
868.5154829629
 20
269.9939924205
 10
868.2465195564
 20
268.6391629026
 10
868.1921705367
 20
267.3702531581
 10
868.3546604672
 20
266.2392246472
 10
868.7273370604
 20
265.2923789673
 10
869.294942828
 20
264.5684766326
 10
870.0342403685
 20
264.0971573438
 10
870.9149623177
 20
263.8977180252
 10
871.901051882
 20
263.9783202109
 10
872.9521385134
 20
264.3356677792
 10
874.0251906087
 20
264.9551275683
 10
875.0762772401
 20
265.8113387932
 10
876.0623668045
 20
266.8692513845
 10
876.9430887537
 20
268.0855506212
 10
877.6823862941
 20
269.4104446814
 10
878.2499920617
 20
270.789690686
 10
878.622668655
 20
272.1668196016
 10
878.7851585854
 20
273.4854549929
 10
878.7308095657
 20
274.6916146949
 10
878.4618461592
 20
275.7359056736
 10
877.9892802179
 20
276.5755894516
 10
877.3324587916
 20
277.1762800741
 10
876.518271899
 20
277.5133909635
 10
875.5800522642
 20
277.5731180167
 10
874.556211142
 20
277.3530148323
 10
873.4886645611
 20
276.8620880121
  0
LWPOLYLINE
  5
260
330
1F
100
AcDbEntity
  8
0
  6
Continuous
 62
     7
370
    15
100
AcDbPolyline
 90
       32
 70
   128
 43
0.0
 10
817.2386639432
 20
217.4842394954
 10
816.1711158806
 20
216.7425963301
 10
815.1472793682
 20
215.7806003776
 10
814.2090589102
 20
214.6376275165
 10
813.3948713591
 20
213.3604821536
 10
812.7380496035
 20
212.0014353806
 10
812.2654833329
 20
210.616144474
 10
811.9965179508
 20
209.2613077319
 10
811.9421695896
 20
207.9924044514
 10
812.1046614957
 20
206.861377081
 10
812.477334467
 20
205.9145293101
 10
813.0449418809
 20
205.1906279258
 10
813.7842397507
 20
204.7193088271
 10
814.6649613706
 20
204.5198693184
 10
815.6510501118
 20
204.6004710289
 10
816.7021398301
 20
204.9578203793
 10
817.7751880564
 20
205.5772779348
 10
818.8262777747
 20
206.4334909418
 10
819.8123665159
 20
207.4914030579
 10
820.6930881358
 20
208.7077021045
 10
821.4323860056
 20
210.0325963548
 10
821.9999934195
 20
211.4118433098
 10
822.3726663908
 20
212.7889701345
 10
822.5351582968
 20
214.1076066663
 10
822.4808099357
 20
215.3137606647
 10
822.2118445536
 20
216.3580565866
 10
821.739278283
 20
217.1977340909
 10
821.0824565274
 20
217.798430607
 10
820.2682742446
 20
218.1355380739
 10
819.3300537866
 20
218.1952646518
 10
818.3062120059
 20
217.9751610873
 10
817.2386639432
 20
217.4842394954
  0
LWPOLYLINE
  5
261
330
1F
100
AcDbEntity
  8
0
  6
Continuous
 62
     7
370
    15
100
AcDbPolyline
 90
       32
 70
   128
 43
0.0
 10
929.7386651789
 20
282.4291078183
 10
928.6711171163
 20
281.687464653
 10
927.6472753355
 20
280.7254656592
 10
926.7090548775
 20
279.5824927981
 10
925.8948725947
 20
278.3053504766
 10
925.2380508392
 20
276.9463037035
 10
924.7654845686
 20
275.561012797
 10
924.4965191865
 20
274.2061760549
 10
924.4421708253
 20
272.9372727743
 10
924.6046627314
 20
271.8062454039
 10
924.9773357026
 20
270.8593976331
 10
925.5449431166
 20
270.1354962488
 10
926.2842409863
 20
269.66417715
 10
927.1649626062
 20
269.4647376413
 10
928.1510513474
 20
269.5453393519
 10
929.2021410657
 20
269.9026887022
 10
930.2751892921
 20
270.5221462578
 10
931.3262790104
 20
271.3783592648
 10
932.3123677516
 20
272.4362713809
 10
933.1930893715
 20
273.6525704275
 10
933.9323872412
 20
274.9774646777
 10
934.4999946552
 20
276.3567116328
 10
934.8726676264
 20
277.7338384575
 10
935.0351595325
 20
279.0524749892
 10
934.9808111713
 20
280.2586289877
 10
934.7118457892
 20
281.3029249096
 10
934.2392795186
 20
282.1426024138
 10
933.5824577631
 20
282.7432989299
 10
932.7682702119
 20
283.0804033555
 10
931.8300497539
 20
283.1401299334
 10
930.8062132416
 20
282.9200294103
 10
929.7386651789
 20
282.4291078183
  0
LWPOLYLINE
  5
262
330
1F
100
AcDbEntity
  8
0
  6
Continuous
 62
     7
370
    15
100
AcDbPolyline
 90
       32
 70
   128
 43
0.0
 10
953.0381753372
 20
230.9242038017
 10
951.9706325429
 20
230.1825648184
 10
950.9467907622
 20
229.2205665851
 10
950.0085703042
 20
228.0775956251
 10
949.194382753
 20
226.8004456995
 10
948.5375609975
 20
225.4414038694
 10
948.0649947269
 20
224.0561085902
 10
947.7960346131
 20
222.7012766005
 10
947.7416809836
 20
221.4323684012
 10
947.9041728897
 20
220.3013411971
 10
948.2768511293
 20
219.354495327
 10
948.8444532749
 20
218.6305922321
 10
949.5837511446
 20
218.1592738938
 10
950.4644727645
 20
217.9598332444
 10
951.4505667741
 20
218.0404387568
 10
952.501651224
 20
218.3977835449
 10
953.5747047188
 20
219.0172441418
 10
954.6257891687
 20
219.8734556283
 10
955.6118779099
 20
220.931366984
 10
956.4925995298
 20
222.1476671713
 10
957.2318973995
 20
223.4725606611
 10
957.7995048135
 20
224.8518062853
 10
958.1721830531
 20
226.228937292
 10
958.3346696908
 20
227.5475706161
 10
958.2803213297
 20
228.7537264919
 10
958.0113612159
 20
229.7980237442
 10
957.5387949453
 20
230.6377056211
 10
956.8819731898
 20
231.2383971941
 10
956.0677856386
 20
231.5755061825
 10
955.1295651806
 20
231.6352308593
 10
954.1057233999
 20
231.4151265343
 10
953.0381753372
 20
230.9242038017
  0
LWPOLYLINE
  5
263
330
1F
100
AcDbEntity
  8
0
  6
Continuous
 62
     7
370
    15
100
AcDbPolyline
 90
       32
 70
   128
 43
0.0
 10
929.7386651789
 20
152.5182587214
 10
928.6711171163
 20
151.7766155561
 10
927.6472753355
 20
150.8146165624
 10
926.7090548775
 20
149.6716497849
 10
925.8948725947
 20
148.3945013797
 10
925.2380508392
 20
147.0354606903
 10
924.7654845686
 20
145.6501637001
 10
924.4965191865
 20
144.295326958
 10
924.4421708253
 20
143.0264236774
 10
924.6046627314
 20
141.895396307
 10
924.9773357026
 20
140.9485485362
 10
925.5449431166
 20
140.2246471519
 10
926.2842409863
 20
139.7533280532
 10
927.1649626062
 20
139.5538885444
 10
928.1510513474
 20
139.634490255
 10
929.2021410657
 20
139.9918396053
 10
930.2751892921
 20
140.6112971609
 10
931.3262790104
 20
141.4675101679
 10
932.3123677516
 20
142.525422284
 10
933.1930893715
 20
143.7417213306
 10
933.9323872412
 20
145.0666155808
 10
934.4999946552
 20
146.4458625359
 10
934.8726676264
 20
147.8229893606
 10
935.0351595325
 20
149.1416258923
 10
934.9808111713
 20
150.3477798908
 10
934.7118457892
 20
151.3920758127
 10
934.2392795186
 20
152.2317594007
 10
933.5824577631
 20
152.832449833
 10
932.7682702119
 20
153.1695603423
 10
931.8300497539
 20
153.2292808365
 10
930.8062132416
 20
153.0091803134
 10
929.7386651789
 20
152.5182587214
  0
LWPOLYLINE
  5
264
330
1F
100
AcDbEntity
  8
0
  6
Continuous
 62
     7
370
    15
100
AcDbPolyline
 90
       32
 70
   128
 43
0.0
 10
873.4886645611
 20
93.1404102047
 10
872.4211179802
 20
92.3987678948
 10
871.397276858
 20
91.4367692812
 10
870.4590572232
 20
90.2937968952
 10
869.6448703305
 20
89.0166458289
 10
868.9880489042
 20
87.6576053296
 10
868.5154829629
 20
86.2723146131
 10
868.2465195564
 20
84.9174790116
 10
868.1921705367
 20
83.6485692671
 10
868.3546604672
 20
82.5175407562
 10
868.7273370604
 20
81.5706950763
 10
869.294942828
 20
80.8467988253
 10
870.0342403685
 20
80.3754795365
 10
870.9149623177
 20
80.1760341341
 10
871.901051882
 20
80.2566424036
 10
872.9521385134
 20
80.6139838882
 10
874.0251906087
 20
81.2334436772
 10
875.0762772401
 20
82.0896609859
 10
876.0623668045
 20
83.1475674935
 10
876.9430887537
 20
84.3638728139
 10
877.6823862941
 20
85.6887668741
 10
878.2499920617
 20
87.068006795
 10
878.622668655
 20
88.4451357106
 10
878.7851585854
 20
89.7637711019
 10
878.7308095657
 20
90.9699308038
 10
878.4618461592
 20
92.0142278663
 10
877.9892802179
 20
92.8539055606
 10
877.3324587916
 20
93.454596183
 10
876.518271899
 20
93.7917070725
 10
875.5800522642
 20
93.8514341256
 10
874.556211142
 20
93.6313309413
 10
873.4886645611
 20
93.1404102047
  0
LWPOLYLINE
  5
265
330
1F
100
AcDbEntity
  8
0
  6
Continuous
 62
     7
370
    15
100
AcDbPolyline
 90
       32
 70
   128
 43
0.0
 10
817.2386639432
 20
87.5733903985
 10
816.1711158806
 20
86.8317472332
 10
815.1472793682
 20
85.8697512808
 10
814.2090589102
 20
84.7267845033
 10
813.3948713591
 20
83.4496330567
 10
812.7380496035
 20
82.0905923674
 10
812.2654833329
 20
80.7052953771
 10
811.9965179508
 20
79.3504586351
 10
811.9421695896
 20
78.0815553545
 10
812.1046614957
 20
76.9505279841
 10
812.477334467
 20
76.0036802132
 10
813.0449418809
 20
75.2797788289
 10
813.7842397507
 20
74.8084597302
 10
814.6649613706
 20
74.6090202215
 10
815.6510501118
 20
74.689621932
 10
816.7021398301
 20
75.0469712824
 10
817.7751880564
 20
75.6664288379
 10
818.8262777747
 20
76.5226418449
 10
819.8123665159
 20
77.580553961
 10
820.6930881358
 20
78.7968530076
 10
821.4323860056
 20
80.1217472579
 10
821.9999934195
 20
81.5009942129
 10
822.3726663908
 20
82.8781210376
 10
822.5351582968
 20
84.1967575694
 10
822.4808099357
 20
85.4029115678
 10
822.2118445536
 20
86.4472074898
 10
821.739278283
 20
87.2868910777
 10
821.0824565274
 20
87.8875815101
 10
820.2682742446
 20
88.2246950607
 10
819.3300537866
 20
88.2844155549
 10
818.3062120059
 20
88.0643119904
 10
817.2386639432
 20
87.5733903985
  0
LWPOLYLINE
  5
266
330
1F
100
AcDbEntity
  8
0
  6
Continuous
 62
     7
370
    15
100
AcDbPolyline
 90
       32
 70
   128
 43
0.0
 10
793.9391537849
 20
139.0782936547
 10
792.8716057223
 20
138.3366516301
 10
791.8477639415
 20
137.3746533968
 10
790.9095434836
 20
136.2316824367
 10
790.0953559324
 20
134.9545325111
 10
789.4385341768
 20
133.5954906811
 10
788.9659679063
 20
132.2101954019
 10
788.6970077925
 20
130.8553634122
 10
788.6426594313
 20
129.5864582542
 10
788.8051460691
 20
128.4554280088
 10
789.1778243087
 20
127.5085821386
 10
789.7454317226
 20
126.7846820851
 10
790.4847295924
 20
126.3133637469
 10
791.3654512123
 20
126.1139230975
 10
792.3515399534
 20
126.1945255685
 10
793.4026244034
 20
126.5518703565
 10
794.4756778981
 20
127.1713309535
 10
795.5267623481
 20
128.02754244
 10
796.5128563576
 20
129.085456837
 10
797.3935779775
 20
130.3017570243
 10
798.1328758472
 20
131.6266505141
 10
798.7004779929
 20
133.005893097
 10
799.0731562325
 20
134.3830241037
 10
799.2356481385
 20
135.7016604691
 10
799.181294509
 20
136.9078133036
 10
798.9123343952
 20
137.9521105558
 10
798.4397681247
 20
138.7917924328
 10
797.7829463691
 20
139.3924840058
 10
796.9687588179
 20
139.7295929942
 10
796.03053836
 20
139.7893176709
 10
795.0066965792
 20
139.569213346
 10
793.9391537849
 20
139.0782936547
  0
LWPOLYLINE
  5
267
330
1F
100
AcDbEntity
  8
0
  6
Continuous
 62
     7
370
    15
100
AcDbPolyline
 90
       50
 70
   128
 43
0.0
 10
856.5181042993
 20
290.741690168
 10
852.2477645347
 20
288.1572835838
 10
847.9873984267
 20
285.3405306958
 10
843.7469559243
 20
282.2980089548
 10
839.5363408783
 20
279.0368228164
 10
835.3653886509
 20
275.5645908157
 10
831.2438377983
 20
271.8894170523
 10
827.1813188754
 20
268.0198968952
 10
823.1873149231
 20
263.9650576699
 10
819.2711562
 20
259.7343738686
 10
815.4419912064
 20
255.3377260877
 10
811.7087603426
 20
250.7853797372
 10
808.080185372
 20
246.0879728747
 10
804.5647378111
 20
241.2564736219
 10
801.1706310271
 20
236.3021634357
 10
797.9057886275
 20
231.2366188597
 10
794.7778391918
 20
226.071659813
 10
791.7940846616
 20
220.8193617614
 10
788.9615003403
 20
215.4919887959
 10
786.2866980148
 20
210.1019845106
 10
783.7759206869
 20
204.6619263762
 10
781.4350373054
 20
199.1845287814
 10
779.2695164239
 20
193.6825882826
 10
777.2844103957
 20
188.1689501449
 10
775.4843553743
 20
182.6564870491
 10
773.8735660445
 20
177.158083883
 10
772.4557882074
 20
171.6865708249
 10
771.2343461958
 20
166.254735507
 10
770.2120901903
 20
160.8752621827
 10
769.3914067561
 20
155.5607165171
 10
768.7742083065
 20
150.3235052826
 10
768.361938371
 20
145.1758634313
 10
768.1555663273
 20
140.1298168325
 10
768.1555663273
 20
135.1971457722
 10
768.361938371
 20
130.3893712633
 10
768.7742083065
 20
125.7177261476
 10
769.3914067561
 20
121.1931170749
 10
770.2120901903
 20
116.8261123334
 10
771.2343461958
 20
112.6269106704
 10
772.4557882074
 20
108.6053222811
 10
773.8735660445
 20
104.7707406706
 10
775.4843553743
 20
101.1321152782
 10
777.2844103957
 20
97.6979514723
 10
779.2695164239
 20
94.4762679691
 10
781.4350373054
 20
91.4745846607
 10
783.7759206869
 20
88.699913489
 10
786.2866980148
 20
86.1587371529
 10
788.9615003403
 20
83.8569938972
 10
791.7940846616
 20
81.8000531759
 10
794.0231840642
 20
80.4179825581
  0
LWPOLYLINE
  5
268
330
1F
100
AcDbEntity
  8
0
  6
Continuous
 62
     7
370
    15
100
AcDbPolyline
 90
       18
 70
   128
 43
0.0
 10
919.0130245344
 20
296.9301948064
 10
918.2583694067
 20
297.3554525879
 10
915.1304199711
 20
298.9089580881
 10
911.8655775714
 20
300.2049958658
 10
908.4714707874
 20
301.2405537721
 10
904.9560232266
 20
302.0132036661
 10
901.3274482559
 20
302.5211470428
 10
897.5942173921
 20
302.7631967851
 10
893.7650523985
 20
302.7387847694
 10
889.8488936754
 20
302.4479679518
 10
885.8548897231
 20
301.8914283698
 10
881.7923708002
 20
301.0704640183
 10
877.6708199476
 20
299.9869964578
 10
873.4998677202
 20
298.6435495214
 10
869.2892526742
 20
297.043263007
 10
865.0488101718
 20
295.1898740471
 10
860.7884440638
 20
293.0877129288
 10
856.5181042993
 20
290.741690168
  0
LWPOLYLINE
  5
269
330
1F
100
AcDbEntity
  8
0
  6
Continuous
 62
     7
370
    15
100
AcDbPolyline
 90
      106
 70
   128
 43
0.0
 10
875.2564298282
 20
245.2213032668
 10
871.7676760397
 20
243.0867095781
 10
868.2914115477
 20
240.7186180089
 10
864.8400798802
 20
238.1254896325
 10
861.4260350026
 20
235.3166220397
 10
858.0615008183
 20
232.3020590379
 10
854.758519472
 20
229.0925973097
 10
851.528915789
 20
225.699723298
 10
848.3842498596
 20
222.13557975
 10
845.3357788435
 20
218.4129315
 10
842.3944161404
 20
214.5451053965
 10
839.5706905598
 20
210.5459423971
 10
836.8747120771
 20
206.4297595485
 10
834.3161296863
 20
202.2112952371
 10
831.9041024245
 20
197.9056437918
 10
829.6472651273
 20
193.528223548
 10
827.5536994529
 20
189.0947053666
 10
825.6308917352
 20
184.6209548429
 10
823.8857382523
 20
180.1229958039
 10
822.3244714695
 20
175.6169190595
 10
820.9526916492
 20
171.1188611067
 10
819.775303631
 20
166.6449220058
 10
818.7965220997
 20
162.2111182306
 10
818.0198557804
 20
157.8333233542
 10
817.4480758284
 20
153.5272034127
 10
817.083242171
 20
149.3081811607
 10
816.9266455554
 20
145.1913506198
 10
816.9788602323
 20
141.1914566363
 10
817.2396912727
 20
137.3228135166
 10
817.7082114458
 20
133.5992732742
 10
818.3827348777
 20
130.0341607081
 10
819.2608486614
 20
126.6402388933
 10
820.3394181249
 20
123.4296626024
 10
821.6145710266
 20
120.4139167092
 10
823.0817502385
 20
117.6038047774
 10
824.7357032095
 20
115.0093790981
 10
826.5705083075
 20
112.6399361254
 10
828.5795906241
 20
110.5039449911
 10
830.75576939
 20
108.6090657512
 10
833.091244804
 20
106.9620687781
 10
835.5776612534
 20
105.5688590899
 10
838.2061204848
 20
104.4344231161
 10
840.967207946
 20
103.5628165284
 10
843.8510428351
 20
102.9571627145
 10
846.8472991742
 20
102.6196345252
 10
849.9452532246
 20
102.5514268938
 10
853.1338150968
 20
102.752799418
 10
856.4015708973
 20
103.2230216036
 10
859.7368222415
 20
103.9604139253
 10
863.1276297176
 20
104.9623364158
 10
866.5618543745
 20
106.225200449
 10
870.0272034912
 20
107.7444890783
 10
873.5112719001
 20
109.5147565572
 10
877.0015877562
 20
111.5296730122
 10
880.4856561652
 20
113.7820252944
 10
883.9510052819
 20
116.2637435915
 10
887.3852299388
 20
118.9659509481
 10
890.7760374148
 20
121.8789714376
 10
894.111288759
 20
124.9923783513
 10
897.3790445596
 20
128.2950267052
 10
900.5676064317
 20
131.7750893571
 10
903.6655604821
 20
135.4201186004
 10
906.6618168213
 20
139.2170507233
 10
909.5456517104
 20
143.1523094275
 10
912.3067391715
 20
147.2117997419
 10
914.9351984029
 20
151.3809901477
 10
917.4216148523
 20
155.6449551626
 10
919.7570902663
 20
159.9884346525
 10
921.9332690322
 20
164.3958764141
 10
923.9423513488
 20
168.8515046163
 10
925.7771564468
 20
173.3393684632
 10
927.4311094179
 20
177.8434075956
 10
928.8982886297
 20
182.3474885884
 10
930.1734415314
 20
186.8354946839
 10
931.252010995
 20
191.2913607706
 10
932.1301247786
 20
195.6991311797
 10
932.8046482105
 20
200.0430319233
 10
933.2731683837
 20
204.3075140433
 10
933.533999424
 20
208.4773062721
 10
933.586214101
 20
212.5374860384
 10
933.4296174853
 20
216.4735139754
 10
933.0647838279
 20
220.2713082526
 10
932.4930038759
 20
223.9172651135
 10
931.7163375567
 20
227.3983401448
 10
930.7375560253
 20
230.7020668184
 10
929.5601680071
 20
233.8166226488
 10
928.1883881868
 20
236.7308573336
 10
926.627121404
 20
239.43433382
 10
924.8819679212
 20
241.9173815363
 10
922.9591602035
 20
244.1711055238
 10
920.865594529
 20
246.1874442286
 10
918.6087572318
 20
247.9591755927
 10
916.19672997
 20
249.4799596391
 10
913.6381475793
 20
250.7443476014
 10
910.9421690965
 20
251.7478199497
 10
908.1184435159
 20
252.4867787891
 10
905.1770808128
 20
252.9585798021
 10
902.1286097967
 20
253.1615383356
 10
898.9839438673
 20
253.0949278843
 10
895.7543401843
 20
252.7589808538
 10
892.451358838
 20
252.1549014931
 10
889.0868246537
 20
251.2848560118
 10
885.6727797762
 20
250.151951292
 10
882.2214481086
 20
248.7602569444
 10
878.7451836167
 20
247.1147389633
 10
875.2564298282
 20
245.2213032668
  0
LWPOLYLINE
  5
26A
330
1F
100
AcDbEntity
  8
0
  6
Continuous
 62
     7
370
    15
100
AcDbPolyline
 90
      117
 70
   128
 43
0.0
 10
875.2564298282
 20
260.3273084813
 10
871.3899487393
 20
257.9742863578
 10
867.534809104
 20
255.386264167
 10
863.7023178021
 20
252.5708338797
 10
859.9037171762
 20
249.5362559199
 10
856.1501491409
 20
246.2914323613
 10
852.4526219261
 20
242.8458694781
 10
848.8219817599
 20
239.2096918159
 10
845.2688812582
 20
235.3935509393
 10
841.803735961
 20
231.4086429267
 10
838.4367164297
 20
227.2666612219
 10
835.1776929294
 20
222.9797464495
 10
832.0362275262
 20
218.5604818521
 10
829.0215372092
 20
214.0218294152
 10
826.1424596457
 20
209.3770918474
 10
823.4074400103
 20
204.6398988932
 10
820.8245020095
 20
199.8241480195
 10
818.4012268075
 20
194.9439679153
 10
816.1447161484
 20
190.0136637423
 10
814.0615870873
 20
185.0476988837
 10
812.1579561857
 20
180.0606462764
 10
810.4394026326
 20
175.0671245356
 10
808.9109682447
 20
170.081788829
 10
807.5771416616
 20
165.119257874
 10
806.4418214665
 20
160.1940835227
 10
805.5083530657
 20
155.3207218608
 10
804.7794654675
 20
150.513460209
 10
804.2572976246
 20
145.7863996299
 10
803.9433826286
 20
141.1534074008
 10
803.8386424417
 20
136.6280725268
 10
803.9433826286
 20
132.2236680985
 10
804.2572976246
 20
127.9531144092
 10
804.7794654675
 20
123.8289359888
 10
805.5083530657
 20
119.8632300448
 10
806.4418214665
 20
116.0676280577
 10
807.5771416616
 20
112.4532665022
 10
808.9109682447
 20
109.0307389403
 10
810.4394026326
 20
105.8100960153
 10
812.1579561857
 20
102.800773972
 10
814.0615870873
 20
100.0116068204
 10
816.1447161484
 20
97.4507715811
 10
818.4012268075
 20
95.1257791595
 10
820.8245020095
 20
93.0434530496
 10
823.4074400103
 20
91.2098989138
 10
826.1424596457
 20
89.6304924151
 10
829.0215372092
 20
88.3098670465
 10
832.0362275262
 20
87.2519019612
 10
835.1776929294
 20
86.4596961141
 10
838.4367164297
 20
85.9355697819
 10
841.803735961
 20
85.6810660808
 10
845.2688812582
 20
85.6969296694
 10
848.8219817599
 20
85.9831113117
 10
852.4526219261
 20
86.5387815594
 10
856.1501491409
 20
87.3622927286
 10
859.9037171762
 20
88.4512465765
 10
863.7023178021
 20
89.8024395456
 10
867.534809104
 20
91.4119095288
 10
871.3899487393
 20
93.2749368177
 10
875.2564298282
 20
95.3860587374
 10
879.122910917
 20
97.7390808609
 10
882.9780505524
 20
100.3271030518
 10
886.8105418543
 20
103.142533339
 10
890.6091424801
 20
106.1771112988
 10
894.3627105155
 20
109.4219348574
 10
898.0602377303
 20
112.8674977407
 10
901.6908778965
 20
116.5036754029
 10
905.2439783981
 20
120.3198162794
 10
908.7091236953
 20
124.3047242921
 10
912.0761432266
 20
128.4467059968
 10
915.3351667269
 20
132.7336207692
 10
918.4766321301
 20
137.1528853667
 10
921.4913224471
 20
141.6915378035
 10
924.3704000106
 20
146.3362753713
 10
927.105419646
 20
151.0734683255
 10
929.6883576469
 20
155.8892191993
 10
932.1116328488
 20
160.7693993034
 10
934.368143508
 20
165.6997034765
 10
936.451272569
 20
170.6656683351
 10
938.3549034707
 20
175.6527209423
 10
940.0734570238
 20
180.6462426831
 10
941.6018914116
 20
185.6315783898
 10
942.9357179948
 20
190.5941093447
 10
944.0710381898
 20
195.519283696
 10
945.0045065906
 20
200.3926453579
 10
945.7333941888
 20
205.1999070098
 10
946.2555620317
 20
209.9269675888
 10
946.5694770278
 20
214.5599598179
 10
946.6742172147
 20
219.0852946919
 10
946.5694770278
 20
223.4896991202
 10
946.2555620317
 20
227.7602528096
 10
945.7333941888
 20
231.8844312299
 10
945.0045065906
 20
235.8501371739
 10
944.0710381898
 20
239.645739161
 10
942.9357179948
 20
243.2601007165
 10
941.6018914116
 20
246.6826282785
 10
940.0734570238
 20
249.9032712035
 10
938.3549034707
 20
252.9125932467
 10
936.451272569
 20
255.7017603983
 10
934.368143508
 20
258.2625956376
 10
932.1116328488
 20
260.5875880592
 10
929.6883576469
 20
262.6699141692
 10
927.105419646
 20
264.503468305
 10
924.3704000106
 20
266.0828748036
 10
921.4913224471
 20
267.4035001722
 10
918.4766321301
 20
268.4614652576
 10
915.3351667269
 20
269.2536711047
 10
912.0761432266
 20
269.7777974368
 10
908.7091236953
 20
270.032301138
 10
905.2439783981
 20
270.0164375493
 10
901.6908778965
 20
269.730255907
 10
898.0602377303
 20
269.1745856593
 10
894.3627105155
 20
268.3510744902
 10
890.6091424801
 20
267.2621206422
 10
886.8105418543
 20
265.9109276732
 10
882.9780505524
 20
264.3014576899
 10
879.122910917
 20
262.438430401
 10
875.2564298282
 20
260.3273084813
  0
ARC
  5
26B
330
1F
100
AcDbEntity
  8
0
  6
Continuous
 62
     7
370
    15
100
AcDbCircle
 10
893.6378982853
 20
146.1134444124
 30
0.0
 40
75.54549214469823
100
AcDbArc
 50
172.9863179051
 51
186.4741392886
  0
ARC
  5
26C
330
1F
100
AcDbEntity
  8
0
  6
Continuous
 62
     7
370
    15
100
AcDbCircle
 10
907.688736807
 20
186.2238192206
 30
0.0
 40
66.13810896676723
100
AcDbArc
 50
111.9399514357
 51
120.1919229867
  0
ARC
  5
26D
330
1F
100
AcDbEntity
  8
0
  6
Continuous
 62
     7
370
    15
100
AcDbCircle
 10
877.4578888343
 20
150.3106142943
 30
0.0
 40
59.35759997837645
100
AcDbArc
 50
181.9084903322
 51
187.9545592408
  0
LINE
  5
26E
330
1F
100
AcDbEntity
  8
0
  6
Continuous
 62
     7
370
    15
100
AcDbLine
 10
831.7713319492
 20
119.2474668421
 30
0.0
 11
831.9383098604
 21
119.1501803656
 31
0.0
  0
LINE
  5
26F
330
1F
100
AcDbEntity
  8
0
  6
Continuous
 62
     7
370
    15
100
AcDbLine
 10
904.5882445581
 20
244.6365314653
 30
0.0
 11
904.4324171224
 21
244.7272662682
 31
0.0
  0
ARC
  5
270
330
1F
100
AcDbEntity
  8
0
  6
Continuous
 62
     7
370
    15
100
AcDbCircle
 10
840.3982958287
 20
142.9134017841
 30
0.0
 40
24.81304140318009
100
AcDbArc
 50
245.4736371156
 51
253.3313907851
  0
LWPOLYLINE
  5
271
330
1F
100
AcDbEntity
  8
0
  6
Continuous
 62
     7
370
    15
100
AcDbPolyline
 90
        3
 70
   128
 43
0.0
 10
905.1133363386
 20
243.5650358029
 10
904.0856144136
 20
244.4819569454
 10
902.4305550878
 20
245.7630785246
  0
LWPOLYLINE
  5
272
330
1F
100
AcDbEntity
  8
0
  6
Continuous
 62
     7
370
    15
100
AcDbPolyline
 90
       49
 70
   128
 43
0.0
 10
724.2891316655
 20
343.1770942381
 10
720.527134919
 20
340.8845356504
 10
716.7767660929
 20
338.3574404707
 10
713.0496182047
 20
335.6036327742
 10
709.3572105149
 20
332.631618018
 10
705.7109562584
 20
329.4505826637
 10
702.1221257659
 20
326.0703546364
 10
698.6018128782
 20
322.5013961042
 10
695.1608993848
 20
318.7547221114
 10
691.8100168281
 20
314.8419271987
 10
688.5595280646
 20
310.7750956698
 10
685.4194745809
 20
306.566801597
 10
682.3995659572
 20
302.2300479847
 10
679.5091377205
 20
297.7782546058
 10
676.7571171001
 20
293.2251591454
 10
674.1520203937
 20
288.5848582654
 10
671.7018923808
 20
283.87167529
 10
669.4143089576
 20
279.1001891028
 10
667.2963402579
 20
274.2851459368
 10
665.3545348482
 20
269.4414289573
 10
663.5948881178
 20
264.5840065533
 10
662.0228475469
 20
259.7278958347
 10
660.6432705596
 20
254.8881109251
 10
659.4604139878
 20
250.0796021255
 10
658.4779393389
 20
245.3172376629
 10
657.6988864543
 20
240.6157367715
 10
657.1256629728
 20
235.9896354738
 10
656.7600337936
 20
231.453226124
 10
656.6031316133
 20
227.0205322168
 10
656.655446389
 20
222.7052582932
 10
656.9168095333
 20
218.5207388006
 10
657.3864202562
 20
214.4799112843
 10
658.0628244912
 20
210.5952649627
 10
658.9439254327
 20
206.8788016578
 10
660.0270098774
 20
203.3420183024
 10
661.3087218824
 20
199.9958385002
 10
662.785099644
 20
196.8506079601
 10
664.4515860341
 20
193.9160503884
 10
666.3030286005
 20
191.2012340279
 10
668.3337006403
 20
188.7145488427
 10
670.5373275413
 20
186.4636852223
 10
672.9071025874
 20
184.4556005198
 10
675.4356922271
 20
182.6965008007
 10
678.1152834883
 20
181.1918165031
 10
680.9375997836
 20
179.9462024365
 10
683.8939114471
 20
178.9635195297
 10
686.9750805151
 20
178.2467846358
 10
690.1715870682
 20
177.7982344092
 10
691.6817955782
 20
177.6821449246
  0
LWPOLYLINE
  5
273
330
1F
100
AcDbEntity
  8
0
  6
Continuous
 62
     7
370
    15
100
AcDbPolyline
 90
       21
 70
   128
 43
0.0
 10
783.5575631332
 20
336.9882304212
 10
783.2237284828
 20
337.485866076
 10
781.2819230731
 20
340.087622251
 10
779.1639543734
 20
342.4573108071
 10
776.8763709502
 20
344.5876093931
 10
774.4262429374
 20
346.4719347788
 10
771.8211462309
 20
348.1044550239
 10
769.0691256106
 20
349.4801351093
 10
766.1786973739
 20
350.5947110807
 10
763.1587887502
 20
351.4447524129
 10
760.0187352665
 20
352.0276179029
 10
756.7682465029
 20
352.3415149888
 10
753.4173639463
 20
352.3854632523
 10
749.9764504528
 20
352.1593430888
 10
746.4561375651
 20
351.6638348755
 10
742.8673070726
 20
350.9004874146
 10
739.2210528161
 20
349.8716472142
 10
735.5286451263
 20
348.5804987957
 10
731.8014972381
 20
347.0310331382
 10
728.051128412
 20
345.2280446397
 10
724.2891316655
 20
343.1770942381
  0
LWPOLYLINE
  5
274
330
1F
100
AcDbEntity
  8
0
  6
Continuous
 62
     7
370
    15
100
AcDbPolyline
 90
       66
 70
   128
 43
0.0
 10
724.2891316655
 20
367.0758512511
 10
720.018791901
 20
364.4914446669
 10
715.758425793
 20
361.674691779
 10
711.5179832906
 20
358.632170038
 10
707.3073682445
 20
355.3709838996
 10
703.1364160171
 20
351.8987518988
 10
699.0148651645
 20
348.2235781355
 10
694.9523462416
 20
344.3540579783
 10
690.9583422894
 20
340.2992187531
 10
687.0421835663
 20
336.0685349518
 10
683.2130185727
 20
331.6718871708
 10
679.4797877089
 20
327.1195408203
 10
675.8512127382
 20
322.4221339578
 10
672.3357651774
 20
317.5906347051
 10
668.9416583933
 20
312.6363245189
 10
665.6768159937
 20
307.5707799428
 10
662.5488665581
 20
302.4058208962
 10
659.5651120279
 20
297.1535228446
 10
656.7325277066
 20
291.826149879
 10
654.057725381
 20
286.4361455938
 10
651.5469480532
 20
280.9960874594
 10
649.2060646717
 20
275.5186898645
 10
647.0405437901
 20
270.0167493657
 10
645.055437762
 20
264.5031112281
 10
643.2553827406
 20
258.9906481323
 10
641.6445934108
 20
253.4922449661
 10
640.2268155737
 20
248.0207319081
 10
639.0053735621
 20
242.5888965901
 10
637.9831175565
 20
237.2094232659
 10
637.1624341223
 20
231.8948776002
 10
636.5452356727
 20
226.6576663658
 10
636.1329657373
 20
221.5100245145
 10
635.9265936936
 20
216.4639779157
 10
635.9265936936
 20
211.5313068554
 10
636.1329657373
 20
206.7235323465
 10
636.5452356727
 20
202.0518872308
 10
637.1624341223
 20
197.527278158
 10
637.9831175565
 20
193.1602734165
 10
639.0053735621
 20
188.9610717535
 10
640.2268155737
 20
184.9394833643
 10
641.6445934108
 20
181.1049017538
 10
643.2553827406
 20
177.4662763614
 10
645.055437762
 20
174.0321125555
 10
647.0405437901
 20
170.8104290523
 10
649.2060646717
 20
167.8087457438
 10
651.5469480532
 20
165.0340745721
 10
654.057725381
 20
162.492898236
 10
656.7325277066
 20
160.1911549804
 10
659.5651120279
 20
158.1342142591
 10
662.5488665581
 20
156.3268858598
 10
665.6768159937
 20
154.7733803596
 10
668.9416583933
 20
153.4773425819
 10
672.3357651774
 20
152.4417846756
 10
675.8512127382
 20
151.6691347816
 10
679.4797877089
 20
151.1611914049
 10
683.2130185727
 20
150.9191416626
 10
687.0421835663
 20
150.9435536783
 10
690.9583422894
 20
151.2343704958
 10
694.9523462416
 20
151.7909100779
 10
699.0148651645
 20
152.6118744294
 10
703.1364160171
 20
153.6953419899
 10
707.3073682445
 20
155.0387889263
 10
711.5179832906
 20
156.6390754407
 10
715.758425793
 20
158.4924644006
 10
720.018791901
 20
160.5946255189
 10
720.8576626881
 20
161.0366500818
  0
LWPOLYLINE
  5
275
330
1F
100
AcDbEntity
  8
0
  6
Continuous
 62
     7
370
    15
100
AcDbPolyline
 90
       33
 70
   128
 43
0.0
 10
812.6084796545
 20
320.0261124183
 10
812.4452975937
 20
323.2929671844
 10
812.0330276583
 20
327.9646123001
 10
811.4158292087
 20
332.4892213728
 10
810.5951457745
 20
336.8562261143
 10
809.572889769
 20
341.0554277773
 10
808.3514477573
 20
345.0770161666
 10
806.9336699203
 20
348.911597777
 10
805.3228805905
 20
352.5502231695
 10
803.5228255691
 20
355.9843869754
 10
801.5377195409
 20
359.2060704786
 10
799.3721986594
 20
362.207753787
 10
797.0313152779
 20
364.9824249587
 10
794.52053795
 20
367.5236012948
 10
791.8457356245
 20
369.8253445505
 10
789.0131513032
 20
371.8822852718
 10
786.029396773
 20
373.6896136711
 10
782.9014473373
 20
375.2431191712
 10
779.6366049377
 20
376.5391569489
 10
776.2424981537
 20
377.5747148553
 10
772.7270505928
 20
378.3473647493
 10
769.0984756222
 20
378.8553081259
 10
765.3652447584
 20
379.0973578683
 10
761.5360797648
 20
379.0729458525
 10
757.6199210417
 20
378.782129035
 10
753.6259170894
 20
378.2255894529
 10
749.5633981665
 20
377.4046251015
 10
745.4418473139
 20
376.3211575409
 10
741.2708950865
 20
374.9777106045
 10
737.0602800405
 20
373.3774240901
 10
732.819837538
 20
371.5240351302
 10
728.5594714301
 20
369.4218740119
 10
724.2891316655
 20
367.0758512511
  0
LWPOLYLINE
  5
276
330
1F
100
AcDbEntity
  8
0
  6
Continuous
 62
     7
370
    15
100
AcDbPolyline
 90
       32
 70
   128
 43
0.0
 10
724.2891316655
 20
362.9931450016
 10
723.2215850846
 20
362.2515087753
 10
722.1977439624
 20
361.2895101618
 10
721.2595243276
 20
360.1465377758
 10
720.445337435
 20
358.8693867094
 10
719.7885160087
 20
357.5103462101
 10
719.3159500674
 20
356.12504941
 10
719.0469866609
 20
354.7702198921
 10
718.9926376412
 20
353.5013101476
 10
719.1551275716
 20
352.3702816367
 10
719.5278041649
 20
351.4234359568
 10
720.0954099325
 20
350.6995336221
 10
720.8347074729
 20
350.2282143333
 10
721.7154294221
 20
350.0287750147
 10
722.7015189865
 20
350.1093772004
 10
723.7526056179
 20
350.4667247687
 10
724.8256577132
 20
351.0861845578
 10
725.8767443446
 20
351.9423957827
 10
726.8628339089
 20
353.000308374
 10
727.7435558581
 20
354.2166076107
 10
728.4828533986
 20
355.5415016709
 10
729.0504591662
 20
356.9207476755
 10
729.4231357594
 20
358.2978765911
 10
729.5856256898
 20
359.6165119824
 10
729.5312766701
 20
360.8226716844
 10
729.2623132637
 20
361.8669626631
 10
728.7897473224
 20
362.7066464411
 10
728.1329258961
 20
363.3073370636
 10
727.3187390034
 20
363.644447953
 10
726.3805193686
 20
363.7041750062
 10
725.3566782464
 20
363.4840718218
 10
724.2891316655
 20
362.9931450016
  0
LWPOLYLINE
  5
277
330
1F
100
AcDbEntity
  8
0
  6
Continuous
 62
     7
370
    15
100
AcDbPolyline
 90
       32
 70
   128
 43
0.0
 10
668.0391310477
 20
303.6152964849
 10
666.971582985
 20
302.8736533196
 10
665.9477464727
 20
301.9116573672
 10
665.0095260147
 20
300.768684506
 10
664.1953384635
 20
299.4915391431
 10
663.5385167079
 20
298.1324923701
 10
663.0659504374
 20
296.7472014635
 10
662.7969850552
 20
295.3923647214
 10
662.7426366941
 20
294.1234614409
 10
662.9051286002
 20
292.9924340705
 10
663.2778015714
 20
292.0455862996
 10
663.8454089854
 20
291.3216849153
 10
664.5847068551
 20
290.8503658166
 10
665.465428475
 20
290.6509263079
 10
666.4515172162
 20
290.7315280184
 10
667.5026069345
 20
291.0888773688
 10
668.5756551609
 20
291.7083349243
 10
669.6267448792
 20
292.5645479313
 10
670.6128336204
 20
293.6224600474
 10
671.4935552403
 20
294.838759094
 10
672.23285311
 20
296.1636533443
 10
672.800460524
 20
297.5429002993
 10
673.1731334952
 20
298.920027124
 10
673.3356254013
 20
300.2386636558
 10
673.2812770401
 20
301.4448176542
 10
673.012311658
 20
302.4891135762
 10
672.5397453874
 20
303.3287910804
 10
671.8829236319
 20
303.9294875965
 10
671.0687413491
 20
304.2665950634
 10
670.1305208911
 20
304.3263216413
 10
669.1066791103
 20
304.1062180768
 10
668.0391310477
 20
303.6152964849
  0
LWPOLYLINE
  5
278
330
1F
100
AcDbEntity
  8
0
  6
Continuous
 62
     7
370
    15
100
AcDbPolyline
 90
       32
 70
   128
 43
0.0
 10
780.5391322833
 20
368.5601648078
 10
779.4715842207
 20
367.8185216425
 10
778.44774244
 20
366.8565226488
 10
777.509521982
 20
365.7135497876
 10
776.6953396992
 20
364.4364074661
 10
776.0385179436
 20
363.077360693
 10
775.565951673
 20
361.6920697865
 10
775.2969862909
 20
360.3372330444
 10
775.2426379297
 20
359.0683297638
 10
775.4051298358
 20
357.9373023934
 10
775.7778028071
 20
356.9904546226
 10
776.345410221
 20
356.2665532383
 10
777.0847080908
 20
355.7952341395
 10
777.9654297107
 20
355.5957946308
 10
778.9515184519
 20
355.6763963414
 10
780.0026081702
 20
356.0337456917
 10
781.0756563965
 20
356.6532032473
 10
782.1267461148
 20
357.5094162543
 10
783.112834856
 20
358.5673283704
 10
783.9935564759
 20
359.783627417
 10
784.7328543457
 20
361.1085216672
 10
785.3004617596
 20
362.4877686223
 10
785.6731347309
 20
363.864895447
 10
785.8356266369
 20
365.1835319787
 10
785.7812782758
 20
366.3896859772
 10
785.5123128937
 20
367.4339818991
 10
785.0397466231
 20
368.2736594034
 10
784.3829248675
 20
368.8743559194
 10
783.5687373164
 20
369.211460345
 10
782.6305168584
 20
369.2711869229
 10
781.606680346
 20
369.0510863998
 10
780.5391322833
 20
368.5601648078
  0
LWPOLYLINE
  5
279
330
1F
100
AcDbEntity
  8
0
  6
Continuous
 62
     7
370
    15
100
AcDbPolyline
 90
       32
 70
   128
 43
0.0
 10
668.0391310477
 20
173.704447388
 10
666.971582985
 20
172.9628042227
 10
665.9477464727
 20
172.0008082703
 10
665.0095260147
 20
170.8578414928
 10
664.1953384635
 20
169.5806900463
 10
663.5385167079
 20
168.2216493569
 10
663.0659504374
 20
166.8363523666
 10
662.7969850552
 20
165.4815156246
 10
662.7426366941
 20
164.212612344
 10
662.9051286002
 20
163.0815849736
 10
663.2778015714
 20
162.1347372027
 10
663.8454089854
 20
161.4108358185
 10
664.5847068551
 20
160.9395167197
 10
665.465428475
 20
160.740077211
 10
666.4515172162
 20
160.8206789215
 10
667.5026069345
 20
161.1780282719
 10
668.5756551609
 20
161.7974858275
 10
669.6267448792
 20
162.6536988344
 10
670.6128336204
 20
163.7116109505
 10
671.4935552403
 20
164.9279099971
 10
672.23285311
 20
166.2528042474
 10
672.800460524
 20
167.6320512024
 10
673.1731334952
 20
169.0091780271
 10
673.3356254013
 20
170.3278145589
 10
673.2812770401
 20
171.5339685574
 10
673.012311658
 20
172.5782644793
 10
672.5397453874
 20
173.4179480672
 10
671.8829236319
 20
174.0186384996
 10
671.0687413491
 20
174.3557520502
 10
670.1305208911
 20
174.4154725444
 10
669.1066791103
 20
174.1953689799
 10
668.0391310477
 20
173.704447388
  0
LWPOLYLINE
  5
27A
330
1F
100
AcDbEntity
  8
0
  6
Continuous
 62
     7
370
    15
100
AcDbPolyline
 90
       32
 70
   128
 43
0.0
 10
644.7396208894
 20
225.2093506442
 10
643.6720728267
 20
224.4677086196
 10
642.648231046
 20
223.5057103863
 10
641.710010588
 20
222.3627394263
 10
640.8958230368
 20
221.0855895006
 10
640.2390012813
 20
219.7265476706
 10
639.7664350107
 20
218.3412523914
 10
639.4974748969
 20
216.9864204017
 10
639.4431265358
 20
215.7175152437
 10
639.6056131735
 20
214.5864849983
 10
639.9782914131
 20
213.6396391281
 10
640.5458988271
 20
212.9157390747
 10
641.2851966968
 20
212.4444207364
 10
642.1659183167
 20
212.244980087
 10
643.1520070579
 20
212.325582558
 10
644.2030915078
 20
212.682927346
 10
645.2761450026
 20
213.302387943
 10
646.3272294525
 20
214.1585994295
 10
647.313323462
 20
215.2165138265
 10
648.194045082
 20
216.4328140138
 10
648.9333429517
 20
217.7577075036
 10
649.5009450973
 20
219.1369500865
 10
649.8736233369
 20
220.5140810932
 10
650.036115243
 20
221.8327174586
 10
649.9817616135
 20
223.0388702931
 10
649.7128014997
 20
224.0831675454
 10
649.2402352291
 20
224.9228494223
 10
648.5834134736
 20
225.5235409953
 10
647.7692259224
 20
225.8606499837
 10
646.8310054644
 20
225.9203746604
 10
645.8071636837
 20
225.7002703355
 10
644.7396208894
 20
225.2093506442
  0
LWPOLYLINE
  5
27B
330
1F
100
AcDbEntity
  8
0
  6
Continuous
 62
     7
370
    15
100
AcDbPolyline
 90
       50
 70
   128
 43
0.0
 10
707.3185714037
 20
376.8727471575
 10
703.0482316392
 20
374.2883405733
 10
698.7878655312
 20
371.4715876853
 10
694.5474230288
 20
368.4290659443
 10
690.3368079827
 20
365.1678798059
 10
686.1658557553
 20
361.6956478052
 10
682.0443049027
 20
358.0204740418
 10
677.9817859798
 20
354.1509538847
 10
673.9877820275
 20
350.0961146594
 10
670.0716233045
 20
345.8654308581
 10
666.2424583109
 20
341.4687830772
 10
662.509227447
 20
336.9164367267
 10
658.8806524764
 20
332.2190298642
 10
655.3652049155
 20
327.3875306114
 10
651.9710981315
 20
322.4332204253
 10
648.7062557319
 20
317.3676758492
 10
645.5783062962
 20
312.2027168025
 10
642.5945517661
 20
306.9504187509
 10
639.7619674448
 20
301.6230457854
 10
637.0871651192
 20
296.2330415001
 10
634.5763877914
 20
290.7929833657
 10
632.2355044099
 20
285.3155857709
 10
630.0699835283
 20
279.8136452721
 10
628.0848775002
 20
274.3000071344
 10
626.2848224788
 20
268.7875440386
 10
624.6740331489
 20
263.2891408725
 10
623.2562553119
 20
257.8176278144
 10
622.0348133003
 20
252.3857924965
 10
621.0125572947
 20
247.0063191722
 10
620.1918738605
 20
241.6917735066
 10
619.5746754109
 20
236.4545622721
 10
619.1624054755
 20
231.3069204209
 10
618.9560334317
 20
226.260873822
 10
618.9560334317
 20
221.3282027617
 10
619.1624054755
 20
216.5204282528
 10
619.5746754109
 20
211.8487831371
 10
620.1918738605
 20
207.3241740644
 10
621.0125572947
 20
202.9571693229
 10
622.0348133003
 20
198.7579676599
 10
623.2562553119
 20
194.7363792706
 10
624.6740331489
 20
190.9017976601
 10
626.2848224788
 20
187.2631722677
 10
628.0848775002
 20
183.8290084618
 10
630.0699835283
 20
180.6073249586
 10
632.2355044099
 20
177.6056416502
 10
634.5763877914
 20
174.8309704785
 10
637.0871651192
 20
172.2897941424
 10
639.7619674448
 20
169.9880508867
 10
642.5945517661
 20
167.9311101654
 10
644.8236511686
 20
166.5490395476
  0
LWPOLYLINE
  5
27C
330
1F
100
AcDbEntity
  8
0
  6
Continuous
 62
     7
370
    15
100
AcDbPolyline
 90
       18
 70
   128
 43
0.0
 10
769.8134916388
 20
383.0612517959
 10
769.0588365112
 20
383.4865095774
 10
765.9308870755
 20
385.0400150776
 10
762.6660446759
 20
386.3360528553
 10
759.2719378919
 20
387.3716107616
 10
755.756490331
 20
388.1442606556
 10
752.1279153604
 20
388.6522040323
 10
748.3946844965
 20
388.8942537746
 10
744.565519503
 20
388.8698417589
 10
740.6493607799
 20
388.5790249413
 10
736.6553568276
 20
388.0224853593
 10
732.5928379047
 20
387.2015210078
 10
728.4712870521
 20
386.1180534473
 10
724.3003348247
 20
384.7746065109
 10
720.0897197787
 20
383.1743199965
 10
715.8492772762
 20
381.3209310366
 10
711.5889111683
 20
379.2187699183
 10
707.3185714037
 20
376.8727471575
  0
ARC
  5
27D
330
1F
100
AcDbEntity
  8
0
  6
Continuous
 62
     7
370
    15
100
AcDbCircle
 10
735.4165487475
 20
326.2640736011
 30
0.0
 40
37.31935350684093
100
AcDbArc
 50
32.9740155539
 51
42.5530662517
  0
ARC
  5
27E
330
1F
100
AcDbEntity
  8
0
  6
Continuous
 62
     7
370
    15
100
AcDbCircle
 10
676.7872876112
 20
224.5749171561
 30
0.0
 40
37.15454465407714
100
AcDbArc
 50
257.4277055109
 51
267.3317740977
  0
LWPOLYLINE
  5
27F
330
1F
100
AcDbEntity
  8
0
  6
Continuous
 62
     8
370
    15
100
AcDbPolyline
 90
       75
 70
   128
 43
0.0
 10
818.574171132
 20
137.5953314028
 10
818.621517848
 20
137.2174559913
 10
819.195236555
 20
133.6364941909
 10
819.9744264168
 20
130.2218149378
 10
820.9561845693
 20
126.9861189952
 10
822.1368653101
 20
123.9414448328
 10
823.5120695618
 20
121.0991161557
 10
825.076687019
 20
118.4697114824
 10
826.8248961484
 20
116.0630109118
 10
828.7501905302
 20
113.8879611399
 10
830.8454052001
 20
111.9526602479
 10
833.1027535278
 20
110.2643059872
 10
835.5138351197
 20
108.8291790487
 10
838.0696779653
 20
107.6526156818
 10
840.7607779503
 20
106.7389970446
 10
843.5771199299
 20
106.0917218251
 10
846.5082330463
 20
105.7131925476
 10
849.5432065341
 20
105.6048246967
 10
852.6707529405
 20
105.7670132516
 10
855.8792397354
 20
106.1991631007
 10
859.1567275066
 20
106.8996563389
 10
862.4910265955
 20
107.8659032129
 10
865.8697313406
 20
109.0942888857
 10
869.2802734198
 20
110.5802650674
 10
872.7099654795
 20
112.3182839458
 10
876.1460488783
 20
114.3018926697
 10
879.575740938
 20
116.5237119558
 10
882.9862830173
 20
118.9754638419
 10
886.3649877623
 20
121.6480476333
 10
889.6992868512
 20
124.5315005441
 10
892.9767746225
 20
127.6151141397
 10
896.1852614173
 20
130.8874042926
 10
899.3128078237
 20
134.3362039566
 10
902.3477813115
 20
137.9486776095
 10
905.2788944279
 20
141.7113980567
 10
908.0952364075
 20
145.6103525119
 10
910.7863363925
 20
149.6310490558
 10
913.3421792381
 20
153.7585257602
 10
915.75326083
 20
157.9774282504
 10
918.0106091577
 20
162.2720614141
 10
920.1058238276
 20
166.6264456723
 10
922.0311182094
 20
171.0243930216
 10
923.7793273388
 20
175.4495328893
 10
925.343944796
 20
179.8854064271
 10
926.7191490478
 20
184.3155121364
 10
927.8998297885
 20
188.7233712659
 10
928.881587941
 20
193.0925810438
 10
929.6607778029
 20
197.4068937622
 10
930.2344965099
 20
201.6502570821
 10
930.6006156462
 20
205.8068874158
 10
930.7577654392
 20
209.8613181223
 10
930.7053663698
 20
213.798469752
 10
930.4436080987
 20
217.603692635
 10
929.9734758087
 20
221.262837031
 10
929.2967027887
 20
224.7622823167
 10
928.4158178498
 20
228.089017495
 10
927.3340979093
 20
231.2306642042
 10
926.0555574547
 20
234.1755337528
 10
924.5849643481
 20
236.9126750278
 10
922.9277818747
 20
239.4319003557
 10
921.0901740113
 20
241.7238402554
 10
919.0789843523
 20
243.7799708164
 10
916.9016886949
 20
245.5926441226
 10
914.5663897709
 20
247.1551125869
 10
912.0817724651
 20
248.4615639369
 10
909.4570801082
 20
249.5071409893
 10
906.7020775983
 20
250.2879538206
 10
903.8270118879
 20
250.8010934591
 10
900.8425803739
 20
251.0446531811
 10
897.7598861169
 20
251.0177300358
 10
894.5903956937
 20
250.7204218075
 10
891.3458996851
 20
250.1538346236
 10
888.0384678951
 20
249.3200814386
 10
884.6804045691
 20
248.2222561818
 10
882.9772471281
 20
247.5719384708
  0
LWPOLYLINE
  5
280
330
1F
100
AcDbEntity
  8
0
  6
Continuous
 62
     8
370
    15
100
AcDbPolyline
 90
       73
 70
   128
 43
0.0
 10
818.6714197166
 20
142.096253463
 10
819.1959530514
 20
139.0282695628
 10
819.9752904272
 20
135.7685330891
 10
820.956800967
 20
132.6900537469
 10
822.1365439403
 20
129.8052365768
 10
823.5097620218
 20
127.1256942936
 10
825.0709234375
 20
124.6622138218
 10
826.8137456728
 20
122.4247152291
 10
828.7312086433
 20
120.4222106593
 10
830.8155942073
 20
118.6627617433
 10
833.0585098736
 20
117.1534567828
 10
835.4509204116
 20
115.9003681613
 10
837.9831926322
 20
114.9085416935
 10
840.6451349005
 20
114.1819768496
 10
843.426023478
 20
113.7235902506
 10
846.3146631078
 20
113.5352354346
 10
849.2994212598
 20
113.6176709141
 10
852.3682794968
 20
113.9705594109
 10
855.5088808895
 20
114.5924861026
 10
858.7085787493
 20
115.4809380854
 10
861.9544906285
 20
116.632347716
 10
865.2335450772
 20
118.0420709332
 10
868.5325387718
 20
119.7044324056
 10
871.8381875526
 20
121.6127428272
 10
875.1371812472
 20
123.7593183991
 10
878.4162356959
 20
126.1355108629
 10
881.6621475751
 20
128.7317513171
 10
884.8618454349
 20
131.5375918479
 10
888.0024468276
 20
134.5417263414
 10
891.0713050646
 20
137.7320661453
 10
894.0560632166
 20
141.0957590752
 10
896.9447028464
 20
144.6192662171
 10
899.7255914238
 20
148.2883984249
 10
902.3875336922
 20
152.0883763924
 10
904.9198059128
 20
156.0039021334
 10
907.3122164508
 20
160.0192091666
 10
909.5551321171
 20
164.1181294339
 10
911.6395176811
 20
168.2841586966
 10
913.5569806516
 20
172.5005188888
 10
915.2998028869
 20
176.7502372032
 10
916.8609643026
 20
181.0161962787
 10
918.234182384
 20
185.2812224108
 10
919.4139253574
 20
189.5281418248
 10
920.3954358972
 20
193.7398491147
 10
921.174773273
 20
197.8993893698
 10
921.7487922763
 20
201.9900129294
 10
922.1151853671
 20
205.9952480036
 10
922.2724774057
 20
209.89896864
 10
922.2200256528
 20
213.685449762
 10
921.9580566475
 20
217.3394538584
 10
921.4876135244
 20
220.8462600759
 10
920.8105928917
 20
224.1917496724
 10
919.9297237578
 20
227.3624530733
 10
918.8485517264
 20
230.3456010134
 10
917.5714284596
 20
233.1291823335
 10
916.1035011411
 20
235.7019903695
 10
914.4506808666
 20
238.053667062
 10
912.6196136673
 20
240.174734899
 10
910.6176805098
 20
242.0566577524
 10
908.452939345
 20
243.6918560929
 10
906.134109302
 20
245.0737495774
 10
903.6705285419
 20
246.1967753042
 10
901.0721121109
 20
247.0564030258
 10
898.3493255984
 20
247.6491746959
 10
895.5131350873
 20
247.9727090368
 10
892.5749571055
 20
248.0256969809
 10
889.5466243804
 20
247.8079244885
 10
886.4403305224
 20
247.3202740731
 10
883.2685826086
 20
246.5647035137
 10
880.0441550854
 20
245.5442618282
 10
876.7800285237
 20
244.2630478342
 10
873.489347801
 20
242.7262285944
 10
871.9199644571
 20
241.9080002921
  0
LWPOLYLINE
  5
281
330
1F
100
AcDbEntity
  8
0
  6
Continuous
 62
     8
370
    15
100
AcDbPolyline
 90
       31
 70
   128
 43
0.0
 10
845.3316978432
 20
134.1842350788
 10
847.9274188515
 20
135.0662239061
 10
850.9250261947
 20
136.3156339241
 10
853.9442329746
 20
137.8174755759
 10
856.9706509814
 20
139.5645895029
 10
859.9898577613
 20
141.5486497996
 10
862.9874651045
 20
143.7602035513
 10
865.9491893453
 20
146.1887083754
 10
868.8609155699
 20
148.8225938226
 10
871.7087675871
 20
151.6493108956
 10
874.4791747701
 20
154.6553828038
 10
877.1589346187
 20
157.8264867069
 10
879.7352779548
 20
161.147512645
 10
882.1959242406
 20
164.602631975
 10
884.5291500665
 20
168.1753825357
 10
886.7238365672
 20
171.8487355644
 10
888.769526056
 20
175.6051892285
 10
890.6564668056
 20
179.4268370629
 10
892.3756683665
 20
183.2954729087
 10
893.9189358108
 20
187.1926547888
 10
895.2789197818
 20
191.0998159308
 10
896.4491349333
 20
194.9983362489
 10
897.4240047102
 20
198.8696351161
 10
898.198887691
 20
202.69526718
 10
898.7700854896
 20
206.4569984085
 10
899.1348796343
 20
210.1369041859
 10
899.2915315677
 20
213.7174482108
 10
899.2392931832
 20
217.1815667168
 10
898.9784147276
 20
220.5127521223
 10
898.510139533
 20
223.6951302181
 10
898.2232512036
 20
225.1158257739
  0
LWPOLYLINE
  5
282
330
1F
100
AcDbEntity
  8
0
  6
Continuous
 62
     8
370
    15
100
AcDbPolyline
 90
       51
 70
   128
 43
0.0
 10
831.9383098604
 20
119.1501803656
 10
834.0032894349
 20
118.0867651829
 10
836.4952929759
 20
117.1107129731
 10
839.1149013691
 20
116.395700491
 10
841.8515673657
 20
115.9446063179
 10
844.6942695649
 20
115.7592474733
 10
847.6315624629
 20
115.840368764
 10
850.6516186006
 20
116.1876488635
 10
853.7422759778
 20
116.7996820565
 10
856.8910907377
 20
117.6740056111
 10
860.0853839227
 20
118.8071024353
 10
863.3122925123
 20
120.1944062059
 10
866.5588232587
 20
121.8303385307
 10
869.8119037242
 20
123.7083019098
 10
873.0584344706
 20
125.8207341986
 10
876.2853430602
 20
128.1591397816
 10
879.4796362452
 20
130.7140953665
 10
882.628451005
 20
133.4753159489
 10
885.7191083823
 20
136.4316798081
 10
888.73916452
 20
139.5712823048
 10
891.676457418
 20
142.8814872079
 10
894.5191596171
 20
146.3489601497
 10
897.2558256138
 20
149.9597416267
 10
899.875434007
 20
153.6992895806
 10
902.367437548
 20
157.5525478358
 10
904.7218026527
 20
161.5040023699
 10
906.9290489143
 20
165.5377406261
 10
908.9802859819
 20
169.6375153884
 10
910.8672583416
 20
173.7868284286
 10
912.5823637557
 20
177.9689624438
 10
914.1187006776
 20
182.1670814332
 10
915.4700814232
 20
186.3642839291
 10
916.6310585123
 20
190.5436638318
 10
917.5969641814
 20
194.6883940564
 10
918.3639051154
 20
198.7817858496
 10
918.928799326
 20
202.8073595092
 10
919.289365615
 20
206.7489010398
 10
919.4441499161
 20
210.5905383865
 10
919.3925411001
 20
214.3168094948
 10
919.1347340962
 20
217.9127028091
 10
918.6717720387
 20
221.3637412994
 10
918.0055199258
 20
224.6560294225
 10
917.1386593507
 20
227.7763112983
 10
916.0746779651
 20
230.7120184293
 10
914.8178694792
 20
233.4513358611
 10
913.3732809781
 20
235.9832272826
 10
911.7467418979
 20
238.2975034651
 10
909.9447955366
 20
240.3848389985
 10
907.9746990549
 20
242.2368361707
 10
905.8443839628
 20
243.8460340965
 10
904.5882445581
 20
244.6365314653
  0
LWPOLYLINE
  5
283
330
1F
100
AcDbEntity
  8
0
  6
Continuous
 62
     8
370
    15
100
AcDbPolyline
 90
       31
 70
   128
 43
0.0
 10
837.5535232923
 20
138.6744796694
 10
840.1492443006
 20
139.5564684967
 10
843.1468516438
 20
140.8058785148
 10
846.1660584237
 20
142.3077201666
 10
849.1924764305
 20
144.0548340936
 10
852.2116832104
 20
146.0388943903
 10
855.2092905536
 20
148.250448142
 10
858.1710147944
 20
150.6789529661
 10
861.082741019
 20
153.3128384133
 10
863.9305930362
 20
156.1395554863
 10
866.7010002192
 20
159.1456273945
 10
869.3807600678
 20
162.3167312976
 10
871.9571034039
 20
165.6377572357
 10
874.4177496897
 20
169.0928765657
 10
876.7509755156
 20
172.6656271264
 10
878.9456620163
 20
176.3389801551
 10
880.991351505
 20
180.0954338192
 10
882.8782922547
 20
183.9170816536
 10
884.5974938156
 20
187.7857174994
 10
886.1407612599
 20
191.6828993795
 10
887.5007452309
 20
195.5900605215
 10
888.6709603824
 20
199.4885808396
 10
889.6458301593
 20
203.3598797068
 10
890.4207131401
 20
207.1855117707
 10
890.9919109387
 20
210.9472429992
 10
891.3567050834
 20
214.6271487766
 10
891.5133570168
 20
218.2076928015
 10
891.4611186323
 20
221.6718113075
 10
891.2002401767
 20
225.002996713
 10
890.7319649821
 20
228.1853748088
 10
890.4450766527
 20
229.6060703646
  0
LWPOLYLINE
  5
284
330
1F
100
AcDbEntity
  8
0
  6
Continuous
 62
     8
370
    15
100
AcDbPolyline
 90
       47
 70
   128
 43
0.0
 10
833.2810294287
 20
119.1430096404
 10
835.2258167279
 20
118.6408212656
 10
837.9624827245
 20
118.1897270926
 10
840.8051849236
 20
118.004368248
 10
843.7424778217
 20
118.0854895387
 10
846.7625339593
 20
118.4327696381
 10
849.8531913366
 20
119.0448028312
 10
853.0020060964
 20
119.9191263858
 10
856.1962992814
 20
121.05222321
 10
859.4232078711
 20
122.4395269805
 10
862.6697386174
 20
124.0754593054
 10
865.9228190829
 20
125.9534226845
 10
869.1693498293
 20
128.0658549733
 10
872.3962584189
 20
130.4042605563
 10
875.5905516039
 20
132.9592161411
 10
878.7393663638
 20
135.7204367236
 10
881.830023741
 20
138.6768005828
 10
884.8500798787
 20
141.8164030795
 10
887.7873727767
 20
145.1266079825
 10
890.6300749759
 20
148.5940809244
 10
893.3667409725
 20
152.2048624014
 10
895.9863493657
 20
155.9444103552
 10
898.4783529067
 20
159.7976686105
 10
900.8327180114
 20
163.7491231446
 10
903.039964273
 20
167.7828614008
 10
905.0912013406
 20
171.8826361631
 10
906.9781737004
 20
176.0319492033
 10
908.6932791144
 20
180.2140832184
 10
910.2296160363
 20
184.4122022078
 10
911.5809967819
 20
188.6094047038
 10
912.741973871
 20
192.7887846065
 10
913.7078795401
 20
196.9335148311
 10
914.4748204741
 20
201.0269066242
 10
915.0397146847
 20
205.0524802839
 10
915.4002809737
 20
208.9940218145
 10
915.5550652749
 20
212.8356591612
 10
915.5034564589
 20
216.5619302695
 10
915.2456494549
 20
220.1578235838
 10
914.7826873974
 20
223.608862074
 10
914.1164352845
 20
226.9011501972
 10
913.2495747094
 20
230.021432073
 10
912.1855933238
 20
232.957139204
 10
910.9287848379
 20
235.6964566357
 10
909.4841963369
 20
238.2283480573
 10
907.8576572566
 20
240.5426242397
 10
906.0557108954
 20
242.6299597732
 10
905.1133363386
 20
243.5650358029
  0
LWPOLYLINE
  5
285
330
1F
100
AcDbEntity
  8
0
  6
Continuous
 62
     8
370
    15
100
AcDbPolyline
 90
       53
 70
   128
 43
0.0
 10
825.3408687339
 20
124.8918185882
 10
826.0702699967
 20
124.3648147624
 10
828.3091659074
 20
122.987669504
 10
830.6915823739
 20
121.8645084262
 10
833.2077281566
 20
120.9999484574
 10
835.8472641066
 20
120.3975388876
 10
838.5993479473
 20
120.0597598432
 10
841.4526645668
 20
119.9879911052
 10
844.3954931899
 20
120.182538719
 10
847.4157403055
 20
120.6425931659
 10
850.5009936665
 20
121.3662757463
 10
853.6385776083
 20
122.3506005514
 10
856.8155971709
 20
123.5915242694
 10
860.0189980265
 20
125.0839564457
 10
863.2356165289
 20
126.8217518743
 10
866.4522350313
 20
128.7977851175
 10
869.6556358869
 20
131.0039208428
 10
872.8326554494
 20
133.4311058339
 10
875.9702393913
 20
136.0693583393
 10
879.0554927523
 20
138.9078334668
 10
882.0757398678
 20
141.9348821145
 10
885.018568491
 20
145.1380521066
 10
887.8718851105
 20
148.5041900908
 10
890.6239689512
 20
152.0194575029
 10
893.2635049012
 20
155.6694104118
 10
895.7796506839
 20
159.439050465
 10
898.1620671504
 20
163.3128910452
 10
900.4009630611
 20
167.2750104993
 10
902.4871398661
 20
171.3091266589
 10
904.4120206819
 20
175.3986652797
 10
906.1677003402
 20
179.5268193526
 10
907.7469611932
 20
183.6766251486
 10
909.1433178945
 20
187.8310321775
 10
910.3510305702
 20
191.9729701067
 10
911.3651364289
 20
196.0854156797
 10
912.1814629327
 20
200.1514702816
 10
912.7966646753
 20
204.1544276171
 10
913.2082075776
 20
208.0778372105
 10
913.4144057656
 20
211.9055789276
 10
913.4144057656
 20
215.6219207724
 10
913.2082075776
 20
219.2115911291
 10
912.7966646753
 20
222.6598434015
 10
912.1814629327
 20
225.952503924
 10
911.3651364289
 20
229.0760480066
 10
910.3510305702
 20
232.0176318776
 10
909.1433178945
 20
234.765174432
 10
907.7469611932
 20
237.3073823302
 10
906.1677003402
 20
239.6338123571
 10
904.4120206819
 20
241.7349018438
 10
902.4871398661
 20
243.6020203802
 10
900.4009630611
 20
245.2274880702
 10
898.1620671504
 20
246.6046333286
 10
895.9429644535
 20
247.6608279292
  0
ARC
  5
286
330
1F
100
AcDbEntity
  8
0
  6
Continuous
 62
     8
370
    15
100
AcDbCircle
 10
916.5778526011
 20
154.0023317614
 30
0.0
 40
143.9066627463234
100
AcDbArc
 50
131.7526982214
 51
168.2526771869
  0
LWPOLYLINE
  5
287
330
1F
100
AcDbEntity
  8
0
  6
Continuous
 62
     8
370
    15
100
AcDbPolyline
 90
       31
 70
   128
 43
0.0
 10
829.7753487414
 20
143.1647242601
 10
832.3710697497
 20
144.0467130874
 10
835.3686770929
 20
145.2961231055
 10
838.3878838727
 20
146.7979647573
 10
841.4143018796
 20
148.5450786843
 10
844.4335086595
 20
150.529138981
 10
847.4311160027
 20
152.7406927327
 10
850.3928402434
 20
155.1691975568
 10
853.3045664681
 20
157.803083004
 10
856.1524184852
 20
160.629800077
 10
858.9228256683
 20
163.6358719852
 10
861.6025855169
 20
166.8069758883
 10
864.178928853
 20
170.1280018264
 10
866.6395751387
 20
173.5831211564
 10
868.9728009647
 20
177.155871717
 10
871.1674874654
 20
180.8292247458
 10
873.2131769541
 20
184.5856784099
 10
875.1001177038
 20
188.4073262443
 10
876.8193192646
 20
192.2759620901
 10
878.362586709
 20
196.1731439702
 10
879.72257068
 20
200.0803051122
 10
880.8927858314
 20
203.9788254303
 10
881.8676556084
 20
207.8501242975
 10
882.6425385892
 20
211.6757563614
 10
883.2137363878
 20
215.4374875899
 10
883.5785305325
 20
219.1173933673
 10
883.7351824659
 20
222.6979373922
 10
883.6829440814
 20
226.1620558982
 10
883.4220656258
 20
229.4932413037
 10
882.9537904312
 20
232.6756193995
 10
882.6669021018
 20
234.0963149553
  0
LINE
  5
288
330
1F
100
AcDbEntity
  8
0
  6
Continuous
 62
     8
370
    15
100
AcDbLine
 10
863.2356165289
 20
235.4216809258
 30
0.0
 11
862.161600736
 21
234.7864707575
 31
0.0
  0
LWPOLYLINE
  5
289
330
1F
100
AcDbEntity
  8
0
  6
Continuous
 62
     8
370
    15
100
AcDbPolyline
 90
       71
 70
   128
 43
0.0
 10
819.4109889067
 20
160.8640819443
 10
819.4015269392
 20
158.6174410389
 10
819.5581788726
 20
155.2177634864
 10
819.9229730173
 20
151.9590400635
 10
820.4941708159
 20
148.8567997756
 10
821.2690537967
 20
145.9258285579
 10
822.2439235736
 20
143.1800903769
 10
823.4141387251
 20
140.6326717136
 10
824.7741226961
 20
138.2957146418
 10
826.3173901404
 20
136.1803514259
 10
828.0365917013
 20
134.2966634515
 10
829.9235324509
 20
132.6536310335
 10
831.9692219396
 20
131.2590801785
 10
834.1639084404
 20
130.1196582473
 10
836.4971342663
 20
129.2407928843
 10
838.9577805521
 20
128.6266752834
 10
841.5341238882
 20
128.2802320454
 10
844.2138837368
 20
128.2031130062
 10
846.9842909198
 20
128.3956851465
 10
849.832142937
 20
128.8570280242
 10
852.7438691616
 20
129.5849501179
 10
855.7055934024
 20
130.5759793154
 10
858.7032007456
 20
131.8253893334
 10
861.7224075255
 20
133.3272309852
 10
864.7488255323
 20
135.0743449122
 10
867.7680323122
 20
137.0584052089
 10
870.7656396554
 20
139.2699589607
 10
873.7273638962
 20
141.6984637847
 10
876.6390901208
 20
144.3323492319
 10
879.486942138
 20
147.1590663049
 10
882.257349321
 20
150.1651382131
 10
884.9371091696
 20
153.3362421162
 10
887.5134525057
 20
156.6572680543
 10
889.9740987915
 20
160.1123873843
 10
892.3073246174
 20
163.685137945
 10
894.5020111181
 20
167.3584909737
 10
896.5477006069
 20
171.1149446378
 10
898.4346413565
 20
174.9365924722
 10
900.1538429174
 20
178.805228318
 10
901.6971103617
 20
182.7024101981
 10
903.0570943327
 20
186.6095713401
 10
904.2273094842
 20
190.5080916582
 10
905.2021792611
 20
194.3793905254
 10
905.9770622419
 20
198.2050225893
 10
906.5482600405
 20
201.9667538178
 10
906.9130541852
 20
205.6466595952
 10
907.0697061186
 20
209.2272036201
 10
907.0174677341
 20
212.6913221261
 10
906.7565892785
 20
216.0225075316
 10
906.2883140839
 20
219.2048856274
 10
905.6148732992
 20
222.2232899125
 10
904.7394753531
 20
225.0633374512
 10
903.6662927836
 20
227.7114931334
 10
902.4004385304
 20
230.1551373582
 10
900.9479474952
 20
232.3826238305
 10
899.3157396638
 20
234.3833434437
 10
897.5115937639
 20
236.1477547005
 10
895.5441077526
 20
237.6674521582
 10
893.4226566696
 20
238.9351938095
 10
891.15735049
 20
239.9449375885
 10
888.7589840755
 20
240.6918733149
 10
886.2389871245
 20
241.1724394292
 10
883.6093688548
 20
241.3843488528
 10
880.8826600511
 20
241.3265889944
 10
878.0718564309
 20
240.9994346826
 10
875.1903501551
 20
240.4044481724
 10
872.2518745111
 20
239.5444624205
 10
869.2704321307
 20
238.4235731067
 10
866.2602311116
 20
237.0471291344
 10
863.2356165289
 20
235.4216809258
 10
863.2356165289
 20
235.4216809258
  0
LWPOLYLINE
  5
28A
330
1F
100
AcDbEntity
  8
0
  6
Continuous
 62
     8
370
    15
100
AcDbPolyline
 90
       34
 70
   128
 43
0.0
 10
828.2338310498
 20
276.857843131
 10
824.6489024336
 20
274.6689578041
 10
821.0758829362
 20
272.2486488137
 10
817.5266408468
 20
269.6049538992
 10
814.0129667463
 20
266.7466568217
 10
810.5465346531
 20
263.6832466824
 10
807.1388565839
 20
260.4249099422
 10
803.8012529187
 20
256.9824585607
 10
800.544813547
 20
253.3673379848
 10
797.3803544038
 20
249.5915533877
 10
794.3183858595
 20
245.6676453373
 10
791.3690811096
 20
241.6086532965
 10
788.5422392964
 20
237.428057832
 10
785.8472486304
 20
233.1397471571
 10
783.2930626828
 20
228.7579669436
 10
780.8881635068
 20
224.2972716552
 10
778.6405405643
 20
219.7724789222
 10
776.5576643843
 20
215.1986239158
 10
774.64644705
 20
210.5908939524
 10
772.913247467
 20
205.9646041579
 10
771.3638134119
 20
201.3351123015
 10
770.0032973369
 20
196.7178051059
 10
768.8362142232
 20
192.1280161211
 10
767.8664468491
 20
187.5809953058
 10
767.0972141802
 20
183.0918466717
 10
766.5310713692
 20
178.6754826563
 10
766.1698992192
 20
174.3465735532
 10
766.0148936471
 20
170.119497417
 10
766.0665762201
 20
166.0082998533
 10
766.3247730824
 20
162.0266369858
 10
766.7886254921
 20
158.1877349608
 10
767.4565898207
 20
154.5043444144
 10
768.3264533588
 20
150.9887036834
 10
768.7127134203
 20
149.6884006113
  0
ARC
  5
28B
330
1F
100
AcDbEntity
  8
0
  6
Continuous
 62
     8
370
    15
100
AcDbCircle
 10
861.2660569117
 20
221.4016988055
 30
0.0
 40
64.54852352181044
100
AcDbArc
 50
103.343461567
 51
120.7799698126
  0
LWPOLYLINE
  5
28C
330
1F
100
AcDbEntity
  8
0
  6
Continuous
 62
     8
370
    15
100
AcDbPolyline
 90
       31
 70
   128
 43
0.0
 10
822.5151918859
 20
147.8158379937
 10
824.5928951988
 20
148.5369576781
 10
827.590502542
 20
149.7863676962
 10
830.6097093218
 20
151.288209348
 10
833.6361273287
 20
153.035323275
 10
836.6553341086
 20
155.0193835717
 10
839.6529414518
 20
157.2309373234
 10
842.6146656925
 20
159.6594421475
 10
845.5263919172
 20
162.2933275947
 10
848.3742439343
 20
165.1200446677
 10
851.1446511174
 20
168.1261165758
 10
853.824410966
 20
171.297220479
 10
856.4007543021
 20
174.6182464171
 10
858.8614005878
 20
178.0733657471
 10
861.1946264138
 20
181.6461163077
 10
863.3893129145
 20
185.3194693365
 10
865.4350024032
 20
189.0759230006
 10
867.3219431528
 20
192.897570835
 10
869.0411447137
 20
196.7662066808
 10
870.5844121581
 20
200.6633885609
 10
871.9443961291
 20
204.5705497029
 10
873.1146112805
 20
208.469070021
 10
874.0894810575
 20
212.3403688882
 10
874.8643640383
 20
216.1660009521
 10
875.4355618369
 20
219.9277321806
 10
875.8003559816
 20
223.607637958
 10
875.957007915
 20
227.1881819829
 10
875.9047695305
 20
230.6523004889
 10
875.6438910749
 20
233.9834858943
 10
875.1756158803
 20
237.1658639902
 10
874.8887275509
 20
238.586559546
  0
LWPOLYLINE
  5
28D
330
1F
100
AcDbEntity
  8
0
  6
Continuous
 62
     8
370
    15
100
AcDbPolyline
 90
       34
 70
   128
 43
0.0
 10
820.4556564989
 20
281.3480877217
 10
816.8707278826
 20
279.1592023948
 10
813.2977083853
 20
276.7388934044
 10
809.7484662959
 20
274.0951984899
 10
806.2347921954
 20
271.2369014124
 10
802.7683601022
 20
268.1734912731
 10
799.360682033
 20
264.9151545329
 10
796.0230783678
 20
261.4727031514
 10
792.7666389961
 20
257.8575825755
 10
789.6021798529
 20
254.0817979784
 10
786.5402113086
 20
250.157889928
 10
783.5909065587
 20
246.0988978872
 10
780.7640647455
 20
241.9183024227
 10
778.0690740795
 20
237.6299917478
 10
775.5148881319
 20
233.2482115343
 10
773.1099889559
 20
228.7875162459
 10
770.8623660134
 20
224.2627235129
 10
768.7794898334
 20
219.6888685065
 10
766.8682724991
 20
215.0811385431
 10
765.1350729161
 20
210.4548487486
 10
763.585638861
 20
205.8253568922
 10
762.225122786
 20
201.2080496966
 10
761.0580396722
 20
196.6182607118
 10
760.0882722981
 20
192.0712398965
 10
759.3190396293
 20
187.5820912624
 10
758.7528968183
 20
183.165727247
 10
758.3917246683
 20
178.8368181439
 10
758.2367190962
 20
174.6097420077
 10
758.2884016692
 20
170.498544444
 10
758.5465985315
 20
166.5168815765
 10
759.0104509412
 20
162.6779795515
 10
759.6784152698
 20
158.9945890051
 10
760.5482788079
 20
155.4789482741
 10
760.8870130293
 20
154.3320882591
  0
ARC
  5
28E
330
1F
100
AcDbEntity
  8
0
  6
Continuous
 62
     8
370
    15
100
AcDbCircle
 10
853.429790154
 20
226.0134338407
 30
0.0
 40
64.41441927416138
100
AcDbArc
 50
103.1194164643
 51
120.7908771967
  0
LWPOLYLINE
  5
28F
330
1F
100
AcDbEntity
  8
0
  6
Continuous
 62
     8
370
    15
100
AcDbPolyline
 90
       27
 70
   128
 43
0.0
 10
820.9637575019
 20
154.8208154451
 10
822.8315347709
 20
155.7784539387
 10
825.8579527778
 20
157.5255678657
 10
828.8771595577
 20
159.5096281624
 10
831.8747669009
 20
161.7211819141
 10
834.8364911416
 20
164.1496867382
 10
837.7482173663
 20
166.7835721854
 10
840.5960693834
 20
169.6102892584
 10
843.3664765665
 20
172.6163611665
 10
846.0462364151
 20
175.7874650697
 10
848.6225797512
 20
179.1084910078
 10
851.0832260369
 20
182.5636103378
 10
853.4164518629
 20
186.1363608984
 10
855.6111383636
 20
189.8097139271
 10
857.6568278523
 20
193.5661675913
 10
859.5437686019
 20
197.3878154257
 10
861.2629701628
 20
201.2564512715
 10
862.8062376072
 20
205.1536331516
 10
864.1662215782
 20
209.0607942935
 10
865.3364367296
 20
212.9593146117
 10
866.3113065066
 20
216.8306134789
 10
867.0861894873
 20
220.6562455428
 10
867.657387286
 20
224.4179767713
 10
868.0221814307
 20
228.0978825486
 10
868.1788333641
 20
231.6784265736
 10
868.1265949796
 20
235.1425450796
 10
868.0552640726
 20
236.3782039701
  0
LWPOLYLINE
  5
290
330
1F
100
AcDbEntity
  8
0
  6
Continuous
 62
     8
370
    15
100
AcDbPolyline
 90
       34
 70
   128
 43
0.0
 10
812.677481948
 20
285.8383323124
 10
809.0925533317
 20
283.6494469855
 10
805.5195338344
 20
281.2291379951
 10
801.970291745
 20
278.5854430806
 10
798.4566176445
 20
275.7271460031
 10
794.9901855513
 20
272.6637358637
 10
791.5825074821
 20
269.4053991235
 10
788.2449038169
 20
265.9629477421
 10
784.9884644452
 20
262.3478271662
 10
781.824005302
 20
258.5720425691
 10
778.7620367577
 20
254.6481345187
 10
775.8127320078
 20
250.5891424779
 10
772.9858901946
 20
246.4085470134
 10
770.2908995286
 20
242.1202363385
 10
767.736713581
 20
237.738456125
 10
765.3318144049
 20
233.2777608366
 10
763.0841914625
 20
228.7529681036
 10
761.0013152825
 20
224.1791130972
 10
759.0900979482
 20
219.5713831338
 10
757.3568983652
 20
214.9450933393
 10
755.8074643101
 20
210.3156014829
 10
754.4469482351
 20
205.6982942873
 10
753.2798651213
 20
201.1085053025
 10
752.3100977472
 20
196.5614844872
 10
751.5408650784
 20
192.072335853
 10
750.9747222674
 20
187.6559718377
 10
750.6135501174
 20
183.3270627346
 10
750.4585445453
 20
179.0999865984
 10
750.5102271183
 20
174.9887890347
 10
750.7684239806
 20
171.0071261672
 10
751.2322763903
 20
167.1682241422
 10
751.9002407189
 20
163.4848335958
 10
752.770104257
 20
159.9691928648
 10
753.1088384784
 20
158.8223328498
  0
ARC
  5
291
330
1F
100
AcDbEntity
  8
0
  6
Continuous
 62
     8
370
    15
100
AcDbCircle
 10
845.6516156031
 20
230.5036784314
 30
0.0
 40
64.41441927417962
100
AcDbArc
 50
103.1194164643
 51
120.7908771967
  0
LWPOLYLINE
  5
292
330
1F
100
AcDbEntity
  8
0
  6
Continuous
 62
     8
370
    15
100
AcDbPolyline
 90
       22
 70
   128
 43
0.0
 10
820.6603337784
 20
163.6965667867
 10
821.0989850068
 20
163.9998727531
 10
824.09659235
 20
166.2114265048
 10
827.0583165907
 20
168.6399313289
 10
829.9700428154
 20
171.2738167761
 10
832.8178948325
 20
174.1005338491
 10
835.5883020156
 20
177.1066057572
 10
838.2680618642
 20
180.2777096604
 10
840.8444052003
 20
183.5987355985
 10
843.305051486
 20
187.0538549285
 10
845.638277312
 20
190.6266054891
 10
847.8329638127
 20
194.2999585178
 10
849.8786533014
 20
198.056412182
 10
851.765594051
 20
201.8780600164
 10
853.4847956119
 20
205.7466958622
 10
855.0280630563
 20
209.6438777422
 10
856.3880470273
 20
213.5510388842
 10
857.5582621787
 20
217.4495592024
 10
858.5331319557
 20
221.3208580696
 10
859.3080149364
 20
225.1464901335
 10
859.8792127351
 20
228.908221362
 10
860.2172936804
 20
232.2297732956
  0
LWPOLYLINE
  5
293
330
1F
100
AcDbEntity
  8
0
  6
Continuous
 62
     8
370
    15
100
AcDbPolyline
 90
       34
 70
   128
 43
0.0
 10
804.8993073971
 20
290.3285769031
 10
801.3143787808
 20
288.1396915762
 10
797.7413592834
 20
285.7193825858
 10
794.1921171941
 20
283.0756876713
 10
790.6784430936
 20
280.2173905938
 10
787.2120110004
 20
277.1539804544
 10
783.8043329312
 20
273.8956437142
 10
780.466729266
 20
270.4531923328
 10
777.2102898943
 20
266.8380717569
 10
774.0458307511
 20
263.0622871598
 10
770.9838622068
 20
259.1383791094
 10
768.0345574569
 20
255.0793870686
 10
765.2077156437
 20
250.8987916041
 10
762.5127249777
 20
246.6104809292
 10
759.9585390301
 20
242.2287007157
 10
757.553639854
 20
237.7680054273
 10
755.3060169116
 20
233.2432126943
 10
753.2231407316
 20
228.6693576879
 10
751.3119233972
 20
224.0616277245
 10
749.5787238143
 20
219.43533793
 10
748.0292897592
 20
214.8058460736
 10
746.6687736842
 20
210.188538878
 10
745.5016905704
 20
205.5987498932
 10
744.5319231963
 20
201.0517290779
 10
743.7626905275
 20
196.5625804437
 10
743.1965477165
 20
192.1462164284
 10
742.8353755665
 20
187.8173073253
 10
742.6803699944
 20
183.5902311891
 10
742.7320525674
 20
179.4790336254
 10
742.9902494297
 20
175.4973707579
 10
743.4541018394
 20
171.6584687329
 10
744.122066168
 20
167.9750781865
 10
744.9919297061
 20
164.4594374554
 10
745.3306639275
 20
163.3125774405
  0
ARC
  5
294
330
1F
100
AcDbEntity
  8
0
  6
Continuous
 62
     8
370
    15
100
AcDbCircle
 10
837.8734410522
 20
234.9939230221
 30
0.0
 40
64.41441927417013
100
AcDbArc
 50
103.1194164643
 51
120.7908771967
  0
ARC
  5
295
330
1F
100
AcDbEntity
  8
0
  6
Continuous
 62
     8
370
    15
100
AcDbCircle
 10
750.4768668631
 20
249.8898967182
 30
0.0
 40
103.1573360945047
100
AcDbArc
 50
315.31019905
 51
344.7151833803
  0
LWPOLYLINE
  5
296
330
1F
100
AcDbEntity
  8
0
  6
Continuous
 62
     8
370
    15
100
AcDbPolyline
 90
       34
 70
   128
 43
0.0
 10
797.1211321877
 20
294.818821874
 10
793.5362035714
 20
292.6299365471
 10
789.963184074
 20
290.2096275566
 10
786.4139419846
 20
287.5659326421
 10
782.9002678841
 20
284.7076355646
 10
779.433835791
 20
281.6442254253
 10
776.0261577217
 20
278.3858886851
 10
772.6885540565
 20
274.9434373036
 10
769.4321146848
 20
271.3283167278
 10
766.2676555416
 20
267.5525321307
 10
763.2056869973
 20
263.6286240802
 10
760.2563822474
 20
259.5696320394
 10
757.4295404342
 20
255.3890365749
 10
754.7345497683
 20
251.1007259001
 10
752.1803638206
 20
246.7189456865
 10
749.7754646446
 20
242.2582503982
 10
747.5278417021
 20
237.7334576651
 10
745.4449655222
 20
233.1596026588
 10
743.5337481878
 20
228.5518726953
 10
741.8005486048
 20
223.9255829008
 10
740.2511145497
 20
219.2960910444
 10
738.8905984747
 20
214.6787838488
 10
737.723515361
 20
210.0889948641
 10
736.7537479869
 20
205.5419740487
 10
735.984515318
 20
201.0528254146
 10
735.418372507
 20
196.6364613993
 10
735.0572003571
 20
192.3075522962
 10
734.902194785
 20
188.0804761599
 10
734.9538773579
 20
183.9692785962
 10
735.2120742203
 20
179.9876157288
 10
735.6759266299
 20
176.1487137038
 10
736.3438909585
 20
172.4653231573
 10
737.2137544966
 20
168.9496824263
 10
737.5524887181
 20
167.8028224113
  0
ARC
  5
297
330
1F
100
AcDbEntity
  8
0
  6
Continuous
 62
     8
370
    15
100
AcDbCircle
 10
830.0952658427
 20
239.484167993
 30
0.0
 40
64.41441927416975
100
AcDbArc
 50
103.1194164643
 51
120.7908771967
  0
LWPOLYLINE
  5
298
330
1F
100
AcDbEntity
  8
0
  6
Continuous
 62
     8
370
    15
100
AcDbPolyline
 90
       34
 70
   128
 43
0.0
 10
789.3429578014
 20
299.3090663696
 10
785.7580291851
 20
297.1201810427
 10
782.1850096877
 20
294.6998720523
 10
778.6357675983
 20
292.0561771378
 10
775.1220934978
 20
289.1978800603
 10
771.6556614047
 20
286.134469921
 10
768.2479833355
 20
282.8761331808
 10
764.9103796702
 20
279.4336817993
 10
761.6539402985
 20
275.8185612234
 10
758.4894811554
 20
272.0427766263
 10
755.427512611
 20
268.1188685759
 10
752.4782078612
 20
264.0598765351
 10
749.651366048
 20
259.8792810706
 10
746.956375382
 20
255.5909703957
 10
744.4021894344
 20
251.2091901822
 10
741.9972902583
 20
246.7484948938
 10
739.7496673159
 20
242.2237021608
 10
737.6667911359
 20
237.6498471544
 10
735.7555738015
 20
233.042117191
 10
734.0223742186
 20
228.4158273965
 10
732.4729401635
 20
223.7863355401
 10
731.1124240885
 20
219.1690283445
 10
729.9453409747
 20
214.5792393597
 10
728.9755736006
 20
210.0322185444
 10
728.2063409317
 20
205.5430699103
 10
727.6401981208
 20
201.1267058949
 10
727.2790259708
 20
196.7977967918
 10
727.1240203987
 20
192.5707206556
 10
727.1757029717
 20
188.4595230919
 10
727.433899834
 20
184.4778602244
 10
727.8977522436
 20
180.6389581994
 10
728.5657165723
 20
176.955567653
 10
729.4355801103
 20
173.439926922
 10
729.7743143318
 20
172.293066907
  0
ARC
  5
299
330
1F
100
AcDbEntity
  8
0
  6
Continuous
 62
     8
370
    15
100
AcDbCircle
 10
822.3170914564
 20
243.9744124886
 30
0.0
 40
64.4144192741872
100
AcDbArc
 50
103.1194164643
 51
120.7908771967
  0
LWPOLYLINE
  5
29A
330
1F
100
AcDbEntity
  8
0
  6
Continuous
 62
     8
370
    15
100
AcDbPolyline
 90
       34
 70
   128
 43
0.0
 10
781.5647830859
 20
303.7993110554
 10
777.9798544696
 20
301.6104257285
 10
774.4068349722
 20
299.190116738
 10
770.8575928828
 20
296.5464218235
 10
767.3439187823
 20
293.688124746
 10
763.8774866892
 20
290.6247146067
 10
760.4698086199
 20
287.3663778665
 10
757.1322049547
 20
283.923926485
 10
753.875765583
 20
280.3088059092
 10
750.7113064398
 20
276.5330213121
 10
747.6493378955
 20
272.6091132616
 10
744.7000331456
 20
268.5501212208
 10
741.8731913324
 20
264.3695257563
 10
739.1782006664
 20
260.0812150815
 10
736.6240147188
 20
255.6994348679
 10
734.2191155428
 20
251.2387395795
 10
731.9714926003
 20
246.7139468465
 10
729.8886164203
 20
242.1400918401
 10
727.977399086
 20
237.5323618767
 10
726.244199503
 20
232.9060720822
 10
724.6947654479
 20
228.2765802258
 10
723.3342493729
 20
223.6592730302
 10
722.1671662592
 20
219.0694840455
 10
721.1973988851
 20
214.5224632301
 10
720.4281662162
 20
210.033314596
 10
719.8620234052
 20
205.6169505807
 10
719.5008512553
 20
201.2880414775
 10
719.3458456831
 20
197.0609653413
 10
719.3975282561
 20
192.9497677776
 10
719.6557251185
 20
188.9681049101
 10
720.1195775281
 20
185.1292028852
 10
720.7875418567
 20
181.4458123387
 10
721.6574053948
 20
177.9301716077
 10
721.9961396163
 20
176.7833115927
  0
ARC
  5
29B
330
1F
100
AcDbEntity
  8
0
  6
Continuous
 62
     8
370
    15
100
AcDbCircle
 10
814.5389167409
 20
248.4646571744
 30
0.0
 40
64.41441927416132
100
AcDbArc
 50
103.1194164643
 51
120.7908771967
  0
LWPOLYLINE
  5
29C
330
1F
100
AcDbEntity
  8
0
  6
Continuous
 62
     8
370
    15
100
AcDbPolyline
 90
       34
 70
   128
 43
0.0
 10
773.7866091935
 20
308.2895552659
 10
770.2016805772
 20
306.100669939
 10
766.6286610798
 20
303.6803609485
 10
763.0794189904
 20
301.0366660341
 10
759.5657448899
 20
298.1783689565
 10
756.0993127968
 20
295.1149588172
 10
752.6916347276
 20
291.856622077
 10
749.3540310623
 20
288.4141706956
 10
746.0975916906
 20
284.7990501197
 10
742.9331325475
 20
281.0232655226
 10
739.8711640031
 20
277.0993574721
 10
736.9218592533
 20
273.0403654313
 10
734.0950174401
 20
268.8597699668
 10
731.4000267741
 20
264.571459292
 10
728.8458408265
 20
260.1896790785
 10
726.4409416504
 20
255.7289837901
 10
724.193318708
 20
251.204191057
 10
722.110442528
 20
246.6303360507
 10
720.1992251936
 20
242.0226060873
 10
718.4660256107
 20
237.3963162927
 10
716.9165915556
 20
232.7668244363
 10
715.5560754806
 20
228.1495172407
 10
714.3889923668
 20
223.559728256
 10
713.4192249927
 20
219.0127074406
 10
712.6499923238
 20
214.5235588065
 10
712.0838495129
 20
210.1071947912
 10
711.7226773629
 20
205.7782856881
 10
711.5676717908
 20
201.5512095518
 10
711.6193543638
 20
197.4400119881
 10
711.8775512261
 20
193.4583491207
 10
712.3414036357
 20
189.6194470957
 10
713.0093679644
 20
185.9360565492
 10
713.8792315024
 20
182.4204158182
 10
714.2179657239
 20
181.2735558033
  0
ARC
  5
29D
330
1F
100
AcDbEntity
  8
0
  6
Continuous
 62
     8
370
    15
100
AcDbCircle
 10
806.7607428485
 20
252.9549013849
 30
0.0
 40
64.41441927418285
100
AcDbArc
 50
103.1194164643
 51
120.7908771967
  0
LWPOLYLINE
  5
29E
330
1F
100
AcDbEntity
  8
0
  6
Continuous
 62
     8
370
    15
100
AcDbPolyline
 90
       34
 70
   128
 43
0.0
 10
766.0084346426
 20
312.7797998566
 10
762.4235060263
 20
310.5909145297
 10
758.8504865289
 20
308.1706055392
 10
755.3012444395
 20
305.5269106247
 10
751.787570339
 20
302.6686135472
 10
748.3211382459
 20
299.6052034079
 10
744.9134601767
 20
296.3468666677
 10
741.5758565114
 20
292.9044152863
 10
738.3194171397
 20
289.2892947104
 10
735.1549579966
 20
285.5135101133
 10
732.0929894522
 20
281.5896020628
 10
729.1436847023
 20
277.530610022
 10
726.3168428892
 20
273.3500145575
 10
723.6218522232
 20
269.0617038827
 10
721.0676662755
 20
264.6799236692
 10
718.6627670995
 20
260.2192283808
 10
716.4151441571
 20
255.6944356477
 10
714.3322679771
 20
251.1205806414
 10
712.4210506427
 20
246.5128506779
 10
710.6878510598
 20
241.8865608834
 10
709.1384170047
 20
237.257069027
 10
707.7779009297
 20
232.6397618314
 10
706.6108178159
 20
228.0499728467
 10
705.6410504418
 20
223.5029520313
 10
704.8718177729
 20
219.0138033972
 10
704.3056749619
 20
214.5974393819
 10
703.944502812
 20
210.2685302788
 10
703.7894972399
 20
206.0414541425
 10
703.8411798129
 20
201.9302565788
 10
704.0993766752
 20
197.9485937114
 10
704.5632290848
 20
194.1096916864
 10
705.2311934135
 20
190.4263011399
 10
706.1010569515
 20
186.9106604089
 10
706.439791173
 20
185.7638003939
  0
ARC
  5
29F
330
1F
100
AcDbEntity
  8
0
  6
Continuous
 62
     8
370
    15
100
AcDbCircle
 10
798.9825682976
 20
257.4451459756
 30
0.0
 40
64.41441927416639
100
AcDbArc
 50
103.1194164643
 51
120.7908771967
  0
LWPOLYLINE
  5
2A0
330
1F
100
AcDbEntity
  8
0
  6
Continuous
 62
     8
370
    15
100
AcDbPolyline
 90
       34
 70
   128
 43
0.0
 10
758.2302600917
 20
317.2700444473
 10
754.6453314754
 20
315.0811591204
 10
751.072311978
 20
312.6608501299
 10
747.5230698886
 20
310.0171552154
 10
744.0093957881
 20
307.1588581379
 10
740.542963695
 20
304.0954479986
 10
737.1352856258
 20
300.8371112584
 10
733.7976819605
 20
297.3946598769
 10
730.5412425888
 20
293.7795393011
 10
727.3767834456
 20
290.003754704
 10
724.3148149013
 20
286.0798466535
 10
721.3655101514
 20
282.0208546127
 10
718.5386683383
 20
277.8402591482
 10
715.8436776723
 20
273.5519484734
 10
713.2894917246
 20
269.1701682598
 10
710.8845925486
 20
264.7094729715
 10
708.6369696062
 20
260.1846802384
 10
706.5540934262
 20
255.6108252321
 10
704.6428760918
 20
251.0030952686
 10
702.9096765089
 20
246.3768054741
 10
701.3602424538
 20
241.7473136177
 10
699.9997263788
 20
237.1300064221
 10
698.832643265
 20
232.5402174374
 10
697.8628758909
 20
227.993196622
 10
697.093643222
 20
223.5040479879
 10
696.527500411
 20
219.0876839726
 10
696.1663282611
 20
214.7587748695
 10
696.011322689
 20
210.5316987332
 10
696.063005262
 20
206.4205011695
 10
696.3212021243
 20
202.4388383021
 10
696.7850545339
 20
198.5999362771
 10
697.4530188626
 20
194.9165457306
 10
698.3228824006
 20
191.4009049996
 10
698.6616166221
 20
190.2540449846
  0
ARC
  5
2A1
330
1F
100
AcDbEntity
  8
0
  6
Continuous
 62
     8
370
    15
100
AcDbCircle
 10
791.2043937467
 20
261.9353905663
 30
0.0
 40
64.41441927417219
100
AcDbArc
 50
103.1194164643
 51
120.7908771967
  0
LWPOLYLINE
  5
2A2
330
1F
100
AcDbEntity
  8
0
  6
Continuous
 62
     8
370
    15
100
AcDbPolyline
 90
       34
 70
   128
 43
0.0
 10
750.4520855408
 20
321.760289038
 10
746.8671569245
 20
319.5714037111
 10
743.2941374271
 20
317.1510947206
 10
739.7448953377
 20
314.5073998061
 10
736.2312212372
 20
311.6491027286
 10
732.7647891441
 20
308.5856925893
 10
729.3571110748
 20
305.3273558491
 10
726.0195074096
 20
301.8849044676
 10
722.7630680379
 20
298.2697838918
 10
719.5986088947
 20
294.4939992947
 10
716.5366403504
 20
290.5700912442
 10
713.5873356005
 20
286.5110992034
 10
710.7604937873
 20
282.3305037389
 10
708.0655031214
 20
278.0421930641
 10
705.5113171737
 20
273.6604128505
 10
703.1064179977
 20
269.1997175621
 10
700.8587950552
 20
264.6749248291
 10
698.7759188753
 20
260.1010698227
 10
696.8647015409
 20
255.4933398593
 10
695.131501958
 20
250.8670500648
 10
693.5820679029
 20
246.2375582084
 10
692.2215518279
 20
241.6202510128
 10
691.0544687141
 20
237.0304620281
 10
690.08470134
 20
232.4834412127
 10
689.3154686711
 20
227.9942925786
 10
688.7493258601
 20
223.5779285633
 10
688.3881537102
 20
219.2490194602
 10
688.2331481381
 20
215.0219433239
 10
688.2848307111
 20
210.9107457602
 10
688.5430275734
 20
206.9290828927
 10
689.006879983
 20
203.0901808678
 10
689.6748443117
 20
199.4067903213
 10
690.5447078497
 20
195.8911495903
 10
690.8834420712
 20
194.7442895753
  0
ARC
  5
2A3
330
1F
100
AcDbEntity
  8
0
  6
Continuous
 62
     8
370
    15
100
AcDbCircle
 10
783.4262191958
 20
266.425635157
 30
0.0
 40
64.4144192741621
100
AcDbArc
 50
103.1194164643
 51
120.7908771967
  0
LWPOLYLINE
  5
2A4
330
1F
100
AcDbEntity
  8
0
  6
Continuous
 62
     8
370
    15
100
AcDbPolyline
 90
       34
 70
   128
 43
0.0
 10
742.6739083557
 20
326.2505351493
 10
739.0889797394
 20
324.0616498225
 10
735.515960242
 20
321.641340832
 10
731.9667181526
 20
318.9976459175
 10
728.4530440521
 20
316.13934884
 10
724.986611959
 20
313.0759387007
 10
721.5789338898
 20
309.8176019605
 10
718.2413302245
 20
306.375150579
 10
714.9848908528
 20
302.7600300031
 10
711.8204317097
 20
298.9842454061
 10
708.7584631653
 20
295.0603373556
 10
705.8091584155
 20
291.0013453148
 10
702.9823166023
 20
286.8207498503
 10
700.2873259363
 20
282.5324391755
 10
697.7331399887
 20
278.1506589619
 10
695.3282408126
 20
273.6899636735
 10
693.0806178702
 20
269.1651709405
 10
690.9977416902
 20
264.5913159341
 10
689.0865243558
 20
259.9835859707
 10
687.3533247729
 20
255.3572961762
 10
685.8038907178
 20
250.7278043198
 10
684.4433746428
 20
246.1104971242
 10
683.276291529
 20
241.5207081395
 10
682.3065241549
 20
236.9736873241
 10
681.537291486
 20
232.48453869
 10
680.9711486751
 20
228.0681746747
 10
680.6099765251
 20
223.7392655715
 10
680.454970953
 20
219.5121894353
 10
680.506653526
 20
215.4009918716
 10
680.7648503883
 20
211.4193290041
 10
681.2287027979
 20
207.5804269791
 10
681.8966671266
 20
203.8970364327
 10
682.7665306646
 20
200.3813957017
 10
683.1052648861
 20
199.2345356867
  0
ARC
  5
2A5
330
1F
100
AcDbEntity
  8
0
  6
Continuous
 62
     8
370
    15
100
AcDbCircle
 10
775.6480420107
 20
270.9158812683
 30
0.0
 40
64.41441927418705
100
AcDbArc
 50
103.1194164643
 51
120.7908771967
  0
LWPOLYLINE
  5
2A6
330
1F
100
AcDbEntity
  8
0
  6
Continuous
 62
     8
370
    15
100
AcDbPolyline
 90
       34
 70
   128
 43
0.0
 10
734.8957338048
 20
330.74077974
 10
731.3108051885
 20
328.5518944132
 10
727.7377856911
 20
326.1315854227
 10
724.1885436017
 20
323.4878905082
 10
720.6748695012
 20
320.6295934307
 10
717.2084374081
 20
317.5661832914
 10
713.8007593389
 20
314.3078465512
 10
710.4631556736
 20
310.8653951697
 10
707.2067163019
 20
307.2502745938
 10
704.0422571588
 20
303.4744899968
 10
700.9802886144
 20
299.5505819463
 10
698.0309838645
 20
295.4915899055
 10
695.2041420514
 20
291.310994441
 10
692.5091513854
 20
287.0226837661
 10
689.9549654377
 20
282.6409035526
 10
687.5500662617
 20
278.1802082642
 10
685.3024433193
 20
273.6554155312
 10
683.2195671393
 20
269.0815605248
 10
681.3083498049
 20
264.4738305614
 10
679.575150222
 20
259.8475407669
 10
678.0257161669
 20
255.2180489105
 10
676.6652000919
 20
250.6007417149
 10
675.4981169781
 20
246.0109527301
 10
674.528349604
 20
241.4639319148
 10
673.7591169351
 20
236.9747832807
 10
673.1929741241
 20
232.5584192653
 10
672.8318019742
 20
228.2295101622
 10
672.6767964021
 20
224.002434026
 10
672.7284789751
 20
219.8912364623
 10
672.9866758374
 20
215.9095735948
 10
673.450528247
 20
212.0706715698
 10
674.1184925757
 20
208.3872810234
 10
674.9883561137
 20
204.8716402924
 10
675.3270903352
 20
203.7247802774
  0
ARC
  5
2A7
330
1F
100
AcDbEntity
  8
0
  6
Continuous
 62
     8
370
    15
100
AcDbCircle
 10
767.8698674598
 20
275.4061258591
 30
0.0
 40
64.4144192741576
100
AcDbArc
 50
103.1194164643
 51
120.7908771967
  0
LWPOLYLINE
  5
2A8
330
1F
100
AcDbEntity
  8
0
  6
Continuous
 62
     8
370
    15
100
AcDbPolyline
 90
       34
 70
   128
 43
0.0
 10
727.1175592539
 20
335.2310243307
 10
723.5326306376
 20
333.0421390038
 10
719.9596111402
 20
330.6218300134
 10
716.4103690508
 20
327.9781350989
 10
712.8966949503
 20
325.1198380214
 10
709.4302628572
 20
322.0564278821
 10
706.022584788
 20
318.7980911419
 10
702.6849811227
 20
315.3556397604
 10
699.428541751
 20
311.7405191845
 10
696.2640826078
 20
307.9647345874
 10
693.2021140635
 20
304.040826537
 10
690.2528093136
 20
299.9818344962
 10
687.4259675005
 20
295.8012390317
 10
684.7309768345
 20
291.5129283568
 10
682.1767908868
 20
287.1311481433
 10
679.7718917108
 20
282.6704528549
 10
677.5242687684
 20
278.1456601219
 10
675.4413925884
 20
273.5718051155
 10
673.530175254
 20
268.9640751521
 10
671.7969756711
 20
264.3377853576
 10
670.247541616
 20
259.7082935012
 10
668.887025541
 20
255.0909863056
 10
667.7199424272
 20
250.5011973208
 10
666.7501750531
 20
245.9541765055
 10
665.9809423842
 20
241.4650278714
 10
665.4147995732
 20
237.048663856
 10
665.0536274233
 20
232.7197547529
 10
664.8986218512
 20
228.4926786167
 10
664.9503044242
 20
224.381481053
 10
665.2085012865
 20
220.3998181855
 10
665.6723536961
 20
216.5609161605
 10
666.3403180248
 20
212.8775256141
 10
667.2101815628
 20
209.3618848831
 10
667.5489157843
 20
208.2150248681
  0
ARC
  5
2A9
330
1F
100
AcDbEntity
  8
0
  6
Continuous
 62
     8
370
    15
100
AcDbCircle
 10
760.0916929089
 20
279.8963704497
 30
0.0
 40
64.41441927416977
100
AcDbArc
 50
103.1194164643
 51
120.7908771967
  0
ARC
  5
2AA
330
1F
100
AcDbEntity
  8
0
  6
Continuous
 62
     8
370
    15
100
AcDbCircle
 10
681.389748034
 20
228.9972006923
 30
0.0
 40
29.91013491505425
100
AcDbArc
 50
219.0221678973
 51
228.3737740535
  0
ARC
  5
2AB
330
1F
100
AcDbEntity
  8
0
  6
Continuous
 62
     8
370
    15
100
AcDbCircle
 10
734.0532188724
 20
320.299258094
 30
0.0
 40
29.7740688775321
100
AcDbArc
 50
71.6517198962
 51
81.0049283704
  0
LWPOLYLINE
  5
2AC
330
1F
100
AcDbEntity
  8
0
  6
Continuous
 62
     8
370
    15
100
AcDbPolyline
 90
        3
 70
   128
 43
0.0
 10
711.8718745724
 20
333.7758807504
 10
708.5555181872
 20
331.7422274671
 10
707.5114314312
 20
331.0525042252
  0
ARC
  5
2AD
330
1F
100
AcDbEntity
  8
0
  6
Continuous
 62
     8
370
    15
100
AcDbCircle
 10
732.7501869021
 20
241.404173759
 30
0.0
 40
74.21999813546495
100
AcDbArc
 50
176.0554202168
 51
181.9434316983
  0
LINE
  5
2AE
330
1F
100
AcDbEntity
  8
0
  6
Continuous
 62
     8
370
    15
100
AcDbLine
 10
714.0686585374
 20
334.9917981296
 30
0.0
 11
711.8718745724
 21
333.7758807504
 31
0.0
  0
ARC
  5
2AF
330
1F
100
AcDbEntity
  8
0
  6
Continuous
 62
     8
370
    15
100
AcDbCircle
 10
683.1039313456
 20
230.350382725
 30
0.0
 40
30.95134026307271
100
AcDbArc
 50
214.7201259783
 51
223.73844685
  0
ARC
  5
2B0
330
1F
100
AcDbEntity
  8
0
  6
Continuous
 62
     8
370
    15
100
AcDbCircle
 10
733.7049188415
 20
317.9949078569
 30
0.0
 40
30.96199437785435
100
AcDbArc
 50
76.3773261687
 51
85.2845874173
  0
ARC
  5
2B1
330
1F
100
AcDbEntity
  8
0
  6
Continuous
 62
     8
370
    15
100
AcDbCircle
 10
758.1578376302
 20
256.5389952183
 30
0.0
 40
89.02238329214585
100
AcDbArc
 50
125.2687792888
 51
130.8534529273
  0
ARC
  5
2B2
330
1F
100
AcDbEntity
  8
0
  6
Continuous
 62
     8
370
    15
100
AcDbCircle
 10
748.7935582561
 20
239.8770539319
 30
0.0
 40
89.25829664026057
100
AcDbArc
 50
169.156797784
 51
174.4702724526
  0
ENDSEC
  0
SECTION
  2
OBJECTS
  0
DICTIONARY
  5
C
330
0
100
AcDbDictionary
281
     1
  3
ACAD_GROUP
350
D
  3
ACAD_LAYOUT
350
1A
  3
ACAD_MLINESTYLE
350
17
  3
ACAD_PLOTSETTINGS
350
19
  3
ACAD_PLOTSTYLENAME
350
E
  3
ACAD_SCALELIST
350
47
  0
DICTIONARY
  5
D
102
{ACAD_REACTORS
330
C
102
}
330
C
100
AcDbDictionary
281
     1
  0
DICTIONARY
  5
1A
102
{ACAD_REACTORS
330
C
102
}
330
C
100
AcDbDictionary
281
     1
  3
Layout1
350
1E
  3
Layout2
350
26
  3
Model
350
22
  0
DICTIONARY
  5
17
102
{ACAD_REACTORS
330
C
102
}
330
C
100
AcDbDictionary
281
     1
  3
Standard
350
18
  0
DICTIONARY
  5
19
102
{ACAD_REACTORS
330
C
102
}
330
C
100
AcDbDictionary
281
     1
  0
ACDBDICTIONARYWDFLT
  5
E
102
{ACAD_REACTORS
330
C
102
}
330
C
100
AcDbDictionary
281
     1
  3
Normal
350
F
100
AcDbDictionaryWithDefault
340
F
  0
DICTIONARY
  5
47
102
{ACAD_REACTORS
330
C
102
}
330
C
100
AcDbDictionary
281
     1
  3
A0
350
48
  3
A1
350
49
  3
A2
350
4A
  3
A3
350
4B
  3
A4
350
4C
  3
A5
350
4D
  3
A6
350
4E
  3
A7
350
4F
  3
A8
350
50
  3
A9
350
51
  3
B0
350
52
  3
B1
350
53
  3
B2
350
54
  3
B3
350
55
  3
B4
350
56
  3
B5
350
57
  3
B6
350
58
  3
B7
350
59
  3
B8
350
5A
  3
B9
350
5B
  3
C0
350
5C
  3
C1
350
5D
  3
C2
350
5E
  3
C3
350
5F
  3
C4
350
60
  3
C5
350
61
  3
C6
350
62
  3
C7
350
63
  3
C8
350
64
  3
C9
350
65
  3
D0
350
66
  3
D1
350
67
  3
D2
350
68
  0
LAYOUT
  5
1E
102
{ACAD_REACTORS
330
1A
102
}
330
1A
100
AcDbPlotSettings
  1

  2
none_device
  4

  6

 40
0.0
 41
0.0
 42
0.0
 43
0.0
 44
0.0
 45
0.0
 46
0.0
 47
0.0
 48
0.0
 49
0.0
140
0.0
141
0.0
142
1.0
143
1.0
 70
   688
 72
     1
 73
     0
 74
     5
  7

 75
    16
147
1.0
148
0.0
149
0.0
100
AcDbLayout
  1
Layout1
 70
     1
 71
     1
 10
0.0
 20
0.0
 11
420.0
 21
297.0
 12
0.0
 22
0.0
 32
0.0
 14
1.0000000000E+20
 24
1.0000000000E+20
 34
1.0000000000E+20
 15
-1.0000000000E+20
 25
-1.0000000000E+20
 35
-1.0000000000E+20
146
0.0
 13
0.0
 23
0.0
 33
0.0
 16
1.0
 26
0.0
 36
0.0
 17
0.0
 27
1.0
 37
0.0
 76
     0
330
1B
  0
LAYOUT
  5
26
102
{ACAD_REACTORS
330
1A
102
}
330
1A
100
AcDbPlotSettings
  1

  2
none_device
  4

  6

 40
0.0
 41
0.0
 42
0.0
 43
0.0
 44
0.0
 45
0.0
 46
0.0
 47
0.0
 48
0.0
 49
0.0
140
0.0
141
0.0
142
1.0
143
1.0
 70
   688
 72
     1
 73
     0
 74
     5
  7

 75
    16
147
1.0
148
0.0
149
0.0
100
AcDbLayout
  1
Layout2
 70
     1
 71
     2
 10
0.0
 20
0.0
 11
0.0
 21
0.0
 12
0.0
 22
0.0
 32
0.0
 14
0.0
 24
0.0
 34
0.0
 15
0.0
 25
0.0
 35
0.0
146
0.0
 13
0.0
 23
0.0
 33
0.0
 16
1.0
 26
0.0
 36
0.0
 17
0.0
 27
1.0
 37
0.0
 76
     0
330
23
  0
LAYOUT
  5
22
102
{ACAD_REACTORS
330
1A
102
}
330
1A
100
AcDbPlotSettings
  1

  2
none_device
  4
Letter_(8.50_x_11.00_Inches)
  6

 40
6.35
 41
6.35
 42
6.35000508
 43
6.35000508
 44
215.9
 45
279.4
 46
0.0
 47
0.0
 48
0.0
 49
0.0
140
0.0
141
0.0
142
1.0
143
1.0
 70
  1712
 72
     1
 73
     0
 74
     0
  7

 75
     0
147
1.0
148
0.0
149
0.0
100
AcDbLayout
  1
Model
 70
     1
 71
     0
 10
0.0
 20
0.0
 11
1189.0
 21
841.0
 12
0.0
 22
0.0
 32
0.0
 14
0.0
 24
0.0
 34
0.0
 15
1189.0
 25
841.0
 35
0.0
146
0.0
 13
0.0
 23
0.0
 33
0.0
 16
1.0
 26
0.0
 36
0.0
 17
0.0
 27
1.0
 37
0.0
 76
     0
330
1F
331
29
  0
MLINESTYLE
  5
18
102
{ACAD_REACTORS
330
17
102
}
330
17
100
AcDbMlineStyle
  2
Standard
 70
     0
  3

 62
   256
 51
90.0
 52
90.0
 71
     2
 49
0.5
 62
   256
  6
BYLAYER
 49
-0.5
 62
   256
  6
BYLAYER
  0
ACDBPLACEHOLDER
  5
F
102
{ACAD_REACTORS
330
E
102
}
330
E
  0
SCALE
  5
48
102
{ACAD_REACTORS
330
47
102
}
330
47
100
AcDbScale
 70
     0
300
1:1
140
1.0
141
1.0
290
     1
  0
SCALE
  5
49
102
{ACAD_REACTORS
330
47
102
}
330
47
100
AcDbScale
 70
     0
300
1:2
140
1.0
141
2.0
290
     0
  0
SCALE
  5
4A
102
{ACAD_REACTORS
330
47
102
}
330
47
100
AcDbScale
 70
     0
300
1:4
140
1.0
141
4.0
290
     0
  0
SCALE
  5
4B
102
{ACAD_REACTORS
330
47
102
}
330
47
100
AcDbScale
 70
     0
300
1:5
140
1.0
141
5.0
290
     0
  0
SCALE
  5
4C
102
{ACAD_REACTORS
330
47
102
}
330
47
100
AcDbScale
 70
     0
300
1:8
140
1.0
141
8.0
290
     0
  0
SCALE
  5
4D
102
{ACAD_REACTORS
330
47
102
}
330
47
100
AcDbScale
 70
     0
300
1:10
140
1.0
141
10.0
290
     0
  0
SCALE
  5
4E
102
{ACAD_REACTORS
330
47
102
}
330
47
100
AcDbScale
 70
     0
300
1:16
140
1.0
141
16.0
290
     0
  0
SCALE
  5
4F
102
{ACAD_REACTORS
330
47
102
}
330
47
100
AcDbScale
 70
     0
300
1:20
140
1.0
141
20.0
290
     0
  0
SCALE
  5
50
102
{ACAD_REACTORS
330
47
102
}
330
47
100
AcDbScale
 70
     0
300
1:30
140
1.0
141
30.0
290
     0
  0
SCALE
  5
51
102
{ACAD_REACTORS
330
47
102
}
330
47
100
AcDbScale
 70
     0
300
1:40
140
1.0
141
40.0
290
     0
  0
SCALE
  5
52
102
{ACAD_REACTORS
330
47
102
}
330
47
100
AcDbScale
 70
     0
300
1:50
140
1.0
141
50.0
290
     0
  0
SCALE
  5
53
102
{ACAD_REACTORS
330
47
102
}
330
47
100
AcDbScale
 70
     0
300
1:100
140
1.0
141
100.0
290
     0
  0
SCALE
  5
54
102
{ACAD_REACTORS
330
47
102
}
330
47
100
AcDbScale
 70
     0
300
2:1
140
2.0
141
1.0
290
     0
  0
SCALE
  5
55
102
{ACAD_REACTORS
330
47
102
}
330
47
100
AcDbScale
 70
     0
300
4:1
140
4.0
141
1.0
290
     0
  0
SCALE
  5
56
102
{ACAD_REACTORS
330
47
102
}
330
47
100
AcDbScale
 70
     0
300
8:1
140
8.0
141
1.0
290
     0
  0
SCALE
  5
57
102
{ACAD_REACTORS
330
47
102
}
330
47
100
AcDbScale
 70
     0
300
10:1
140
10.0
141
1.0
290
     0
  0
SCALE
  5
58
102
{ACAD_REACTORS
330
47
102
}
330
47
100
AcDbScale
 70
     0
300
100:1
140
100.0
141
1.0
290
     0
  0
SCALE
  5
59
102
{ACAD_REACTORS
330
47
102
}
330
47
100
AcDbScale
 70
     0
300
1/128" = 1'-0"
140
0.0078125
141
12.0
290
     0
  0
SCALE
  5
5A
102
{ACAD_REACTORS
330
47
102
}
330
47
100
AcDbScale
 70
     0
300
1/64" = 1'-0"
140
0.015625
141
12.0
290
     0
  0
SCALE
  5
5B
102
{ACAD_REACTORS
330
47
102
}
330
47
100
AcDbScale
 70
     0
300
1/32" = 1'-0"
140
0.03125
141
12.0
290
     0
  0
SCALE
  5
5C
102
{ACAD_REACTORS
330
47
102
}
330
47
100
AcDbScale
 70
     0
300
1/16" = 1'-0"
140
0.0625
141
12.0
290
     0
  0
SCALE
  5
5D
102
{ACAD_REACTORS
330
47
102
}
330
47
100
AcDbScale
 70
     0
300
3/32" = 1'-0"
140
0.09375
141
12.0
290
     0
  0
SCALE
  5
5E
102
{ACAD_REACTORS
330
47
102
}
330
47
100
AcDbScale
 70
     0
300
1/8" = 1'-0"
140
0.125
141
12.0
290
     0
  0
SCALE
  5
5F
102
{ACAD_REACTORS
330
47
102
}
330
47
100
AcDbScale
 70
     0
300
3/16" = 1'-0"
140
0.1875
141
12.0
290
     0
  0
SCALE
  5
60
102
{ACAD_REACTORS
330
47
102
}
330
47
100
AcDbScale
 70
     0
300
1/4" = 1'-0"
140
0.25
141
12.0
290
     0
  0
SCALE
  5
61
102
{ACAD_REACTORS
330
47
102
}
330
47
100
AcDbScale
 70
     0
300
3/8" = 1'-0"
140
0.375
141
12.0
290
     0
  0
SCALE
  5
62
102
{ACAD_REACTORS
330
47
102
}
330
47
100
AcDbScale
 70
     0
300
1/2" = 1'-0"
140
0.5
141
12.0
290
     0
  0
SCALE
  5
63
102
{ACAD_REACTORS
330
47
102
}
330
47
100
AcDbScale
 70
     0
300
3/4" = 1'-0"
140
0.75
141
12.0
290
     0
  0
SCALE
  5
64
102
{ACAD_REACTORS
330
47
102
}
330
47
100
AcDbScale
 70
     0
300
1" = 1'-0"
140
1.0
141
12.0
290
     0
  0
SCALE
  5
65
102
{ACAD_REACTORS
330
47
102
}
330
47
100
AcDbScale
 70
     0
300
1-1/2" = 1'-0"
140
1.5
141
12.0
290
     0
  0
SCALE
  5
66
102
{ACAD_REACTORS
330
47
102
}
330
47
100
AcDbScale
 70
     0
300
3" = 1'-0"
140
3.0
141
12.0
290
     0
  0
SCALE
  5
67
102
{ACAD_REACTORS
330
47
102
}
330
47
100
AcDbScale
 70
     0
300
6" = 1'-0"
140
6.0
141
12.0
290
     0
  0
SCALE
  5
68
102
{ACAD_REACTORS
330
47
102
}
330
47
100
AcDbScale
 70
     0
300
1'-0" = 1'-0"
140
12.0
141
12.0
290
     0
  0
ENDSEC
  0
EOF
