  0
SECTION
  2
HEADER
  9
$ACADVER
  1
AC1015
  9
$ACADMAINTVER
 70
     6
  9
$DWGCODEPAGE
  3
ANSI_1252
  9
$INSBASE
 10
0.0
 20
0.0
 30
0.0
  9
$EXTMIN
 10
0.0
 20
0.0
 30
0.0
  9
$EXTMAX
 10
841.0
 20
594.0
 30
0.0
  9
$LIMMIN
 10
0.0
 20
0.0
  9
$LIMMAX
 10
841.0
 20
594.0
  9
$ORTHOMODE
 70
     0
  9
$REGENMODE
 70
     1
  9
$FILLMODE
 70
     1
  9
$QTEXTMODE
 70
     0
  9
$MIRRTEXT
 70
     1
  9
$LTSCALE
 40
1.0
  9
$ATTMODE
 70
     1
  9
$TEXTSIZE
 40
3.0
  9
$TRACEWID
 40
1.0
  9
$TEXTSTYLE
  7
Standard
  9
$CLAYER
  8
0
  9
$CELTYPE
  6
ByLayer
  9
$CECOLOR
 62
   256
  9
$CELTSCALE
 40
1.0
  9
$DISPSILH
 70
     0
  9
$DIMSCALE
 40
1.0
  9
$DIMASZ
 40
3.0
  9
$DIMEXO
 40
1.0
  9
$DIMDLI
 40
3.75
  9
$DIMRND
 40
0.0
  9
$DIMDLE
 40
0.0
  9
$DIMEXE
 40
1.0
  9
$DIMTP
 40
0.0
  9
$DIMTM
 40
0.0
  9
$DIMTXT
 40
3.0
  9
$DIMCEN
 40
2.5
  9
$DIMTSZ
 40
0.0
  9
$DIMTOL
 70
     0
  9
$DIMLIM
 70
     0
  9
$DIMTIH
 70
     1
  9
$DIMTOH
 70
     1
  9
$DIMSE1
 70
     0
  9
$DIMSE2
 70
     0
  9
$DIMTAD
 70
     1
  9
$DIMZIN
 70
     0
  9
$DIMBLK
  1

  9
$DIMASO
 70
     1
  9
$DIMSHO
 70
     1
  9
$DIMPOST
  1

  9
$DIMAPOST
  1

  9
$DIMALT
 70
     0
  9
$DIMALTD
 70
     3
  9
$DIMALTF
 40
0.0393700787
  9
$DIMLFAC
 40
1.0
  9
$DIMTOFL
 70
     1
  9
$DIMTVP
 40
0.0
  9
$DIMTIX
 70
     0
  9
$DIMSOXD
 70
     0
  9
$DIMSAH
 70
     0
  9
$DIMBLK1
  1

  9
$DIMBLK2
  1

  9
$DIMSTYLE
  2
ISO-25
  9
$DIMCLRD
 70
     0
  9
$DIMCLRE
 70
     0
  9
$DIMCLRT
 70
     0
  9
$DIMTFAC
 40
1.0
  9
$DIMGAP
 40
3.0
  9
$DIMJUST
 70
     0
  9
$DIMSD1
 70
     0
  9
$DIMSD2
 70
     0
  9
$DIMTOLJ
 70
     0
  9
$DIMTZIN
 70
     0
  9
$DIMALTZ
 70
     0
  9
$DIMALTTZ
 70
     0
  9
$DIMUPT
 70
     0
  9
$DIMDEC
 70
     2
  9
$DIMTDEC
 70
     3
  9
$DIMALTU
 70
     2
  9
$DIMALTTD
 70
     3
  9
$DIMTXSTY
  7
Standard
  9
$DIMAUNIT
 70
     0
  9
$DIMADEC
 70
     2
  9
$DIMALTRND
 40
0.0
  9
$DIMAZIN
 70
     0
  9
$DIMDSEP
 70
    44
  9
$DIMATFIT
 70
     3
  9
$DIMFRAC
 70
     0
  9
$DIMLDRBLK
  1

  9
$DIMLUNIT
 70
     2
  9
$DIMLWD
 70
    -2
  9
$DIMLWE
 70
    -2
  9
$DIMTMOVE
 70
     0
  9
$LUNITS
 70
     2
  9
$LUPREC
 70
     2
  9
$SKETCHINC
 40
1.0
  9
$FILLETRAD
 40
10.0
  9
$AUNITS
 70
     0
  9
$AUPREC
 70
     2
  9
$MENU
  1
.
  9
$ELEVATION
 40
0.0
  9
$PELEVATION
 40
0.0
  9
$THICKNESS
 40
0.0
  9
$LIMCHECK
 70
     0
  9
$CHAMFERA
 40
0.0
  9
$CHAMFERB
 40
0.0
  9
$CHAMFERC
 40
0.0
  9
$CHAMFERD
 40
0.0
  9
$SKPOLY
 70
     0
  9
$TDCREATE
 40
2457877.580598136
  9
$TDUCREATE
 40
2457877.497264803
  9
$TDUPDATE
 40
2457877.580598785
  9
$TDUUPDATE
 40
2457877.497265452
  9
$TDINDWG
 40
0.0000000116
  9
$TDUSRTIMER
 40
0.0000000116
  9
$USRTIMER
 70
     1
  9
$ANGBASE
 50
0.0
  9
$ANGDIR
 70
     0
  9
$PDMODE
 70
     0
  9
$PDSIZE
 40
-1.0
  9
$PLINEWID
 40
0.0
  9
$SPLFRAME
 70
     0
  9
$SPLINETYPE
 70
     6
  9
$SPLINESEGS
 70
     8
  9
$HANDSEED
  5
20F
  9
$SURFTAB1
 70
     6
  9
$SURFTAB2
 70
     6
  9
$SURFTYPE
 70
     6
  9
$SURFU
 70
     6
  9
$SURFV
 70
     6
  9
$UCSBASE
  2

  9
$UCSNAME
  2

  9
$UCSORG
 10
0.0
 20
0.0
 30
0.0
  9
$UCSXDIR
 10
1.0
 20
0.0
 30
0.0
  9
$UCSYDIR
 10
0.0
 20
1.0
 30
0.0
  9
$UCSORTHOREF
  2

  9
$UCSORTHOVIEW
 70
     0
  9
$UCSORGTOP
 10
0.0
 20
0.0
 30
0.0
  9
$UCSORGBOTTOM
 10
0.0
 20
0.0
 30
0.0
  9
$UCSORGLEFT
 10
0.0
 20
0.0
 30
0.0
  9
$UCSORGRIGHT
 10
0.0
 20
0.0
 30
0.0
  9
$UCSORGFRONT
 10
0.0
 20
0.0
 30
0.0
  9
$UCSORGBACK
 10
0.0
 20
0.0
 30
0.0
  9
$PUCSBASE
  2

  9
$PUCSNAME
  2

  9
$PUCSORG
 10
0.0
 20
0.0
 30
0.0
  9
$PUCSXDIR
 10
1.0
 20
0.0
 30
0.0
  9
$PUCSYDIR
 10
0.0
 20
1.0
 30
0.0
  9
$PUCSORTHOREF
  2

  9
$PUCSORTHOVIEW
 70
     0
  9
$PUCSORGTOP
 10
0.0
 20
0.0
 30
0.0
  9
$PUCSORGBOTTOM
 10
0.0
 20
0.0
 30
0.0
  9
$PUCSORGLEFT
 10
0.0
 20
0.0
 30
0.0
  9
$PUCSORGRIGHT
 10
0.0
 20
0.0
 30
0.0
  9
$PUCSORGFRONT
 10
0.0
 20
0.0
 30
0.0
  9
$PUCSORGBACK
 10
0.0
 20
0.0
 30
0.0
  9
$USERI1
 70
     0
  9
$USERI2
 70
     0
  9
$USERI3
 70
     0
  9
$USERI4
 70
     0
  9
$USERI5
 70
     0
  9
$USERR1
 40
0.0
  9
$USERR2
 40
0.0
  9
$USERR3
 40
0.0
  9
$USERR4
 40
0.0
  9
$USERR5
 40
0.0
  9
$WORLDVIEW
 70
     1
  9
$SHADEDGE
 70
     3
  9
$SHADEDIF
 70
    70
  9
$TILEMODE
 70
     1
  9
$MAXACTVP
 70
    64
  9
$PINSBASE
 10
0.0
 20
0.0
 30
0.0
  9
$PLIMCHECK
 70
     0
  9
$PEXTMIN
 10
1.0000000000E+20
 20
1.0000000000E+20
 30
1.0000000000E+20
  9
$PEXTMAX
 10
-1.0000000000E+20
 20
-1.0000000000E+20
 30
-1.0000000000E+20
  9
$PLIMMIN
 10
0.0
 20
0.0
  9
$PLIMMAX
 10
420.0
 20
297.0
  9
$UNITMODE
 70
     0
  9
$VISRETAIN
 70
     1
  9
$PLINEGEN
 70
     0
  9
$PSLTSCALE
 70
     1
  9
$TREEDEPTH
 70
  3020
  9
$CMLSTYLE
  2
Standard
  9
$CMLJUST
 70
     0
  9
$CMLSCALE
 40
20.0
  9
$PROXYGRAPHICS
 70
     1
  9
$MEASUREMENT
 70
     1
  9
$CELWEIGHT
370
    -1
  9
$ENDCAPS
280
     0
  9
$JOINSTYLE
280
     0
  9
$LWDISPLAY
290
     1
  9
$INSUNITS
 70
     4
  9
$HYPERLINKBASE
  1

  9
$STYLESHEET
  1

  9
$XEDIT
290
     1
  9
$CEPSNTYPE
380
     0
  9
$PSTYLEMODE
290
     1
  9
$FINGERPRINTGUID
  2
{FB6A2F44-F254-4CD1-A21B-E080ED80A6BB}
  9
$VERSIONGUID
  2
{FAEB1C32-E019-11D5-929B-00C0DF256EC4}
  9
$EXTNAMES
290
     1
  9
$PSVPSCALE
 40
0.0
  9
$OLESTARTUP
290
     0
  0
ENDSEC
  0
SECTION
  2
CLASSES
  0
CLASS
  1
ACDBDICTIONARYWDFLT
  2
AcDbDictionaryWithDefault
  3
ObjectDBX Classes
 90
        0
280
     0
281
     0
  0
CLASS
  1
VISUALSTYLE
  2
AcDbVisualStyle
  3
ObjectDBX Classes
 90
     4095
280
     0
281
     0
  0
CLASS
  1
MATERIAL
  2
AcDbMaterial
  3
ObjectDBX Classes
 90
     1153
280
     0
281
     0
  0
CLASS
  1
SCALE
  2
AcDbScale
  3
ObjectDBX Classes
 90
     1153
280
     0
281
     0
  0
CLASS
  1
TABLESTYLE
  2
AcDbTableStyle
  3
ObjectDBX Classes
 90
     4095
280
     0
281
     0
  0
CLASS
  1
MLEADERSTYLE
  2
AcDbMLeaderStyle
  3
ACDB_MLEADERSTYLE_CLASS
 90
     4095
280
     0
281
     0
  0
CLASS
  1
SUN
  2
AcDbSun
  3
SCENEOE
 90
     1153
280
     0
281
     0
  0
CLASS
  1
ACDBPLACEHOLDER
  2
AcDbPlaceHolder
  3
ObjectDBX Classes
 90
        0
280
     0
281
     0
  0
CLASS
  1
LAYOUT
  2
AcDbLayout
  3
ObjectDBX Classes
 90
        0
280
     0
281
     0
  0
ENDSEC
  0
SECTION
  2
TABLES
  0
TABLE
  2
VPORT
  5
8
330
0
100
AcDbSymbolTable
 70
     1
  0
VPORT
  5
29
330
8
100
AcDbSymbolTableRecord
100
AcDbViewportTableRecord
  2
*Active
 70
     0
 10
0.0
 20
0.0
 11
1.0
 21
1.0
 12
420.5
 22
297.0
 13
0.0
 23
0.0
 14
10.0
 24
10.0
 15
10.0
 25
10.0
 16
0.0
 26
0.0
 36
1.0
 17
0.0
 27
0.0
 37
0.0
 40
594.0
 41
1.4158249158
 42
50.0
 43
0.0
 44
0.0
 50
0.0
 51
0.0
 71
     0
 72
  2000
 73
     1
 74
     3
 75
     0
 76
     0
 77
     0
 78
     0
281
     0
 65
     1
110
0.0
120
0.0
130
0.0
111
1.0
121
0.0
131
0.0
112
0.0
122
1.0
132
0.0
 79
     0
146
0.0
  0
ENDTAB
  0
TABLE
  2
LTYPE
  5
5
330
0
100
AcDbSymbolTable
 70
     6
  0
LTYPE
  5
14
330
5
100
AcDbSymbolTableRecord
100
AcDbLinetypeTableRecord
  2
ByBlock
 70
     0
  3

 72
    65
 73
     0
 40
0.0
  0
LTYPE
  5
15
330
5
100
AcDbSymbolTableRecord
100
AcDbLinetypeTableRecord
  2
ByLayer
 70
     0
  3

 72
    65
 73
     0
 40
0.0
  0
LTYPE
  5
16
330
5
100
AcDbSymbolTableRecord
100
AcDbLinetypeTableRecord
  2
Continuous
 70
     0
  3
Solid line
 72
    65
 73
     0
 40
0.0
  0
LTYPE
  5
6E
330
5
100
AcDbSymbolTableRecord
100
AcDbLinetypeTableRecord
  2
HIDDEN
 70
     0
  3
Hidden __ __ __ __ __ __ __ __ __ __ __ __ __ __
 72
    65
 73
     2
 40
1.905
 49
1.27
 74
     0
 49
-0.635
 74
     0
  0
LTYPE
  5
6F
330
5
100
AcDbSymbolTableRecord
100
AcDbLinetypeTableRecord
  2
PHANTOM
 70
     0
  3
Phantom ______  __  __  ______  __  __  ______
 72
    65
 73
     6
 40
12.7
 49
6.35
 74
     0
 49
-1.27
 74
     0
 49
1.27
 74
     0
 49
-1.27
 74
     0
 49
1.27
 74
     0
 49
-1.27
 74
     0
  0
LTYPE
  5
70
330
5
100
AcDbSymbolTableRecord
100
AcDbLinetypeTableRecord
  2
CENTER
 70
     0
  3
Center ____ _ ____ _ ____ _ ____ _ ____ _ ____
 72
    65
 73
     4
 40
10.16
 49
6.35
 74
     0
 49
-1.27
 74
     0
 49
1.27
 74
     0
 49
-1.27
 74
     0
  0
LTYPE
  5
71
330
5
100
AcDbSymbolTableRecord
100
AcDbLinetypeTableRecord
  2
CENTERX2
 70
     0
  3
Center (2x) ________  __  ________  __  _____
 72
    65
 73
     4
 40
20.32
 49
12.7
 74
     0
 49
-2.54
 74
     0
 49
2.54
 74
     0
 49
-2.54
 74
     0
  0
LTYPE
  5
72
330
5
100
AcDbSymbolTableRecord
100
AcDbLinetypeTableRecord
  2
DOT2
 70
     0
  3
Dot (.5x) ........................................
 72
    65
 73
     2
 40
0.635
 49
0.0
 74
     0
 49
-0.635
 74
     0
  0
ENDTAB
  0
TABLE
  2
LAYER
  5
2
330
0
100
AcDbSymbolTable
 70
     1
  0
LAYER
  5
10
330
2
100
AcDbSymbolTableRecord
100
AcDbLayerTableRecord
  2
0
 70
     0
 62
     7
  6
Continuous
370
    -3
390
F
  0
ENDTAB
  0
TABLE
  2
STYLE
  5
3
330
0
100
AcDbSymbolTable
 70
     5
  0
STYLE
  5
11
330
3
100
AcDbSymbolTableRecord
100
AcDbTextStyleTableRecord
  2
Standard
 70
     0
 40
0.0
 41
1.0
 50
0.0
 71
     0
 42
3.0
  3
txt
  4

  0
STYLE
  5
DD
330
3
100
AcDbSymbolTableRecord
100
AcDbTextStyleTableRecord
  2
SLDTEXTSTYLE0
 70
     0
 40
0.0
 41
0.5316086498
 50
0.0
 71
     0
 42
3.0
  3
TXT
  4

  0
STYLE
  5
DF
330
3
100
AcDbSymbolTableRecord
100
AcDbTextStyleTableRecord
  2
SLDTEXTSTYLE1
 70
     0
 40
0.0
 41
0.8435443038
 50
0.0
 71
     0
 42
3.0
  3
ISOCP
  4

  0
STYLE
  5
11D
330
3
100
AcDbSymbolTableRecord
100
AcDbTextStyleTableRecord
  2
SLDTEXTSTYLE2
 70
     0
 40
0.0
 41
0.96
 50
0.0
 71
     0
 42
3.0
  3
ISOCP
  4

  0
STYLE
  5
133
330
3
100
AcDbSymbolTableRecord
100
AcDbTextStyleTableRecord
  2
SLDTEXTSTYLE3
 70
     0
 40
0.0
 41
1.0126582278
 50
0.0
 71
     0
 42
3.0
  3
ISOCP
  4

  0
ENDTAB
  0
TABLE
  2
VIEW
  5
6
330
0
100
AcDbSymbolTable
 70
     0
  0
ENDTAB
  0
TABLE
  2
UCS
  5
7
330
0
100
AcDbSymbolTable
 70
     0
  0
ENDTAB
  0
TABLE
  2
APPID
  5
9
330
0
100
AcDbSymbolTable
 70
     1
  0
APPID
  5
12
330
9
100
AcDbSymbolTableRecord
100
AcDbRegAppTableRecord
  2
ACAD
 70
     0
  0
ENDTAB
  0
TABLE
  2
DIMSTYLE
  5
A
330
0
100
AcDbSymbolTable
 70
     1
100
AcDbDimStyleTable
  0
DIMSTYLE
105
27
330
A
100
AcDbSymbolTableRecord
100
AcDbDimStyleTableRecord
  2
ISO-25
 70
     0
 41
2.5
 42
0.625
 43
3.75
 44
1.25
 73
     0
 74
     0
 77
     1
 78
     8
140
2.5
141
2.5
143
0.0393700787
147
0.625
171
     3
172
     1
178
     0
271
     2
272
     2
274
     3
278
    44
283
     0
284
     8
340
11
  0
ENDTAB
  0
TABLE
  2
BLOCK_RECORD
  5
1
330
0
100
AcDbSymbolTable
 70
     4
  0
BLOCK_RECORD
  5
1F
330
1
100
AcDbSymbolTableRecord
100
AcDbBlockTableRecord
  2
*Model_Space
340
22
  0
BLOCK_RECORD
  5
1B
330
1
100
AcDbSymbolTableRecord
100
AcDbBlockTableRecord
  2
*Paper_Space
340
1E
  0
BLOCK_RECORD
  5
23
330
1
100
AcDbSymbolTableRecord
100
AcDbBlockTableRecord
  2
*Paper_Space0
340
26
  0
BLOCK_RECORD
  5
73
330
1
100
AcDbSymbolTableRecord
100
AcDbBlockTableRecord
  2
A1H
340
0
  0
BLOCK_RECORD
  5
11A
330
1
100
AcDbSymbolTableRecord
100
AcDbBlockTableRecord
  2
Nota legale
340
0
  0
BLOCK_RECORD
  5
11F
330
1
100
AcDbSymbolTableRecord
100
AcDbBlockTableRecord
  2
ISO2768
340
0
  0
ENDTAB
  0
ENDSEC
  0
SECTION
  2
BLOCKS
  0
BLOCK
  5
20
330
1F
100
AcDbEntity
  8
0
100
AcDbBlockBegin
  2
*Model_Space
 70
     0
 10
0.0
 20
0.0
 30
0.0
  3
*Model_Space
  1

  0
ENDBLK
  5
21
330
1F
100
AcDbEntity
  8
0
100
AcDbBlockEnd
  0
BLOCK
  5
1C
330
1B
100
AcDbEntity
 67
     1
  8
0
100
AcDbBlockBegin
  2
*Paper_Space
 70
     0
 10
0.0
 20
0.0
 30
0.0
  3
*Paper_Space
  1

  0
ENDBLK
  5
1D
330
1B
100
AcDbEntity
 67
     1
  8
0
100
AcDbBlockEnd
  0
BLOCK
  5
24
330
23
100
AcDbEntity
  8
0
100
AcDbBlockBegin
  2
*Paper_Space0
 70
     0
 10
0.0
 20
0.0
 30
0.0
  3
*Paper_Space0
  1

  0
ENDBLK
  5
25
330
23
100
AcDbEntity
  8
0
100
AcDbBlockEnd
  0
BLOCK
  5
74
330
73
100
AcDbEntity
  8
0
100
AcDbBlockBegin
  2
A1H
 70
     0
 10
0.0
 20
0.0
 30
0.0
  3
A1H
  1

  0
LINE
  5
76
330
73
100
AcDbEntity
  8
0
  6
Continuous
 62
     7
370
     0
100
AcDbLine
 10
831.000000015
 20
297.0000020355
 30
0.0
 11
836.0
 21
294.8865984457
 31
0.0
  0
LINE
  5
77
330
73
100
AcDbEntity
  8
0
  6
Continuous
 62
     7
370
     0
100
AcDbLine
 10
831.000000015
 20
297.0000020355
 30
0.0
 11
836.0
 21
299.1134051111
 31
0.0
  0
LINE
  5
78
330
73
100
AcDbEntity
  8
0
  6
Continuous
 62
     7
370
     0
100
AcDbLine
 10
678.9375
 20
10.0
 30
0.0
 11
678.9375
 21
4.9999966063
 31
0.0
  0
LINE
  5
79
330
73
100
AcDbEntity
  8
0
  6
Continuous
 62
     7
370
     0
100
AcDbLine
 10
628.25
 20
10.0
 30
0.0
 11
628.25
 21
4.9999966063
 31
0.0
  0
LINE
  5
7A
330
73
100
AcDbEntity
  8
0
  6
Continuous
 62
     7
370
     0
100
AcDbLine
 10
577.5625
 20
10.0
 30
0.0
 11
577.5625
 21
4.9999966063
 31
0.0
  0
LINE
  5
7B
330
73
100
AcDbEntity
  8
0
  6
Continuous
 62
     7
370
     0
100
AcDbLine
 10
526.875
 20
10.0
 30
0.0
 11
526.875
 21
4.9999966063
 31
0.0
  0
LINE
  5
7C
330
73
100
AcDbEntity
  8
0
  6
Continuous
 62
     7
370
     0
100
AcDbLine
 10
476.1875
 20
10.0
 30
0.0
 11
476.1875
 21
4.9999966063
 31
0.0
  0
LINE
  5
7D
330
73
100
AcDbEntity
  8
0
  6
Continuous
 62
     7
370
     0
100
AcDbLine
 10
425.5
 20
10.0
 30
0.0
 11
425.5
 21
5.0
 31
0.0
  0
LINE
  5
7E
330
73
100
AcDbEntity
  8
0
  6
Continuous
 62
     7
370
     0
100
AcDbLine
 10
374.8125
 20
10.0
 30
0.0
 11
374.8125
 21
4.9999966063
 31
0.0
  0
LINE
  5
7F
330
73
100
AcDbEntity
  8
0
  6
Continuous
 62
     7
370
     0
100
AcDbLine
 10
324.125
 20
10.0
 30
0.0
 11
324.125
 21
4.9999966063
 31
0.0
  0
LINE
  5
80
330
73
100
AcDbEntity
  8
0
  6
Continuous
 62
     7
370
     0
100
AcDbLine
 10
273.4375
 20
10.0
 30
0.0
 11
273.4375
 21
4.9999966063
 31
0.0
  0
LINE
  5
81
330
73
100
AcDbEntity
  8
0
  6
Continuous
 62
     7
370
     0
100
AcDbLine
 10
222.75
 20
10.0
 30
0.0
 11
222.75
 21
4.9999966063
 31
0.0
  0
LINE
  5
82
330
73
100
AcDbEntity
  8
0
  6
Continuous
 62
     7
370
     0
100
AcDbLine
 10
172.0625
 20
10.0
 30
0.0
 11
172.0625
 21
4.9999966063
 31
0.0
  0
LINE
  5
83
330
73
100
AcDbEntity
  8
0
  6
Continuous
 62
     7
370
     0
100
AcDbLine
 10
121.375
 20
10.0
 30
0.0
 11
121.375
 21
4.9999966063
 31
0.0
  0
LINE
  5
84
330
73
100
AcDbEntity
  8
0
  6
Continuous
 62
     7
370
     0
100
AcDbLine
 10
70.6875
 20
10.0
 30
0.0
 11
70.6875
 21
4.9999966063
 31
0.0
  0
LINE
  5
85
330
73
100
AcDbEntity
  8
0
  6
Continuous
 62
     7
370
     0
100
AcDbLine
 10
831.0
 20
589.0
 30
0.0
 11
831.0
 21
583.9999966063
 31
0.0
  0
LINE
  5
86
330
73
100
AcDbEntity
  8
0
  6
Continuous
 62
     7
370
     0
100
AcDbLine
 10
780.3125
 20
589.0
 30
0.0
 11
780.3125
 21
583.9999966063
 31
0.0
  0
LINE
  5
87
330
73
100
AcDbEntity
  8
0
  6
Continuous
 62
     7
370
     0
100
AcDbLine
 10
729.625
 20
589.0
 30
0.0
 11
729.625
 21
583.9999966063
 31
0.0
  0
LINE
  5
88
330
73
100
AcDbEntity
  8
0
  6
Continuous
 62
     7
370
     0
100
AcDbLine
 10
678.9375
 20
589.0
 30
0.0
 11
678.9375
 21
583.9999966063
 31
0.0
  0
LINE
  5
89
330
73
100
AcDbEntity
  8
0
  6
Continuous
 62
     7
370
     0
100
AcDbLine
 10
628.25
 20
589.0
 30
0.0
 11
628.25
 21
583.9999966063
 31
0.0
  0
LINE
  5
8A
330
73
100
AcDbEntity
  8
0
  6
Continuous
 62
     7
370
     0
100
AcDbLine
 10
577.5625
 20
589.0
 30
0.0
 11
577.5625
 21
583.9999966063
 31
0.0
  0
LINE
  5
8B
330
73
100
AcDbEntity
  8
0
  6
Continuous
 62
     7
370
     0
100
AcDbLine
 10
526.875
 20
589.0
 30
0.0
 11
526.875
 21
583.9999966063
 31
0.0
  0
LINE
  5
8C
330
73
100
AcDbEntity
  8
0
  6
Continuous
 62
     7
370
     0
100
AcDbLine
 10
476.1875
 20
589.0
 30
0.0
 11
476.1875
 21
583.9999966063
 31
0.0
  0
LINE
  5
8D
330
73
100
AcDbEntity
  8
0
  6
Continuous
 62
     7
370
     0
100
AcDbLine
 10
425.5
 20
589.0
 30
0.0
 11
425.5
 21
583.9999966063
 31
0.0
  0
LINE
  5
8E
330
73
100
AcDbEntity
  8
0
  6
Continuous
 62
     7
370
     0
100
AcDbLine
 10
374.8125
 20
589.0
 30
0.0
 11
374.8125
 21
583.9999966063
 31
0.0
  0
LINE
  5
8F
330
73
100
AcDbEntity
  8
0
  6
Continuous
 62
     7
370
     0
100
AcDbLine
 10
324.125
 20
589.0
 30
0.0
 11
324.125
 21
583.9999966063
 31
0.0
  0
LINE
  5
90
330
73
100
AcDbEntity
  8
0
  6
Continuous
 62
     7
370
     0
100
AcDbLine
 10
273.4375
 20
589.0
 30
0.0
 11
273.4375
 21
583.9999966063
 31
0.0
  0
LINE
  5
91
330
73
100
AcDbEntity
  8
0
  6
Continuous
 62
     7
370
     0
100
AcDbLine
 10
222.75
 20
589.0
 30
0.0
 11
222.75
 21
583.9999966063
 31
0.0
  0
LINE
  5
92
330
73
100
AcDbEntity
  8
0
  6
Continuous
 62
     7
370
     0
100
AcDbLine
 10
172.0625
 20
589.0
 30
0.0
 11
172.0625
 21
583.9999966063
 31
0.0
  0
LINE
  5
93
330
73
100
AcDbEntity
  8
0
  6
Continuous
 62
     7
370
     0
100
AcDbLine
 10
121.375
 20
589.0
 30
0.0
 11
121.375
 21
583.9999966063
 31
0.0
  0
LINE
  5
94
330
73
100
AcDbEntity
  8
0
  6
Continuous
 62
     7
370
     0
100
AcDbLine
 10
70.6875
 20
589.0
 30
0.0
 11
70.6875
 21
583.9999966063
 31
0.0
  0
LINE
  5
95
330
73
100
AcDbEntity
  8
0
  6
Continuous
 62
     7
370
     0
100
AcDbLine
 10
211.0
 20
589.0
 30
0.0
 11
211.0
 21
583.9999966063
 31
0.0
  0
LINE
  5
96
330
73
100
AcDbEntity
  8
0
  6
Continuous
 62
     7
370
     0
100
AcDbLine
 10
286.0
 20
583.9999966063
 30
0.0
 11
288.1134033203
 21
589.0
 31
0.0
  0
LINE
  5
97
330
73
100
AcDbEntity
  8
0
  6
Continuous
 62
     7
370
     0
100
AcDbLine
 10
286.0
 20
583.9999966063
 30
0.0
 11
283.8865966797
 21
589.0
 31
0.0
  0
LINE
  5
98
330
73
100
AcDbEntity
  8
0
  6
Continuous
 62
     7
370
     0
100
AcDbLine
 10
340.5
 20
583.9999966063
 30
0.0
 11
342.6134033203
 21
589.0
 31
0.0
  0
LINE
  5
99
330
73
100
AcDbEntity
  8
0
  6
Continuous
 62
     7
370
     0
100
AcDbLine
 10
340.5
 20
583.9999966063
 30
0.0
 11
338.3865966797
 21
589.0
 31
0.0
  0
LINE
  5
9A
330
73
100
AcDbEntity
  8
0
  6
Continuous
 62
     7
370
     0
100
AcDbLine
 10
421.0
 20
589.0
 30
0.0
 11
421.0
 21
583.9999966063
 31
0.0
  0
LINE
  5
9B
330
73
100
AcDbEntity
  8
0
  6
Continuous
 62
     7
370
     0
100
AcDbLine
 10
631.0
 20
589.0
 30
0.0
 11
631.0
 21
583.9999966063
 31
0.0
  0
LINE
  5
9C
330
73
100
AcDbEntity
  8
0
  6
Continuous
 62
     7
370
     0
100
AcDbLine
 10
656.0
 20
583.9999966063
 30
0.0
 11
658.1134033203
 21
589.0
 31
0.0
  0
LINE
  5
9D
330
73
100
AcDbEntity
  8
0
  6
Continuous
 62
     7
370
     0
100
AcDbLine
 10
656.0
 20
583.9999966063
 30
0.0
 11
653.8865966797
 21
589.0
 31
0.0
  0
LINE
  5
9E
330
73
100
AcDbEntity
  8
0
  6
Continuous
 62
     7
370
     0
100
AcDbLine
 10
211.0
 20
4.9999966063
 30
0.0
 11
211.0
 21
10.0
 31
0.0
  0
LINE
  5
9F
330
73
100
AcDbEntity
  8
0
  6
Continuous
 62
     7
370
     0
100
AcDbLine
 10
285.9999985656
 20
10.0
 30
0.0
 11
288.1134023207
 21
4.9999966063
 31
0.0
  0
LINE
  5
A0
330
73
100
AcDbEntity
  8
0
  6
Continuous
 62
     7
370
     0
100
AcDbLine
 10
285.9999985656
 20
10.0
 30
0.0
 11
283.8865968971
 21
4.9999966063
 31
0.0
  0
LINE
  5
A1
330
73
100
AcDbEntity
  8
0
  6
Continuous
 62
     7
370
     0
100
AcDbLine
 10
340.5
 20
10.0
 30
0.0
 11
342.6134033203
 21
4.9999966063
 31
0.0
  0
LINE
  5
A2
330
73
100
AcDbEntity
  8
0
  6
Continuous
 62
     7
370
     0
100
AcDbLine
 10
340.5
 20
10.0
 30
0.0
 11
338.3865966797
 21
4.9999966063
 31
0.0
  0
LINE
  5
A3
330
73
100
AcDbEntity
  8
0
  6
Continuous
 62
     7
370
     0
100
AcDbLine
 10
421.0
 20
4.9999966063
 30
0.0
 11
421.0
 21
10.0
 31
0.0
  0
LINE
  5
A4
330
73
100
AcDbEntity
  8
0
  6
Continuous
 62
     7
370
     0
100
AcDbLine
 10
631.0
 20
4.9999966063
 30
0.0
 11
631.0
 21
10.0
 31
0.0
  0
LINE
  5
A5
330
73
100
AcDbEntity
  8
0
  6
Continuous
 62
     7
370
     0
100
AcDbLine
 10
656.0
 20
10.0
 30
0.0
 11
658.1134033203
 21
4.9999966063
 31
0.0
  0
LINE
  5
A6
330
73
100
AcDbEntity
  8
0
  6
Continuous
 62
     7
370
     0
100
AcDbLine
 10
656.0
 20
10.0
 30
0.0
 11
653.8865966797
 21
4.9999966063
 31
0.0
  0
LINE
  5
A7
330
73
100
AcDbEntity
  8
0
  6
Continuous
 62
     7
370
     0
100
AcDbLine
 10
836.0
 20
57.833337
 30
0.0
 11
831.0
 21
57.833337
 31
0.0
  0
LINE
  5
A8
330
73
100
AcDbEntity
  8
0
  6
Continuous
 62
     7
370
     0
100
AcDbLine
 10
836.0
 20
105.66667
 30
0.0
 11
831.0
 21
105.66667
 31
0.0
  0
LINE
  5
A9
330
73
100
AcDbEntity
  8
0
  6
Continuous
 62
     7
370
     0
100
AcDbLine
 10
836.0
 20
153.500003
 30
0.0
 11
831.0
 21
153.500003
 31
0.0
  0
LINE
  5
AA
330
73
100
AcDbEntity
  8
0
  6
Continuous
 62
     7
370
     0
100
AcDbLine
 10
836.0
 20
201.333336
 30
0.0
 11
831.0
 21
201.333336
 31
0.0
  0
LINE
  5
AB
330
73
100
AcDbEntity
  8
0
  6
Continuous
 62
     7
370
     0
100
AcDbLine
 10
836.0
 20
249.166669
 30
0.0
 11
831.0
 21
249.166669
 31
0.0
  0
LINE
  5
AC
330
73
100
AcDbEntity
  8
0
  6
Continuous
 62
     7
370
     0
100
AcDbLine
 10
836.0
 20
296.9999983032
 30
0.0
 11
831.000000015
 21
297.0000020355
 31
0.0
  0
LINE
  5
AD
330
73
100
AcDbEntity
  8
0
  6
Continuous
 62
     7
370
     0
100
AcDbLine
 10
836.0
 20
344.833335
 30
0.0
 11
831.0
 21
344.833335
 31
0.0
  0
LINE
  5
AE
330
73
100
AcDbEntity
  8
0
  6
Continuous
 62
     7
370
     0
100
AcDbLine
 10
836.0
 20
392.666668
 30
0.0
 11
831.0
 21
392.666668
 31
0.0
  0
LINE
  5
AF
330
73
100
AcDbEntity
  8
0
  6
Continuous
 62
     7
370
     0
100
AcDbLine
 10
836.0
 20
440.500001
 30
0.0
 11
831.0
 21
440.500001
 31
0.0
  0
LINE
  5
B0
330
73
100
AcDbEntity
  8
0
  6
Continuous
 62
     7
370
     0
100
AcDbLine
 10
836.0
 20
488.333334
 30
0.0
 11
831.0
 21
488.333334
 31
0.0
  0
LINE
  5
B1
330
73
100
AcDbEntity
  8
0
  6
Continuous
 62
     7
370
     0
100
AcDbLine
 10
836.0
 20
536.166667
 30
0.0
 11
831.0
 21
536.166667
 31
0.0
  0
LINE
  5
B2
330
73
100
AcDbEntity
  8
0
  6
Continuous
 62
     7
370
     0
100
AcDbLine
 10
20.0000033937
 20
10.0
 30
0.0
 11
15.0
 21
10.0
 31
0.0
  0
LINE
  5
B3
330
73
100
AcDbEntity
  8
0
  6
Continuous
 62
     7
370
     0
100
AcDbLine
 10
20.0000033937
 20
57.833337
 30
0.0
 11
15.0
 21
57.833337
 31
0.0
  0
LINE
  5
B4
330
73
100
AcDbEntity
  8
0
  6
Continuous
 62
     7
370
     0
100
AcDbLine
 10
20.0000033937
 20
105.66667
 30
0.0
 11
15.0
 21
105.66667
 31
0.0
  0
LINE
  5
B5
330
73
100
AcDbEntity
  8
0
  6
Continuous
 62
     7
370
     0
100
AcDbLine
 10
20.0000033937
 20
153.500003
 30
0.0
 11
15.0
 21
153.500003
 31
0.0
  0
LINE
  5
B6
330
73
100
AcDbEntity
  8
0
  6
Continuous
 62
     7
370
     0
100
AcDbLine
 10
20.0000033937
 20
201.333336
 30
0.0
 11
15.0
 21
201.333336
 31
0.0
  0
LINE
  5
B7
330
73
100
AcDbEntity
  8
0
  6
Continuous
 62
     7
370
     0
100
AcDbLine
 10
20.0000033937
 20
249.166669
 30
0.0
 11
15.0
 21
249.166669
 31
0.0
  0
LINE
  5
B8
330
73
100
AcDbEntity
  8
0
  6
Continuous
 62
     7
370
     0
100
AcDbLine
 10
20.0000033937
 20
297.000002
 30
0.0
 11
15.0
 21
297.000002
 31
0.0
  0
LINE
  5
B9
330
73
100
AcDbEntity
  8
0
  6
Continuous
 62
     7
370
     0
100
AcDbLine
 10
20.0000033937
 20
344.833335
 30
0.0
 11
15.0
 21
344.833335
 31
0.0
  0
LINE
  5
BA
330
73
100
AcDbEntity
  8
0
  6
Continuous
 62
     7
370
     0
100
AcDbLine
 10
20.0000033937
 20
392.666668
 30
0.0
 11
15.0
 21
392.666668
 31
0.0
  0
LINE
  5
BB
330
73
100
AcDbEntity
  8
0
  6
Continuous
 62
     7
370
     0
100
AcDbLine
 10
20.0000033937
 20
440.500001
 30
0.0
 11
15.0
 21
440.500001
 31
0.0
  0
LINE
  5
BC
330
73
100
AcDbEntity
  8
0
  6
Continuous
 62
     7
370
     0
100
AcDbLine
 10
20.0000033937
 20
488.333334
 30
0.0
 11
15.0
 21
488.333334
 31
0.0
  0
LINE
  5
BD
330
73
100
AcDbEntity
  8
0
  6
Continuous
 62
     7
370
     0
100
AcDbLine
 10
831.0
 20
589.0
 30
0.0
 11
831.0
 21
583.9999966063
 31
0.0
  0
LINE
  5
BE
330
73
100
AcDbEntity
  8
0
  6
Continuous
 62
     7
370
     0
100
AcDbLine
 10
20.0000033937
 20
536.166667
 30
0.0
 11
15.0
 21
536.166667
 31
0.0
  0
LINE
  5
BF
330
73
100
AcDbEntity
  8
0
  6
Continuous
 62
     7
370
     0
100
AcDbLine
 10
821.0
 20
10.0
 30
0.0
 11
821.0
 21
4.9999966063
 31
0.0
  0
LINE
  5
C0
330
73
100
AcDbEntity
  8
0
  6
Continuous
 62
     7
370
     0
100
AcDbLine
 10
811.0
 20
10.0
 30
0.0
 11
811.0
 21
4.9999966063
 31
0.0
  0
LINE
  5
C1
330
73
100
AcDbEntity
  8
0
  6
Continuous
 62
     7
370
     0
100
AcDbLine
 10
801.0
 20
10.0
 30
0.0
 11
801.0
 21
4.9999966063
 31
0.0
  0
LINE
  5
C2
330
73
100
AcDbEntity
  8
0
  6
Continuous
 62
     7
370
     0
100
AcDbLine
 10
791.0
 20
10.0
 30
0.0
 11
791.0
 21
4.9999966063
 31
0.0
  0
LINE
  5
C3
330
73
100
AcDbEntity
  8
0
  6
Continuous
 62
     7
370
     0
100
AcDbLine
 10
781.0
 20
10.0
 30
0.0
 11
781.0
 21
4.9999966063
 31
0.0
  0
LINE
  5
C4
330
73
100
AcDbEntity
  8
0
  6
Continuous
 62
     7
370
     0
100
AcDbLine
 10
771.0
 20
10.0
 30
0.0
 11
771.0
 21
4.9999966063
 31
0.0
  0
LINE
  5
C5
330
73
100
AcDbEntity
  8
0
  6
Continuous
 62
     7
370
     0
100
AcDbLine
 10
761.0
 20
10.0
 30
0.0
 11
761.0
 21
4.9999966063
 31
0.0
  0
LINE
  5
C6
330
73
100
AcDbEntity
  8
0
  6
Continuous
 62
     7
370
     0
100
AcDbLine
 10
751.0
 20
10.0
 30
0.0
 11
751.0
 21
4.9999966063
 31
0.0
  0
LINE
  5
C7
330
73
100
AcDbEntity
  8
0
  6
Continuous
 62
     7
370
     0
100
AcDbLine
 10
741.0
 20
10.0
 30
0.0
 11
741.0
 21
4.9999966063
 31
0.0
  0
LINE
  5
C8
330
73
100
AcDbEntity
  8
0
  6
Continuous
 62
     7
370
     0
100
AcDbLine
 10
731.0
 20
10.0
 30
0.0
 11
731.0
 21
4.9999966063
 31
0.0
  0
LINE
  5
C9
330
73
100
AcDbEntity
  8
0
  6
Continuous
 62
     7
370
     0
100
AcDbLine
 10
15.0
 20
4.9999966063
 30
0.0
 11
15.0
 21
589.0
 31
0.0
  0
LINE
  5
CA
330
73
100
AcDbEntity
  8
0
  6
Continuous
 62
     7
370
     0
100
AcDbLine
 10
836.0
 20
4.9999966063
 30
0.0
 11
15.0
 21
4.9999966063
 31
0.0
  0
LINE
  5
CB
330
73
100
AcDbEntity
  8
0
  6
Continuous
 62
     7
370
     0
100
AcDbLine
 10
836.0
 20
4.9999966063
 30
0.0
 11
836.0
 21
589.0
 31
0.0
  0
LINE
  5
CC
330
73
100
AcDbEntity
  8
0
  6
Continuous
 62
     7
370
     0
100
AcDbLine
 10
15.0
 20
589.0
 30
0.0
 11
836.0
 21
589.0
 31
0.0
  0
LINE
  5
CD
330
73
100
AcDbEntity
  8
0
  6
Continuous
 62
     7
370
     0
100
AcDbLine
 10
20.0000033937
 20
583.9999966063
 30
0.0
 11
20.0000033937
 21
589.0
 31
0.0
  0
LINE
  5
CE
330
73
100
AcDbEntity
  8
0
  6
Continuous
 62
     7
370
     0
100
AcDbLine
 10
20.0000033937
 20
10.0
 30
0.0
 11
20.0000033937
 21
583.9999966063
 31
0.0
  0
LINE
  5
CF
330
73
100
AcDbEntity
  8
0
  6
Continuous
 62
     7
370
     0
100
AcDbLine
 10
20.0000033937
 20
4.9999966063
 30
0.0
 11
20.0000033937
 21
10.0
 31
0.0
  0
LINE
  5
D0
330
73
100
AcDbEntity
  8
0
  6
Continuous
 62
     7
370
     0
100
AcDbLine
 10
831.0
 20
583.9999966063
 30
0.0
 11
831.0
 21
589.0
 31
0.0
  0
LINE
  5
D1
330
73
100
AcDbEntity
  8
0
  6
Continuous
 62
     7
370
     0
100
AcDbLine
 10
831.0
 20
10.0
 30
0.0
 11
831.0
 21
583.9999966063
 31
0.0
  0
LINE
  5
D2
330
73
100
AcDbEntity
  8
0
  6
Continuous
 62
     7
370
     0
100
AcDbLine
 10
831.0
 20
4.9999966063
 30
0.0
 11
831.0
 21
10.0
 31
0.0
  0
LINE
  5
D3
330
73
100
AcDbEntity
  8
0
  6
Continuous
 62
     7
370
     0
100
AcDbLine
 10
20.0000033937
 20
10.0
 30
0.0
 11
15.0
 21
10.0
 31
0.0
  0
LINE
  5
D4
330
73
100
AcDbEntity
  8
0
  6
Continuous
 62
     7
370
     0
100
AcDbLine
 10
831.0
 20
10.0
 30
0.0
 11
20.0000033937
 21
10.0
 31
0.0
  0
LINE
  5
D5
330
73
100
AcDbEntity
  8
0
  6
Continuous
 62
     7
370
     0
100
AcDbLine
 10
836.0
 20
10.0
 30
0.0
 11
831.0
 21
10.0
 31
0.0
  0
LINE
  5
D6
330
73
100
AcDbEntity
  8
0
  6
Continuous
 62
     7
370
     0
100
AcDbLine
 10
831.0
 20
583.9999966063
 30
0.0
 11
836.0
 21
583.9999966063
 31
0.0
  0
LINE
  5
D7
330
73
100
AcDbEntity
  8
0
  6
Continuous
 62
     7
370
     0
100
AcDbLine
 10
20.0000033937
 20
583.9999966063
 30
0.0
 11
831.0
 21
583.9999966063
 31
0.0
  0
LINE
  5
D8
330
73
100
AcDbEntity
  8
0
  6
Continuous
 62
     7
370
     0
100
AcDbLine
 10
15.0
 20
583.9999966063
 30
0.0
 11
20.0000033937
 21
583.9999966063
 31
0.0
  0
LINE
  5
D9
330
73
100
AcDbEntity
  8
0
  6
Continuous
 62
     7
370
     0
100
AcDbLine
 10
0.0
 20
594.0
 30
0.0
 11
0.0
 21
0.0
 31
0.0
  0
LINE
  5
DA
330
73
100
AcDbEntity
  8
0
  6
Continuous
 62
     7
370
     0
100
AcDbLine
 10
0.0
 20
594.0
 30
0.0
 11
841.0
 21
594.0
 31
0.0
  0
LINE
  5
DB
330
73
100
AcDbEntity
  8
0
  6
Continuous
 62
     7
370
     0
100
AcDbLine
 10
841.0
 20
0.0
 30
0.0
 11
841.0
 21
594.0
 31
0.0
  0
LINE
  5
DC
330
73
100
AcDbEntity
  8
0
  6
Continuous
 62
     7
370
     0
100
AcDbLine
 10
841.0
 20
0.0
 30
0.0
 11
0.0
 21
0.0
 31
0.0
  0
MTEXT
  5
DE
330
73
100
AcDbEntity
  8
0
  6
Continuous
 62
     7
370
     0
100
AcDbMText
 10
655.527178913
 20
7.389386302
 30
0.0
 40
1.5
 41
0.0
 71
     1
 72
     1
  1
1
  7
SLDTEXTSTYLE0
 73
     1
 44
1.0
  0
MTEXT
  5
E0
330
73
100
AcDbEntity
  8
0
  6
Continuous
 62
     7
370
     0
100
AcDbMText
 10
702.3899506522
 20
8.6449155598
 30
0.0
 40
3.0
 41
0.0
 71
     1
 72
     1
  1
13
  7
SLDTEXTSTYLE1
 73
     1
 44
1.0
  0
MTEXT
  5
E1
330
73
100
AcDbEntity
  8
0
  6
Continuous
 62
     7
370
     0
100
AcDbMText
 10
832.3587006522
 20
561.2282490598
 30
0.0
 40
3.0
 41
0.0
 71
     1
 72
     1
  1
A
  7
SLDTEXTSTYLE1
 73
     1
 44
1.0
  0
MTEXT
  5
E2
330
73
100
AcDbEntity
  8
0
  6
Continuous
 62
     7
370
     0
100
AcDbMText
 10
832.3587006522
 20
513.3949160598
 30
0.0
 40
3.0
 41
0.0
 71
     1
 72
     1
  1
B
  7
SLDTEXTSTYLE1
 73
     1
 44
1.0
  0
MTEXT
  5
E3
330
73
100
AcDbEntity
  8
0
  6
Continuous
 62
     7
370
     0
100
AcDbMText
 10
832.2934832609
 20
465.5615830598
 30
0.0
 40
3.0
 41
0.0
 71
     1
 72
     1
  1
C
  7
SLDTEXTSTYLE1
 73
     1
 44
1.0
  0
MTEXT
  5
E4
330
73
100
AcDbEntity
  8
0
  6
Continuous
 62
     7
370
     0
100
AcDbMText
 10
832.2934832609
 20
417.7282500598
 30
0.0
 40
3.0
 41
0.0
 71
     1
 72
     1
  1
D
  7
SLDTEXTSTYLE1
 73
     1
 44
1.0
  0
MTEXT
  5
E5
330
73
100
AcDbEntity
  8
0
  6
Continuous
 62
     7
370
     0
100
AcDbMText
 10
832.3587006522
 20
369.8949170598
 30
0.0
 40
3.0
 41
0.0
 71
     1
 72
     1
  1
E
  7
SLDTEXTSTYLE1
 73
     1
 44
1.0
  0
MTEXT
  5
E6
330
73
100
AcDbEntity
  8
0
  6
Continuous
 62
     7
370
     0
100
AcDbMText
 10
832.4565267391
 20
322.0615840598
 30
0.0
 40
3.0
 41
0.0
 71
     1
 72
     1
  1
F
  7
SLDTEXTSTYLE1
 73
     1
 44
1.0
  0
MTEXT
  5
E7
330
73
100
AcDbEntity
  8
0
  6
Continuous
 62
     7
370
     0
100
AcDbMText
 10
832.1956571739
 20
274.2282510598
 30
0.0
 40
3.0
 41
0.0
 71
     1
 72
     1
  1
G
  7
SLDTEXTSTYLE1
 73
     1
 44
1.0
  0
MTEXT
  5
E8
330
73
100
AcDbEntity
  8
0
  6
Continuous
 62
     7
370
     0
100
AcDbMText
 10
832.2934832609
 20
226.3949180598
 30
0.0
 40
3.0
 41
0.0
 71
     1
 72
     1
  1
H
  7
SLDTEXTSTYLE1
 73
     1
 44
1.0
  0
MTEXT
  5
E9
330
73
100
AcDbEntity
  8
0
  6
Continuous
 62
     7
370
     0
100
AcDbMText
 10
833.0434832609
 20
178.5615850598
 30
0.0
 40
3.0
 41
0.0
 71
     1
 72
     1
  1
I
  7
SLDTEXTSTYLE1
 73
     1
 44
1.0
  0
MTEXT
  5
EA
330
73
100
AcDbEntity
  8
0
  6
Continuous
 62
     7
370
     0
100
AcDbMText
 10
832.652178913
 20
130.7282520598
 30
0.0
 40
3.0
 41
0.0
 71
     1
 72
     1
  1
J
  7
SLDTEXTSTYLE1
 73
     1
 44
1.0
  0
MTEXT
  5
EB
330
73
100
AcDbEntity
  8
0
  6
Continuous
 62
     7
370
     0
100
AcDbMText
 10
832.3587006522
 20
82.8949190598
 30
0.0
 40
3.0
 41
0.0
 71
     1
 72
     1
  1
K
  7
SLDTEXTSTYLE1
 73
     1
 44
1.0
  0
MTEXT
  5
EC
330
73
100
AcDbEntity
  8
0
  6
Continuous
 62
     7
370
     0
100
AcDbMText
 10
832.5543528261
 20
39.0877190249
 30
0.0
 40
3.0
 41
0.0
 71
     1
 72
     1
  1
L
  7
SLDTEXTSTYLE1
 73
     1
 44
1.0
  0
MTEXT
  5
ED
330
73
100
AcDbEntity
  8
0
  6
Continuous
 62
     7
370
     0
100
AcDbMText
 10
655.527178913
 20
588.1028068642
 30
0.0
 40
1.5
 41
0.0
 71
     1
 72
     1
  1
1
  7
SLDTEXTSTYLE0
 73
     1
 44
1.0
  0
MTEXT
  5
EE
330
73
100
AcDbEntity
  8
0
  6
Continuous
 62
     7
370
     0
100
AcDbMText
 10
340.027178913
 20
588.1028068642
 30
0.0
 40
1.5
 41
0.0
 71
     1
 72
     1
  1
3
  7
SLDTEXTSTYLE0
 73
     1
 44
1.0
  0
MTEXT
  5
EF
330
73
100
AcDbEntity
  8
0
  6
Continuous
 62
     7
370
     0
100
AcDbMText
 10
285.527178913
 20
588.1028068642
 30
0.0
 40
1.5
 41
0.0
 71
     1
 72
     1
  1
2
  7
SLDTEXTSTYLE0
 73
     1
 44
1.0
  0
MTEXT
  5
F0
330
73
100
AcDbEntity
  8
0
  6
Continuous
 62
     7
370
     0
100
AcDbMText
 10
44.3981028261
 20
587.6449155598
 30
0.0
 40
3.0
 41
0.0
 71
     1
 72
     1
  1
1
  7
SLDTEXTSTYLE1
 73
     1
 44
1.0
  0
MTEXT
  5
F1
330
73
100
AcDbEntity
  8
0
  6
Continuous
 62
     7
370
     0
100
AcDbMText
 10
95.0856028261
 20
587.6449155598
 30
0.0
 40
3.0
 41
0.0
 71
     1
 72
     1
  1
2
  7
SLDTEXTSTYLE1
 73
     1
 44
1.0
  0
MTEXT
  5
F2
330
73
100
AcDbEntity
  8
0
  6
Continuous
 62
     7
370
     0
100
AcDbMText
 10
145.7731028261
 20
587.6449155598
 30
0.0
 40
3.0
 41
0.0
 71
     1
 72
     1
  1
3
  7
SLDTEXTSTYLE1
 73
     1
 44
1.0
  0
MTEXT
  5
F3
330
73
100
AcDbEntity
  8
0
  6
Continuous
 62
     7
370
     0
100
AcDbMText
 10
196.4606028261
 20
587.6449155598
 30
0.0
 40
3.0
 41
0.0
 71
     1
 72
     1
  1
4
  7
SLDTEXTSTYLE1
 73
     1
 44
1.0
  0
MTEXT
  5
F4
330
73
100
AcDbEntity
  8
0
  6
Continuous
 62
     7
370
     0
100
AcDbMText
 10
247.1481028261
 20
587.6449155598
 30
0.0
 40
3.0
 41
0.0
 71
     1
 72
     1
  1
5
  7
SLDTEXTSTYLE1
 73
     1
 44
1.0
  0
MTEXT
  5
F5
330
73
100
AcDbEntity
  8
0
  6
Continuous
 62
     7
370
     0
100
AcDbMText
 10
297.8356028261
 20
587.6449155598
 30
0.0
 40
3.0
 41
0.0
 71
     1
 72
     1
  1
6
  7
SLDTEXTSTYLE1
 73
     1
 44
1.0
  0
MTEXT
  5
F6
330
73
100
AcDbEntity
  8
0
  6
Continuous
 62
     7
370
     0
100
AcDbMText
 10
348.5231028261
 20
587.6449155598
 30
0.0
 40
3.0
 41
0.0
 71
     1
 72
     1
  1
7
  7
SLDTEXTSTYLE1
 73
     1
 44
1.0
  0
MTEXT
  5
F7
330
73
100
AcDbEntity
  8
0
  6
Continuous
 62
     7
370
     0
100
AcDbMText
 10
399.2106028261
 20
587.6449155598
 30
0.0
 40
3.0
 41
0.0
 71
     1
 72
     1
  1
8
  7
SLDTEXTSTYLE1
 73
     1
 44
1.0
  0
MTEXT
  5
F8
330
73
100
AcDbEntity
  8
0
  6
Continuous
 62
     7
370
     0
100
AcDbMText
 10
449.8981028261
 20
587.6449155598
 30
0.0
 40
3.0
 41
0.0
 71
     1
 72
     1
  1
9
  7
SLDTEXTSTYLE1
 73
     1
 44
1.0
  0
MTEXT
  5
F9
330
73
100
AcDbEntity
  8
0
  6
Continuous
 62
     7
370
     0
100
AcDbMText
 10
499.6399506522
 20
587.6449155598
 30
0.0
 40
3.0
 41
0.0
 71
     1
 72
     1
  1
10
  7
SLDTEXTSTYLE1
 73
     1
 44
1.0
  0
MTEXT
  5
FA
330
73
100
AcDbEntity
  8
0
  6
Continuous
 62
     7
370
     0
100
AcDbMText
 10
550.3274506522
 20
587.6449155598
 30
0.0
 40
3.0
 41
0.0
 71
     1
 72
     1
  1
11
  7
SLDTEXTSTYLE1
 73
     1
 44
1.0
  0
MTEXT
  5
FB
330
73
100
AcDbEntity
  8
0
  6
Continuous
 62
     7
370
     0
100
AcDbMText
 10
601.0149506522
 20
587.6449155598
 30
0.0
 40
3.0
 41
0.0
 71
     1
 72
     1
  1
12
  7
SLDTEXTSTYLE1
 73
     1
 44
1.0
  0
MTEXT
  5
FC
330
73
100
AcDbEntity
  8
0
  6
Continuous
 62
     7
370
     0
100
AcDbMText
 10
647.7024506522
 20
587.6449155598
 30
0.0
 40
3.0
 41
0.0
 71
     1
 72
     1
  1
13
  7
SLDTEXTSTYLE1
 73
     1
 44
1.0
  0
MTEXT
  5
FD
330
73
100
AcDbEntity
  8
0
  6
Continuous
 62
     7
370
     0
100
AcDbMText
 10
702.3899506522
 20
587.6449155598
 30
0.0
 40
3.0
 41
0.0
 71
     1
 72
     1
  1
14
  7
SLDTEXTSTYLE1
 73
     1
 44
1.0
  0
MTEXT
  5
FE
330
73
100
AcDbEntity
  8
0
  6
Continuous
 62
     7
370
     0
100
AcDbMText
 10
753.0774506522
 20
587.6449155598
 30
0.0
 40
3.0
 41
0.0
 71
     1
 72
     1
  1
15
  7
SLDTEXTSTYLE1
 73
     1
 44
1.0
  0
MTEXT
  5
FF
330
73
100
AcDbEntity
  8
0
  6
Continuous
 62
     7
370
     0
100
AcDbMText
 10
803.7649506522
 20
587.6449155598
 30
0.0
 40
3.0
 41
0.0
 71
     1
 72
     1
  1
16
  7
SLDTEXTSTYLE1
 73
     1
 44
1.0
  0
MTEXT
  5
100
330
73
100
AcDbEntity
  8
0
  6
Continuous
 62
     7
370
     0
100
AcDbMText
 10
340.027178913
 20
7.389386302
 30
0.0
 40
1.5
 41
0.0
 71
     1
 72
     1
  1
3
  7
SLDTEXTSTYLE0
 73
     1
 44
1.0
  0
MTEXT
  5
101
330
73
100
AcDbEntity
  8
0
  6
Continuous
 62
     7
370
     0
100
AcDbMText
 10
285.527178913
 20
7.389386302
 30
0.0
 40
1.5
 41
0.0
 71
     1
 72
     1
  1
2
  7
SLDTEXTSTYLE0
 73
     1
 44
1.0
  0
MTEXT
  5
102
330
73
100
AcDbEntity
  8
0
  6
Continuous
 62
     7
370
     0
100
AcDbMText
 10
44.3981028261
 20
8.6449155598
 30
0.0
 40
3.0
 41
0.0
 71
     1
 72
     1
  1
1
  7
SLDTEXTSTYLE1
 73
     1
 44
1.0
  0
MTEXT
  5
103
330
73
100
AcDbEntity
  8
0
  6
Continuous
 62
     7
370
     0
100
AcDbMText
 10
95.0856028261
 20
8.6449155598
 30
0.0
 40
3.0
 41
0.0
 71
     1
 72
     1
  1
2
  7
SLDTEXTSTYLE1
 73
     1
 44
1.0
  0
MTEXT
  5
104
330
73
100
AcDbEntity
  8
0
  6
Continuous
 62
     7
370
     0
100
AcDbMText
 10
145.7731028261
 20
8.6449155598
 30
0.0
 40
3.0
 41
0.0
 71
     1
 72
     1
  1
3
  7
SLDTEXTSTYLE1
 73
     1
 44
1.0
  0
MTEXT
  5
105
330
73
100
AcDbEntity
  8
0
  6
Continuous
 62
     7
370
     0
100
AcDbMText
 10
196.4606028261
 20
8.6449155598
 30
0.0
 40
3.0
 41
0.0
 71
     1
 72
     1
  1
4
  7
SLDTEXTSTYLE1
 73
     1
 44
1.0
  0
MTEXT
  5
106
330
73
100
AcDbEntity
  8
0
  6
Continuous
 62
     7
370
     0
100
AcDbMText
 10
247.1481028261
 20
8.6449155598
 30
0.0
 40
3.0
 41
0.0
 71
     1
 72
     1
  1
5
  7
SLDTEXTSTYLE1
 73
     1
 44
1.0
  0
MTEXT
  5
107
330
73
100
AcDbEntity
  8
0
  6
Continuous
 62
     7
370
     0
100
AcDbMText
 10
297.8356028261
 20
8.6449155598
 30
0.0
 40
3.0
 41
0.0
 71
     1
 72
     1
  1
6
  7
SLDTEXTSTYLE1
 73
     1
 44
1.0
  0
MTEXT
  5
108
330
73
100
AcDbEntity
  8
0
  6
Continuous
 62
     7
370
     0
100
AcDbMText
 10
348.5231028261
 20
8.6449155598
 30
0.0
 40
3.0
 41
0.0
 71
     1
 72
     1
  1
7
  7
SLDTEXTSTYLE1
 73
     1
 44
1.0
  0
MTEXT
  5
109
330
73
100
AcDbEntity
  8
0
  6
Continuous
 62
     7
370
     0
100
AcDbMText
 10
399.2106028261
 20
8.6449155598
 30
0.0
 40
3.0
 41
0.0
 71
     1
 72
     1
  1
8
  7
SLDTEXTSTYLE1
 73
     1
 44
1.0
  0
MTEXT
  5
10A
330
73
100
AcDbEntity
  8
0
  6
Continuous
 62
     7
370
     0
100
AcDbMText
 10
449.8981028261
 20
8.6449155598
 30
0.0
 40
3.0
 41
0.0
 71
     1
 72
     1
  1
9
  7
SLDTEXTSTYLE1
 73
     1
 44
1.0
  0
MTEXT
  5
10B
330
73
100
AcDbEntity
  8
0
  6
Continuous
 62
     7
370
     0
100
AcDbMText
 10
499.6399506522
 20
8.6449155598
 30
0.0
 40
3.0
 41
0.0
 71
     1
 72
     1
  1
10
  7
SLDTEXTSTYLE1
 73
     1
 44
1.0
  0
MTEXT
  5
10C
330
73
100
AcDbEntity
  8
0
  6
Continuous
 62
     7
370
     0
100
AcDbMText
 10
550.3274506522
 20
8.6449155598
 30
0.0
 40
3.0
 41
0.0
 71
     1
 72
     1
  1
11
  7
SLDTEXTSTYLE1
 73
     1
 44
1.0
  0
MTEXT
  5
10D
330
73
100
AcDbEntity
  8
0
  6
Continuous
 62
     7
370
     0
100
AcDbMText
 10
601.0149506522
 20
8.6449155598
 30
0.0
 40
3.0
 41
0.0
 71
     1
 72
     1
  1
12
  7
SLDTEXTSTYLE1
 73
     1
 44
1.0
  0
MTEXT
  5
10E
330
73
100
AcDbEntity
  8
0
  6
Continuous
 62
     7
370
     0
100
AcDbMText
 10
16.3587006522
 20
561.2282490598
 30
0.0
 40
3.0
 41
0.0
 71
     1
 72
     1
  1
A
  7
SLDTEXTSTYLE1
 73
     1
 44
1.0
  0
MTEXT
  5
10F
330
73
100
AcDbEntity
  8
0
  6
Continuous
 62
     7
370
     0
100
AcDbMText
 10
16.3587006522
 20
513.3949160598
 30
0.0
 40
3.0
 41
0.0
 71
     1
 72
     1
  1
B
  7
SLDTEXTSTYLE1
 73
     1
 44
1.0
  0
MTEXT
  5
110
330
73
100
AcDbEntity
  8
0
  6
Continuous
 62
     7
370
     0
100
AcDbMText
 10
16.2934832609
 20
465.5615830598
 30
0.0
 40
3.0
 41
0.0
 71
     1
 72
     1
  1
C
  7
SLDTEXTSTYLE1
 73
     1
 44
1.0
  0
MTEXT
  5
111
330
73
100
AcDbEntity
  8
0
  6
Continuous
 62
     7
370
     0
100
AcDbMText
 10
16.2934832609
 20
417.7282500598
 30
0.0
 40
3.0
 41
0.0
 71
     1
 72
     1
  1
D
  7
SLDTEXTSTYLE1
 73
     1
 44
1.0
  0
MTEXT
  5
112
330
73
100
AcDbEntity
  8
0
  6
Continuous
 62
     7
370
     0
100
AcDbMText
 10
16.3587006522
 20
369.8949170598
 30
0.0
 40
3.0
 41
0.0
 71
     1
 72
     1
  1
E
  7
SLDTEXTSTYLE1
 73
     1
 44
1.0
  0
MTEXT
  5
113
330
73
100
AcDbEntity
  8
0
  6
Continuous
 62
     7
370
     0
100
AcDbMText
 10
16.4565267391
 20
322.0615840598
 30
0.0
 40
3.0
 41
0.0
 71
     1
 72
     1
  1
F
  7
SLDTEXTSTYLE1
 73
     1
 44
1.0
  0
MTEXT
  5
114
330
73
100
AcDbEntity
  8
0
  6
Continuous
 62
     7
370
     0
100
AcDbMText
 10
16.1956571739
 20
274.2282510598
 30
0.0
 40
3.0
 41
0.0
 71
     1
 72
     1
  1
G
  7
SLDTEXTSTYLE1
 73
     1
 44
1.0
  0
MTEXT
  5
115
330
73
100
AcDbEntity
  8
0
  6
Continuous
 62
     7
370
     0
100
AcDbMText
 10
16.2934832609
 20
226.3949180598
 30
0.0
 40
3.0
 41
0.0
 71
     1
 72
     1
  1
H
  7
SLDTEXTSTYLE1
 73
     1
 44
1.0
  0
MTEXT
  5
116
330
73
100
AcDbEntity
  8
0
  6
Continuous
 62
     7
370
     0
100
AcDbMText
 10
17.0434832609
 20
178.5615850598
 30
0.0
 40
3.0
 41
0.0
 71
     1
 72
     1
  1
I
  7
SLDTEXTSTYLE1
 73
     1
 44
1.0
  0
MTEXT
  5
117
330
73
100
AcDbEntity
  8
0
  6
Continuous
 62
     7
370
     0
100
AcDbMText
 10
16.652178913
 20
130.7282520598
 30
0.0
 40
3.0
 41
0.0
 71
     1
 72
     1
  1
J
  7
SLDTEXTSTYLE1
 73
     1
 44
1.0
  0
MTEXT
  5
118
330
73
100
AcDbEntity
  8
0
  6
Continuous
 62
     7
370
     0
100
AcDbMText
 10
16.3587006522
 20
82.8949190598
 30
0.0
 40
3.0
 41
0.0
 71
     1
 72
     1
  1
K
  7
SLDTEXTSTYLE1
 73
     1
 44
1.0
  0
MTEXT
  5
119
330
73
100
AcDbEntity
  8
0
  6
Continuous
 62
     7
370
     0
100
AcDbMText
 10
16.5543528261
 20
35.0615860598
 30
0.0
 40
3.0
 41
0.0
 71
     1
 72
     1
  1
L
  7
SLDTEXTSTYLE1
 73
     1
 44
1.0
  0
ENDBLK
  5
75
330
73
100
AcDbEntity
  8
0
100
AcDbBlockEnd
  0
BLOCK
  5
11B
330
11A
100
AcDbEntity
  8
0
100
AcDbBlockBegin
  2
Nota legale
 70
     0
 10
0.0
 20
0.0
 30
0.0
  3
Nota legale
  1

  0
MTEXT
  5
11E
330
11A
100
AcDbEntity
  8
0
  6
Continuous
 62
     7
370
     0
100
AcDbMText
 10
2.8916698098
 20
-1.0663983927
 30
0.0
 40
1.5
 41
0.0
 71
     3
 72
     1
  1
BY TERM LAWS WE RESERVE THE PROPERTY OF THIS DRAWING WITH PROHIBITION OF USE AND REPRODUCTION
  7
SLDTEXTSTYLE2
 73
     1
 44
1.0
  0
ENDBLK
  5
11C
330
11A
100
AcDbEntity
  8
0
100
AcDbBlockEnd
  0
BLOCK
  5
120
330
11F
100
AcDbEntity
  8
0
100
AcDbBlockBegin
  2
ISO2768
 70
     0
 10
0.0
 20
0.0
 30
0.0
  3
ISO2768
  1

  0
LINE
  5
122
330
11F
100
AcDbEntity
  8
0
  6
Continuous
 62
     7
370
     0
100
AcDbLine
 10
-25.0
 20
0.0
 30
0.0
 11
-25.0
 21
-20.0
 31
0.0
  0
LINE
  5
123
330
11F
100
AcDbEntity
  8
0
  6
Continuous
 62
     7
370
     0
100
AcDbLine
 10
-50.0
 20
0.0
 30
0.0
 11
-50.0
 21
-20.0
 31
0.0
  0
LINE
  5
124
330
11F
100
AcDbEntity
  8
0
  6
Continuous
 62
     7
370
     0
100
AcDbLine
 10
-75.0
 20
0.0
 30
0.0
 11
-75.0
 21
-20.0
 31
0.0
  0
LINE
  5
125
330
11F
100
AcDbEntity
  8
0
  6
Continuous
 62
     7
370
     0
100
AcDbLine
 10
-95.0
 20
0.0
 30
0.0
 11
-95.0
 21
-20.0
 31
0.0
  0
LINE
  5
126
330
11F
100
AcDbEntity
  8
0
  6
Continuous
 62
     7
370
     0
100
AcDbLine
 10
-115.0
 20
0.0
 30
0.0
 11
-115.0
 21
-20.0
 31
0.0
  0
LINE
  5
127
330
11F
100
AcDbEntity
  8
0
  6
Continuous
 62
     7
370
     0
100
AcDbLine
 10
-130.0
 20
0.0
 30
0.0
 11
-130.0
 21
-20.0
 31
0.0
  0
LINE
  5
128
330
11F
100
AcDbEntity
  8
0
  6
Continuous
 62
     7
370
     0
100
AcDbLine
 10
-145.0
 20
0.0
 30
0.0
 11
-145.0
 21
-20.0
 31
0.0
  0
LINE
  5
129
330
11F
100
AcDbEntity
  8
0
  6
Continuous
 62
     7
370
     0
100
AcDbLine
 10
-155.0
 20
-4.0
 30
0.0
 11
-155.0
 21
-20.0
 31
0.0
  0
LINE
  5
12A
330
11F
100
AcDbEntity
  8
0
  6
Continuous
 62
     7
370
     0
100
AcDbLine
 10
-175.0
 20
-16.0
 30
0.0
 11
0.0
 21
-16.0
 31
0.0
  0
LINE
  5
12B
330
11F
100
AcDbEntity
  8
0
  6
Continuous
 62
     7
370
     0
100
AcDbLine
 10
-175.0
 20
-12.0
 30
0.0
 11
0.0
 21
-12.0
 31
0.0
  0
LINE
  5
12C
330
11F
100
AcDbEntity
  8
0
  6
Continuous
 62
     7
370
     0
100
AcDbLine
 10
-175.0
 20
-8.0
 30
0.0
 11
0.0
 21
-8.0
 31
0.0
  0
LINE
  5
12D
330
11F
100
AcDbEntity
  8
0
  6
Continuous
 62
     7
370
     0
100
AcDbLine
 10
-175.0
 20
-4.0
 30
0.0
 11
0.0
 21
-4.0
 31
0.0
  0
LINE
  5
12E
330
11F
100
AcDbEntity
  8
0
  6
Continuous
 62
     7
370
     0
100
AcDbLine
 10
-175.0
 20
0.0
 30
0.0
 11
-175.0
 21
-20.0
 31
0.0
  0
LINE
  5
12F
330
11F
100
AcDbEntity
  8
0
  6
Continuous
 62
     7
370
     0
100
AcDbLine
 10
-180.0
 20
-20.0
 30
0.0
 11
-180.0
 21
0.0
 31
0.0
  0
LINE
  5
130
330
11F
100
AcDbEntity
  8
0
  6
Continuous
 62
     7
370
     0
100
AcDbLine
 10
0.0
 20
-20.0
 30
0.0
 11
-180.0
 21
-20.0
 31
0.0
  0
LINE
  5
131
330
11F
100
AcDbEntity
  8
0
  6
Continuous
 62
     7
370
     0
100
AcDbLine
 10
0.0
 20
0.0
 30
0.0
 11
0.0
 21
-20.0
 31
0.0
  0
LINE
  5
132
330
11F
100
AcDbEntity
  8
0
  6
Continuous
 62
     7
370
     0
100
AcDbLine
 10
-180.0
 20
0.0
 30
0.0
 11
0.0
 21
0.0
 31
0.0
  0
MTEXT
  5
134
330
11F
100
AcDbEntity
  8
0
  6
Continuous
 62
   179
370
     0
100
AcDbMText
 10
-152.1594291518
 20
-12.9932672184
 30
0.0
 40
2.5
 41
0.0
 71
     1
 72
     1
  1
(c)
  7
SLDTEXTSTYLE3
 73
     1
 44
1.0
  0
MTEXT
  5
135
330
11F
100
AcDbEntity
  8
0
  6
Continuous
 62
   179
370
     0
100
AcDbMText
 10
-14.4385313988
 20
-13.1021223902
 30
0.0
 40
2.5
 41
0.0
 71
     1
 72
     1
  1
±4
  7
SLDTEXTSTYLE3
 73
     1
 44
1.0
  0
MTEXT
  5
136
330
11F
100
AcDbEntity
  8
0
  6
Continuous
 62
   179
370
     0
100
AcDbMText
 10
-14.4385313988
 20
-17.1021223902
 30
0.0
 40
2.5
 41
0.0
 71
     1
 72
     1
  1
±8
  7
SLDTEXTSTYLE3
 73
     1
 44
1.0
  0
MTEXT
  5
137
330
11F
100
AcDbEntity
  8
0
  6
Continuous
 62
   179
370
     0
100
AcDbMText
 10
-23.8407053118
 20
-1.1021223902
 30
0.0
 40
2.5
 41
0.0
 71
     1
 72
     1
  1
>2000 <=4000
  7
SLDTEXTSTYLE3
 73
     1
 44
1.0
  0
MTEXT
  5
138
330
11F
100
AcDbEntity
  8
0
  6
Continuous
 62
   179
370
     0
100
AcDbMText
 10
-13.0798357466
 20
-5.1021223902
 30
0.0
 40
2.5
 41
0.0
 71
     1
 72
     1
  1
-
  7
SLDTEXTSTYLE3
 73
     1
 44
1.0
  0
MTEXT
  5
139
330
11F
100
AcDbEntity
  8
0
  6
Continuous
 62
   179
370
     0
100
AcDbMText
 10
-14.4385313988
 20
-9.1021223902
 30
0.0
 40
2.5
 41
0.0
 71
     1
 72
     1
  1
±2
  7
SLDTEXTSTYLE3
 73
     1
 44
1.0
  0
MTEXT
  5
13A
330
11F
100
AcDbEntity
  8
0
  6
Continuous
 62
   179
370
     0
100
AcDbMText
 10
-39.4385313988
 20
-17.1021223902
 30
0.0
 40
2.5
 41
0.0
 71
     1
 72
     1
  1
±6
  7
SLDTEXTSTYLE3
 73
     1
 44
1.0
  0
MTEXT
  5
13B
330
11F
100
AcDbEntity
  8
0
  6
Continuous
 62
   179
370
     0
100
AcDbMText
 10
-39.4385313988
 20
-13.1021223902
 30
0.0
 40
2.5
 41
0.0
 71
     1
 72
     1
  1
±3
  7
SLDTEXTSTYLE3
 73
     1
 44
1.0
  0
MTEXT
  5
13C
330
11F
100
AcDbEntity
  8
0
  6
Continuous
 62
   179
370
     0
100
AcDbMText
 10
-72.8624444423
 20
-1.1021223902
 30
0.0
 40
2.5
 41
0.0
 71
     1
 72
     1
  1
>400 <=1000
  7
SLDTEXTSTYLE3
 73
     1
 44
1.0
  0
MTEXT
  5
13D
330
11F
100
AcDbEntity
  8
0
  6
Continuous
 62
   179
370
     0
100
AcDbMText
 10
-40.9059227031
 20
-9.1021223902
 30
0.0
 40
2.5
 41
0.0
 71
     1
 72
     1
  1
±1.2
  7
SLDTEXTSTYLE3
 73
     1
 44
1.0
  0
MTEXT
  5
13E
330
11F
100
AcDbEntity
  8
0
  6
Continuous
 62
   179
370
     0
100
AcDbMText
 10
-40.9059227031
 20
-5.1021223902
 30
0.0
 40
2.5
 41
0.0
 71
     1
 72
     1
  1
±0.5
  7
SLDTEXTSTYLE3
 73
     1
 44
1.0
  0
MTEXT
  5
13F
330
11F
100
AcDbEntity
  8
0
  6
Continuous
 62
   179
370
     0
100
AcDbMText
 10
-64.4385313988
 20
-17.1021223902
 30
0.0
 40
2.5
 41
0.0
 71
     1
 72
     1
  1
±4
  7
SLDTEXTSTYLE3
 73
     1
 44
1.0
  0
MTEXT
  5
140
330
11F
100
AcDbEntity
  8
0
  6
Continuous
 62
   179
370
     0
100
AcDbMText
 10
-48.8407053118
 20
-1.1021223902
 30
0.0
 40
2.5
 41
0.0
 71
     1
 72
     1
  1
>1000 <=2000
  7
SLDTEXTSTYLE3
 73
     1
 44
1.0
  0
MTEXT
  5
141
330
11F
100
AcDbEntity
  8
0
  6
Continuous
 62
   179
370
     0
100
AcDbMText
 10
-64.4385313988
 20
-13.1021223902
 30
0.0
 40
2.5
 41
0.0
 71
     1
 72
     1
  1
±2
  7
SLDTEXTSTYLE3
 73
     1
 44
1.0
  0
MTEXT
  5
142
330
11F
100
AcDbEntity
  8
0
  6
Continuous
 62
   179
370
     0
100
AcDbMText
 10
-65.9059227031
 20
-9.1021223902
 30
0.0
 40
2.5
 41
0.0
 71
     1
 72
     1
  1
±0.8
  7
SLDTEXTSTYLE3
 73
     1
 44
1.0
  0
MTEXT
  5
143
330
11F
100
AcDbEntity
  8
0
  6
Continuous
 62
   179
370
     0
100
AcDbMText
 10
-88.4059227031
 20
-9.1021223902
 30
0.0
 40
2.5
 41
0.0
 71
     1
 72
     1
  1
±0.5
  7
SLDTEXTSTYLE3
 73
     1
 44
1.0
  0
MTEXT
  5
144
330
11F
100
AcDbEntity
  8
0
  6
Continuous
 62
   179
370
     0
100
AcDbMText
 10
-108.4059227031
 20
-9.1021223902
 30
0.0
 40
2.5
 41
0.0
 71
     1
 72
     1
  1
±0.3
  7
SLDTEXTSTYLE3
 73
     1
 44
1.0
  0
MTEXT
  5
145
330
11F
100
AcDbEntity
  8
0
  6
Continuous
 62
   179
370
     0
100
AcDbMText
 10
-88.4059227031
 20
-5.1021223902
 30
0.0
 40
2.5
 41
0.0
 71
     1
 72
     1
  1
±0.2
  7
SLDTEXTSTYLE3
 73
     1
 44
1.0
  0
MTEXT
  5
146
330
11F
100
AcDbEntity
  8
0
  6
Continuous
 62
   179
370
     0
100
AcDbMText
 10
-108.4059227031
 20
-17.1021223902
 30
0.0
 40
2.5
 41
0.0
 71
     1
 72
     1
  1
±1.5
  7
SLDTEXTSTYLE3
 73
     1
 44
1.0
  0
MTEXT
  5
147
330
11F
100
AcDbEntity
  8
0
  6
Continuous
 62
   179
370
     0
100
AcDbMText
 10
-65.9059227031
 20
-5.1021223902
 30
0.0
 40
2.5
 41
0.0
 71
     1
 72
     1
  1
±0.3
  7
SLDTEXTSTYLE3
 73
     1
 44
1.0
  0
MTEXT
  5
148
330
11F
100
AcDbEntity
  8
0
  6
Continuous
 62
   179
370
     0
100
AcDbMText
 10
-88.4059227031
 20
-17.1021223902
 30
0.0
 40
2.5
 41
0.0
 71
     1
 72
     1
  1
±2.5
  7
SLDTEXTSTYLE3
 73
     1
 44
1.0
  0
MTEXT
  5
149
330
11F
100
AcDbEntity
  8
0
  6
Continuous
 62
   179
370
     0
100
AcDbMText
 10
-94.3841835727
 20
-1.1021223902
 30
0.0
 40
2.5
 41
0.0
 71
     1
 72
     1
  1
>120 <=400
  7
SLDTEXTSTYLE3
 73
     1
 44
1.0
  0
MTEXT
  5
14A
330
11F
100
AcDbEntity
  8
0
  6
Continuous
 62
   179
370
     0
100
AcDbMText
 10
-88.4059227031
 20
-13.1021223902
 30
0.0
 40
2.5
 41
0.0
 71
     1
 72
     1
  1
±1.2
  7
SLDTEXTSTYLE3
 73
     1
 44
1.0
  0
MTEXT
  5
14B
330
11F
100
AcDbEntity
  8
0
  6
Continuous
 62
   179
370
     0
100
AcDbMText
 10
-109.3841835727
 20
-5.1021223902
 30
0.0
 40
2.5
 41
0.0
 71
     1
 72
     1
  1
±0.15
  7
SLDTEXTSTYLE3
 73
     1
 44
1.0
  0
MTEXT
  5
14C
330
11F
100
AcDbEntity
  8
0
  6
Continuous
 62
   179
370
     0
100
AcDbMText
 10
-113.4059227031
 20
-1.1021223902
 30
0.0
 40
2.5
 41
0.0
 71
     1
 72
     1
  1
>30 <=120
  7
SLDTEXTSTYLE3
 73
     1
 44
1.0
  0
MTEXT
  5
14D
330
11F
100
AcDbEntity
  8
0
  6
Continuous
 62
   179
370
     0
100
AcDbMText
 10
-124.4385313988
 20
-17.1021223902
 30
0.0
 40
2.5
 41
0.0
 71
     1
 72
     1
  1
±1
  7
SLDTEXTSTYLE3
 73
     1
 44
1.0
  0
MTEXT
  5
14E
330
11F
100
AcDbEntity
  8
0
  6
Continuous
 62
   179
370
     0
100
AcDbMText
 10
-125.9059227031
 20
-9.1021223902
 30
0.0
 40
2.5
 41
0.0
 71
     1
 72
     1
  1
±0.2
  7
SLDTEXTSTYLE3
 73
     1
 44
1.0
  0
MTEXT
  5
14F
330
11F
100
AcDbEntity
  8
0
  6
Continuous
 62
   179
370
     0
100
AcDbMText
 10
-108.4059227031
 20
-13.1021223902
 30
0.0
 40
2.5
 41
0.0
 71
     1
 72
     1
  1
±0.8
  7
SLDTEXTSTYLE3
 73
     1
 44
1.0
  0
MTEXT
  5
150
330
11F
100
AcDbEntity
  8
0
  6
Continuous
 62
   179
370
     0
100
AcDbMText
 10
-125.9059227031
 20
-5.1021223902
 30
0.0
 40
2.5
 41
0.0
 71
     1
 72
     1
  1
±0.1
  7
SLDTEXTSTYLE3
 73
     1
 44
1.0
  0
MTEXT
  5
151
330
11F
100
AcDbEntity
  8
0
  6
Continuous
 62
   179
370
     0
100
AcDbMText
 10
-128.949400964
 20
-1.1021223902
 30
0.0
 40
2.5
 41
0.0
 71
     1
 72
     1
  1
>6 <=30
  7
SLDTEXTSTYLE3
 73
     1
 44
1.0
  0
MTEXT
  5
152
330
11F
100
AcDbEntity
  8
0
  6
Continuous
 62
   179
370
     0
100
AcDbMText
 10
-140.4983140075
 20
-1.1021223902
 30
0.0
 40
2.5
 41
0.0
 71
     1
 72
     1
  1
<=6
  7
SLDTEXTSTYLE3
 73
     1
 44
1.0
  0
MTEXT
  5
153
330
11F
100
AcDbEntity
  8
0
  6
Continuous
 62
   179
370
     0
100
AcDbMText
 10
-125.9059227031
 20
-13.1021223902
 30
0.0
 40
2.5
 41
0.0
 71
     1
 72
     1
  1
±0.5
  7
SLDTEXTSTYLE3
 73
     1
 44
1.0
  0
MTEXT
  5
154
330
11F
100
AcDbEntity
  8
0
  6
Continuous
 62
   179
370
     0
100
AcDbMText
 10
-140.9059227031
 20
-9.1021223902
 30
0.0
 40
2.5
 41
0.0
 71
     1
 72
     1
  1
±0.1
  7
SLDTEXTSTYLE3
 73
     1
 44
1.0
  0
MTEXT
  5
155
330
11F
100
AcDbEntity
  8
0
  6
Continuous
 62
   179
370
     0
100
AcDbMText
 10
-140.9059227031
 20
-17.1021223902
 30
0.0
 40
2.5
 41
0.0
 71
     1
 72
     1
  1
±0.5
  7
SLDTEXTSTYLE3
 73
     1
 44
1.0
  0
MTEXT
  5
156
330
11F
100
AcDbEntity
  8
0
  6
Continuous
 62
   179
370
     0
100
AcDbMText
 10
-140.9059227031
 20
-13.1021223902
 30
0.0
 40
2.5
 41
0.0
 71
     1
 72
     1
  1
±0.3
  7
SLDTEXTSTYLE3
 73
     1
 44
1.0
  0
MTEXT
  5
157
330
11F
100
AcDbEntity
  8
0
  6
Continuous
 62
   179
370
     0
100
AcDbMText
 10
-141.8841835727
 20
-5.1021223902
 30
0.0
 40
2.5
 41
0.0
 71
     1
 72
     1
  1
±0.05
  7
SLDTEXTSTYLE3
 73
     1
 44
1.0
  0
MTEXT
  5
158
330
11F
100
AcDbEntity
  8
0
  6
Continuous
 62
   179
370
     0
100
AcDbMText
 10
-174.7485158139
 20
-8.9932672184
 30
0.0
 40
2.5
 41
0.0
 71
     1
 72
     1
  1
Medium
  7
SLDTEXTSTYLE3
 73
     1
 44
1.0
  0
MTEXT
  5
159
330
11F
100
AcDbEntity
  8
0
  6
Continuous
 62
   179
370
     0
100
AcDbMText
 10
-174.7485158139
 20
-12.9932672184
 30
0.0
 40
2.5
 41
0.0
 71
     1
 72
     1
  1
Coarse
  7
SLDTEXTSTYLE3
 73
     1
 44
1.0
  0
MTEXT
  5
15A
330
11F
100
AcDbEntity
  8
0
  6
Continuous
 62
   179
370
     0
100
AcDbMText
 10
-151.7789943692
 20
-4.9932672184
 30
0.0
 40
2.5
 41
0.0
 71
     1
 72
     1
  1
(f)
  7
SLDTEXTSTYLE3
 73
     1
 44
1.0
  0
MTEXT
  5
15B
330
11F
100
AcDbEntity
  8
0
  6
Continuous
 62
   179
370
     0
100
AcDbMText
 10
-152.7844291518
 20
-8.9932672184
 30
0.0
 40
2.5
 41
0.0
 71
     1
 72
     1
  1
(m)
  7
SLDTEXTSTYLE3
 73
     1
 44
1.0
  0
MTEXT
  5
15C
330
11F
100
AcDbEntity
  8
0
  6
Continuous
 62
   179
370
     0
100
AcDbMText
 10
-152.1866030649
 20
-16.9932672184
 30
0.0
 40
2.5
 41
0.0
 71
     1
 72
     1
  1
(v)
  7
SLDTEXTSTYLE3
 73
     1
 44
1.0
  0
MTEXT
  5
15D
330
11F
100
AcDbEntity
  8
0
  6
Continuous
 62
   179
370
     0
100
AcDbMText
 10
-174.7485158139
 20
-16.9932672184
 30
0.0
 40
2.5
 41
0.0
 71
     1
 72
     1
  1
Very Coarse
  7
SLDTEXTSTYLE3
 73
     1
 44
1.0
  0
MTEXT
  5
15E
330
11F
100
AcDbEntity
  8
0
  6
Continuous
 62
   179
370
     0
100
AcDbMText
 10
-178.6122169322
 20
-18.8727771349
 30
0.0
 40
2.5
 41
0.0
 71
     1
 72
     1
  1
ISO 2768
  7
SLDTEXTSTYLE3
 11
6.123233995736766E-17
 21
1.0
 31
0.0
 73
     1
 44
1.0
  0
MTEXT
  5
15F
330
11F
100
AcDbEntity
  8
0
  6
Continuous
 62
   179
370
     0
100
AcDbMText
 10
-174.565631434
 20
-0.9932672184
 30
0.0
 40
2.5
 41
0.0
 71
     1
 72
     1
  1
Tolerance Class
  7
SLDTEXTSTYLE3
 73
     1
 44
1.0
  0
MTEXT
  5
160
330
11F
100
AcDbEntity
  8
0
  6
Continuous
 62
   179
370
     0
100
AcDbMText
 10
-174.7485158139
 20
-4.9932672184
 30
0.0
 40
2.5
 41
0.0
 71
     1
 72
     1
  1
Fine
  7
SLDTEXTSTYLE3
 73
     1
 44
1.0
  0
ENDBLK
  5
121
330
11F
100
AcDbEntity
  8
0
100
AcDbBlockEnd
  0
ENDSEC
  0
SECTION
  2
ENTITIES
  0
LINE
  5
161
330
1F
100
AcDbEntity
  8
0
  6
Continuous
 62
     7
370
    15
100
AcDbLine
 10
187.394129926
 20
542.1604355869
 30
0.0
 11
169.394129926
 21
542.1604355869
 31
0.0
  0
LINE
  5
162
330
1F
100
AcDbEntity
  8
0
  6
Continuous
 62
     7
370
    15
100
AcDbLine
 10
169.394129926
 20
377.1604355869
 30
0.0
 11
187.394129926
 21
377.1604355869
 31
0.0
  0
LINE
  5
163
330
1F
100
AcDbEntity
  8
0
  6
Continuous
 62
     7
370
    15
100
AcDbLine
 10
314.394129926
 20
542.1604355869
 30
0.0
 11
296.394129926
 21
542.1604355869
 31
0.0
  0
LINE
  5
164
330
1F
100
AcDbEntity
  8
0
  6
Continuous
 62
     7
370
    15
100
AcDbLine
 10
296.394129926
 20
377.1604355869
 30
0.0
 11
314.394129926
 21
377.1604355869
 31
0.0
  0
LINE
  5
165
330
1F
100
AcDbEntity
  8
0
  6
Continuous
 62
     7
370
    15
100
AcDbLine
 10
169.394129926
 20
524.1604355869
 30
0.0
 11
166.894129926
 21
524.1604355869
 31
0.0
  0
LINE
  5
166
330
1F
100
AcDbEntity
  8
0
  6
Continuous
 62
     7
370
    15
100
AcDbLine
 10
166.894129926
 20
395.1604355869
 30
0.0
 11
169.394129926
 21
395.1604355869
 31
0.0
  0
LINE
  5
167
330
1F
100
AcDbEntity
  8
0
  6
Continuous
 62
     7
370
    15
100
AcDbLine
 10
316.894129926
 20
524.1604355869
 30
0.0
 11
314.394129926
 21
524.1604355869
 31
0.0
  0
LINE
  5
168
330
1F
100
AcDbEntity
  8
0
  6
Continuous
 62
     7
370
    15
100
AcDbLine
 10
314.394129926
 20
395.1604355869
 30
0.0
 11
316.894129926
 21
395.1604355869
 31
0.0
  0
ARC
  5
169
330
1F
100
AcDbEntity
  8
0
  6
Continuous
 62
     7
370
    15
100
AcDbCircle
 10
214.394129926
 20
514.0570522085
 30
0.0
 40
3.999999999999972
100
AcDbArc
 50
0.0
 51
180.0
  0
ARC
  5
16A
330
1F
100
AcDbEntity
  8
0
  6
Continuous
 62
     7
370
    15
100
AcDbCircle
 10
214.394129926
 20
405.2638189653
 30
0.0
 40
3.999999999999972
100
AcDbArc
 50
180.0
 51
0.0
  0
ARC
  5
16B
330
1F
100
AcDbEntity
  8
0
  6
Continuous
 62
     7
370
    15
100
AcDbCircle
 10
192.394129926
 20
514.0570522085
 30
0.0
 40
3.999999999999972
100
AcDbArc
 50
0.0
 51
180.0
  0
ARC
  5
16C
330
1F
100
AcDbEntity
  8
0
  6
Continuous
 62
     7
370
    15
100
AcDbCircle
 10
192.394129926
 20
405.2638189653
 30
0.0
 40
3.999999999999972
100
AcDbArc
 50
180.0
 51
0.0
  0
ARC
  5
16D
330
1F
100
AcDbEntity
  8
0
  6
Continuous
 62
     7
370
    15
100
AcDbCircle
 10
203.394129926
 20
514.0570522085
 30
0.0
 40
3.999999999999972
100
AcDbArc
 50
0.0
 51
180.0
  0
ARC
  5
16E
330
1F
100
AcDbEntity
  8
0
  6
Continuous
 62
     7
370
    15
100
AcDbCircle
 10
203.394129926
 20
405.2638189653
 30
0.0
 40
4.0
100
AcDbArc
 50
180.0
 51
0.0
  0
ARC
  5
16F
330
1F
100
AcDbEntity
  8
0
  6
Continuous
 62
     7
370
    15
100
AcDbCircle
 10
258.394129926
 20
514.0570522085
 30
0.0
 40
4.0
100
AcDbArc
 50
0.0
 51
180.0
  0
ARC
  5
170
330
1F
100
AcDbEntity
  8
0
  6
Continuous
 62
     7
370
    15
100
AcDbCircle
 10
258.394129926
 20
405.2638189653
 30
0.0
 40
4.0
100
AcDbArc
 50
180.0
 51
0.0
  0
ARC
  5
171
330
1F
100
AcDbEntity
  8
0
  6
Continuous
 62
     7
370
    15
100
AcDbCircle
 10
225.394129926
 20
514.0570522085
 30
0.0
 40
3.999999999999972
100
AcDbArc
 50
0.0
 51
180.0
  0
ARC
  5
172
330
1F
100
AcDbEntity
  8
0
  6
Continuous
 62
     7
370
    15
100
AcDbCircle
 10
225.394129926
 20
405.2638189653
 30
0.0
 40
3.999999999999972
100
AcDbArc
 50
180.0
 51
0.0
  0
ARC
  5
173
330
1F
100
AcDbEntity
  8
0
  6
Continuous
 62
     7
370
    15
100
AcDbCircle
 10
236.394129926
 20
514.0570522085
 30
0.0
 40
4.0
100
AcDbArc
 50
0.0
 51
180.0
  0
ARC
  5
174
330
1F
100
AcDbEntity
  8
0
  6
Continuous
 62
     7
370
    15
100
AcDbCircle
 10
236.394129926
 20
405.2638189653
 30
0.0
 40
4.0
100
AcDbArc
 50
180.0
 51
0.0
  0
ARC
  5
175
330
1F
100
AcDbEntity
  8
0
  6
Continuous
 62
     7
370
    15
100
AcDbCircle
 10
247.394129926
 20
514.0570522085
 30
0.0
 40
3.999999999999972
100
AcDbArc
 50
0.0
 51
180.0
  0
ARC
  5
176
330
1F
100
AcDbEntity
  8
0
  6
Continuous
 62
     7
370
    15
100
AcDbCircle
 10
247.394129926
 20
405.2638189653
 30
0.0
 40
4.0
100
AcDbArc
 50
180.0
 51
0.0
  0
ARC
  5
177
330
1F
100
AcDbEntity
  8
0
  6
Continuous
 62
     7
370
    15
100
AcDbCircle
 10
280.394129926
 20
514.0570522085
 30
0.0
 40
4.0
100
AcDbArc
 50
0.0
 51
180.0
  0
ARC
  5
178
330
1F
100
AcDbEntity
  8
0
  6
Continuous
 62
     7
370
    15
100
AcDbCircle
 10
280.394129926
 20
405.2638189653
 30
0.0
 40
4.0
100
AcDbArc
 50
180.0
 51
0.0
  0
ARC
  5
179
330
1F
100
AcDbEntity
  8
0
  6
Continuous
 62
     7
370
    15
100
AcDbCircle
 10
269.394129926
 20
514.0570522085
 30
0.0
 40
4.0
100
AcDbArc
 50
0.0
 51
180.0
  0
ARC
  5
17A
330
1F
100
AcDbEntity
  8
0
  6
Continuous
 62
     7
370
    15
100
AcDbCircle
 10
269.394129926
 20
405.2638189653
 30
0.0
 40
3.999999999999943
100
AcDbArc
 50
180.0
 51
0.0
  0
ARC
  5
17B
330
1F
100
AcDbEntity
  8
0
  6
Continuous
 62
     7
370
    15
100
AcDbCircle
 10
291.394129926
 20
514.0570522085
 30
0.0
 40
4.0
100
AcDbArc
 50
0.0
 51
180.0
  0
ARC
  5
17C
330
1F
100
AcDbEntity
  8
0
  6
Continuous
 62
     7
370
    15
100
AcDbCircle
 10
291.394129926
 20
405.2638189653
 30
0.0
 40
4.0
100
AcDbArc
 50
180.0
 51
0.0
  0
ARC
  5
17D
330
1F
100
AcDbEntity
  8
0
  6
Continuous
 62
     7
370
    15
100
AcDbCircle
 10
186.894129926
 20
491.4730284073
 30
0.0
 40
1.5
100
AcDbArc
 50
289.4712206345
 51
0.0
  0
ARC
  5
17E
330
1F
100
AcDbEntity
  8
0
  6
Continuous
 62
     7
370
    15
100
AcDbCircle
 10
186.894129926
 20
427.8478427665
 30
0.0
 40
1.500000000000026
100
AcDbArc
 50
0.0
 51
70.5287793655
  0
ARC
  5
17F
330
1F
100
AcDbEntity
  8
0
  6
Continuous
 62
     7
370
    15
100
AcDbCircle
 10
208.894129926
 20
491.4730284073
 30
0.0
 40
1.500000000000028
100
AcDbArc
 50
180.0
 51
0.0
  0
ARC
  5
180
330
1F
100
AcDbEntity
  8
0
  6
Continuous
 62
     7
370
    15
100
AcDbCircle
 10
208.894129926
 20
427.8478427665
 30
0.0
 40
1.500000000000028
100
AcDbArc
 50
0.0
 51
180.0
  0
ARC
  5
181
330
1F
100
AcDbEntity
  8
0
  6
Continuous
 62
     7
370
    15
100
AcDbCircle
 10
197.894129926
 20
491.4730284073
 30
0.0
 40
1.5
100
AcDbArc
 50
180.0
 51
0.0
  0
ARC
  5
182
330
1F
100
AcDbEntity
  8
0
  6
Continuous
 62
     7
370
    15
100
AcDbCircle
 10
197.894129926
 20
427.8478427665
 30
0.0
 40
1.5
100
AcDbArc
 50
0.0
 51
180.0
  0
ARC
  5
183
330
1F
100
AcDbEntity
  8
0
  6
Continuous
 62
     7
370
    15
100
AcDbCircle
 10
219.894129926
 20
491.4730284073
 30
0.0
 40
1.500000000000028
100
AcDbArc
 50
180.0
 51
0.0
  0
ARC
  5
184
330
1F
100
AcDbEntity
  8
0
  6
Continuous
 62
     7
370
    15
100
AcDbCircle
 10
219.894129926
 20
427.8478427665
 30
0.0
 40
1.500000000000028
100
AcDbArc
 50
0.0
 51
180.0
  0
ARC
  5
185
330
1F
100
AcDbEntity
  8
0
  6
Continuous
 62
     7
370
    15
100
AcDbCircle
 10
230.894129926
 20
491.4730284073
 30
0.0
 40
1.500000000000028
100
AcDbArc
 50
180.0
 51
0.0
  0
ARC
  5
186
330
1F
100
AcDbEntity
  8
0
  6
Continuous
 62
     7
370
    15
100
AcDbCircle
 10
230.894129926
 20
427.8478427665
 30
0.0
 40
1.500000000000028
100
AcDbArc
 50
0.0
 51
180.0
  0
ARC
  5
187
330
1F
100
AcDbEntity
  8
0
  6
Continuous
 62
     7
370
    15
100
AcDbCircle
 10
252.894129926
 20
491.4730284073
 30
0.0
 40
1.500000000000057
100
AcDbArc
 50
180.0
 51
0.0
  0
ARC
  5
188
330
1F
100
AcDbEntity
  8
0
  6
Continuous
 62
     7
370
    15
100
AcDbCircle
 10
252.894129926
 20
427.8478427665
 30
0.0
 40
1.500000000000057
100
AcDbArc
 50
0.0
 51
180.0
  0
ARC
  5
189
330
1F
100
AcDbEntity
  8
0
  6
Continuous
 62
     7
370
    15
100
AcDbCircle
 10
241.894129926
 20
491.4730284073
 30
0.0
 40
1.500000000000028
100
AcDbArc
 50
180.0
 51
0.0
  0
ARC
  5
18A
330
1F
100
AcDbEntity
  8
0
  6
Continuous
 62
     7
370
    15
100
AcDbCircle
 10
241.894129926
 20
427.8478427665
 30
0.0
 40
1.500000000000028
100
AcDbArc
 50
0.0
 51
180.0
  0
ARC
  5
18B
330
1F
100
AcDbEntity
  8
0
  6
Continuous
 62
     7
370
    15
100
AcDbCircle
 10
274.894129926
 20
491.4730284073
 30
0.0
 40
1.500000000000057
100
AcDbArc
 50
180.0
 51
0.0
  0
ARC
  5
18C
330
1F
100
AcDbEntity
  8
0
  6
Continuous
 62
     7
370
    15
100
AcDbCircle
 10
274.894129926
 20
427.8478427665
 30
0.0
 40
1.500000000000057
100
AcDbArc
 50
0.0
 51
180.0
  0
ARC
  5
18D
330
1F
100
AcDbEntity
  8
0
  6
Continuous
 62
     7
370
    15
100
AcDbCircle
 10
263.894129926
 20
491.4730284073
 30
0.0
 40
1.500000000000057
100
AcDbArc
 50
180.0
 51
0.0
  0
ARC
  5
18E
330
1F
100
AcDbEntity
  8
0
  6
Continuous
 62
     7
370
    15
100
AcDbCircle
 10
263.894129926
 20
427.8478427665
 30
0.0
 40
1.500000000000057
100
AcDbArc
 50
0.0
 51
180.0
  0
ARC
  5
18F
330
1F
100
AcDbEntity
  8
0
  6
Continuous
 62
     7
370
    15
100
AcDbCircle
 10
296.894129926
 20
491.4730284073
 30
0.0
 40
1.5
100
AcDbArc
 50
180.0
 51
250.5287793655
  0
ARC
  5
190
330
1F
100
AcDbEntity
  8
0
  6
Continuous
 62
     7
370
    15
100
AcDbCircle
 10
296.894129926
 20
427.8478427665
 30
0.0
 40
1.500000000000008
100
AcDbArc
 50
109.4712206345
 51
180.0
  0
ARC
  5
191
330
1F
100
AcDbEntity
  8
0
  6
Continuous
 62
     7
370
    15
100
AcDbCircle
 10
285.894129926
 20
491.4730284073
 30
0.0
 40
1.500000000000057
100
AcDbArc
 50
180.0
 51
0.0
  0
ARC
  5
192
330
1F
100
AcDbEntity
  8
0
  6
Continuous
 62
     7
370
    15
100
AcDbCircle
 10
285.894129926
 20
427.8478427665
 30
0.0
 40
1.500000000000057
100
AcDbArc
 50
0.0
 51
180.0
  0
LINE
  5
193
330
1F
100
AcDbEntity
  8
0
  6
Continuous
 62
     7
370
    15
100
AcDbLine
 10
187.394129926
 20
542.1604355869
 30
0.0
 11
187.394129926
 21
377.1604355869
 31
0.0
  0
LINE
  5
194
330
1F
100
AcDbEntity
  8
0
  6
Continuous
 62
     7
370
    15
100
AcDbLine
 10
169.394129926
 20
542.1604355869
 30
0.0
 11
169.394129926
 21
377.1604355869
 31
0.0
  0
LINE
  5
195
330
1F
100
AcDbEntity
  8
0
  6
Continuous
 62
     7
370
    15
100
AcDbLine
 10
314.394129926
 20
542.1604355869
 30
0.0
 11
314.394129926
 21
377.1604355869
 31
0.0
  0
LINE
  5
196
330
1F
100
AcDbEntity
  8
0
  6
Continuous
 62
     7
370
    15
100
AcDbLine
 10
296.394129926
 20
542.1604355869
 30
0.0
 11
296.394129926
 21
377.1604355869
 31
0.0
  0
LINE
  5
197
330
1F
100
AcDbEntity
  8
0
  6
Continuous
 62
     7
370
    15
100
AcDbLine
 10
166.894129926
 20
524.1604355869
 30
0.0
 11
166.894129926
 21
395.1604355869
 31
0.0
  0
LINE
  5
198
330
1F
100
AcDbEntity
  8
0
  6
Continuous
 62
     7
370
    15
100
AcDbLine
 10
316.894129926
 20
524.1604355869
 30
0.0
 11
316.894129926
 21
395.1604355869
 31
0.0
  0
LINE
  5
199
330
1F
100
AcDbEntity
  8
0
  6
Continuous
 62
     7
370
    15
100
AcDbLine
 10
218.394129926
 20
514.0570522085
 30
0.0
 11
218.394129926
 21
405.2638189653
 31
0.0
  0
LINE
  5
19A
330
1F
100
AcDbEntity
  8
0
  6
Continuous
 62
     7
370
    15
100
AcDbLine
 10
210.394129926
 20
514.0570522085
 30
0.0
 11
210.394129926
 21
405.2638189653
 31
0.0
  0
LINE
  5
19B
330
1F
100
AcDbEntity
  8
0
  6
Continuous
 62
     7
370
    15
100
AcDbLine
 10
196.394129926
 20
514.0570522085
 30
0.0
 11
196.394129926
 21
405.2638189653
 31
0.0
  0
LINE
  5
19C
330
1F
100
AcDbEntity
  8
0
  6
Continuous
 62
     7
370
    15
100
AcDbLine
 10
188.394129926
 20
514.0570522085
 30
0.0
 11
188.394129926
 21
405.2638189653
 31
0.0
  0
LINE
  5
19D
330
1F
100
AcDbEntity
  8
0
  6
Continuous
 62
     7
370
    15
100
AcDbLine
 10
207.394129926
 20
514.0570522085
 30
0.0
 11
207.394129926
 21
405.2638189653
 31
0.0
  0
LINE
  5
19E
330
1F
100
AcDbEntity
  8
0
  6
Continuous
 62
     7
370
    15
100
AcDbLine
 10
199.394129926
 20
514.0570522085
 30
0.0
 11
199.394129926
 21
405.2638189653
 31
0.0
  0
LINE
  5
19F
330
1F
100
AcDbEntity
  8
0
  6
Continuous
 62
     7
370
    15
100
AcDbLine
 10
262.394129926
 20
514.0570522085
 30
0.0
 11
262.394129926
 21
405.2638189653
 31
0.0
  0
LINE
  5
1A0
330
1F
100
AcDbEntity
  8
0
  6
Continuous
 62
     7
370
    15
100
AcDbLine
 10
254.394129926
 20
514.0570522085
 30
0.0
 11
254.394129926
 21
405.2638189653
 31
0.0
  0
LINE
  5
1A1
330
1F
100
AcDbEntity
  8
0
  6
Continuous
 62
     7
370
    15
100
AcDbLine
 10
229.394129926
 20
514.0570522085
 30
0.0
 11
229.394129926
 21
405.2638189653
 31
0.0
  0
LINE
  5
1A2
330
1F
100
AcDbEntity
  8
0
  6
Continuous
 62
     7
370
    15
100
AcDbLine
 10
221.394129926
 20
514.0570522085
 30
0.0
 11
221.394129926
 21
405.2638189653
 31
0.0
  0
LINE
  5
1A3
330
1F
100
AcDbEntity
  8
0
  6
Continuous
 62
     7
370
    15
100
AcDbLine
 10
240.394129926
 20
514.0570522085
 30
0.0
 11
240.394129926
 21
405.2638189653
 31
0.0
  0
LINE
  5
1A4
330
1F
100
AcDbEntity
  8
0
  6
Continuous
 62
     7
370
    15
100
AcDbLine
 10
232.394129926
 20
514.0570522085
 30
0.0
 11
232.394129926
 21
405.2638189653
 31
0.0
  0
LINE
  5
1A5
330
1F
100
AcDbEntity
  8
0
  6
Continuous
 62
     7
370
    15
100
AcDbLine
 10
251.394129926
 20
514.0570522085
 30
0.0
 11
251.394129926
 21
405.2638189653
 31
0.0
  0
LINE
  5
1A6
330
1F
100
AcDbEntity
  8
0
  6
Continuous
 62
     7
370
    15
100
AcDbLine
 10
243.394129926
 20
514.0570522085
 30
0.0
 11
243.394129926
 21
405.2638189653
 31
0.0
  0
LINE
  5
1A7
330
1F
100
AcDbEntity
  8
0
  6
Continuous
 62
     7
370
    15
100
AcDbLine
 10
284.394129926
 20
514.0570522085
 30
0.0
 11
284.394129926
 21
405.2638189653
 31
0.0
  0
LINE
  5
1A8
330
1F
100
AcDbEntity
  8
0
  6
Continuous
 62
     7
370
    15
100
AcDbLine
 10
276.394129926
 20
514.0570522085
 30
0.0
 11
276.394129926
 21
405.2638189653
 31
0.0
  0
LINE
  5
1A9
330
1F
100
AcDbEntity
  8
0
  6
Continuous
 62
     7
370
    15
100
AcDbLine
 10
273.394129926
 20
514.0570522085
 30
0.0
 11
273.394129926
 21
405.2638189653
 31
0.0
  0
LINE
  5
1AA
330
1F
100
AcDbEntity
  8
0
  6
Continuous
 62
     7
370
    15
100
AcDbLine
 10
265.394129926
 20
514.0570522085
 30
0.0
 11
265.394129926
 21
405.2638189653
 31
0.0
  0
LINE
  5
1AB
330
1F
100
AcDbEntity
  8
0
  6
Continuous
 62
     7
370
    15
100
AcDbLine
 10
295.394129926
 20
514.0570522085
 30
0.0
 11
295.394129926
 21
405.2638189653
 31
0.0
  0
LINE
  5
1AC
330
1F
100
AcDbEntity
  8
0
  6
Continuous
 62
     7
370
    15
100
AcDbLine
 10
287.394129926
 20
514.0570522085
 30
0.0
 11
287.394129926
 21
405.2638189653
 31
0.0
  0
CIRCLE
  5
1AD
330
1F
100
AcDbEntity
  8
0
  6
Continuous
 62
     7
370
    15
100
AcDbCircle
 10
633.8619677726
 20
459.6604355869
 30
0.0
 40
27.81259282041913
  0
CIRCLE
  5
1AE
330
1F
100
AcDbEntity
  8
0
  6
Continuous
 62
     7
370
    15
100
AcDbCircle
 10
633.8619677726
 20
459.6604355869
 30
0.0
 40
46.15685424949237
  0
CIRCLE
  5
1AF
330
1F
100
AcDbEntity
  8
0
  6
Continuous
 62
     7
370
    15
100
AcDbCircle
 10
633.8619677726
 20
459.6604355869
 30
0.0
 40
64.50000000000006
  0
CIRCLE
  5
1B0
330
1F
100
AcDbEntity
  8
0
  6
Continuous
 62
     7
370
    15
100
AcDbCircle
 10
633.8619677726
 20
459.6604355869
 30
0.0
 40
43.32842712474621
  0
CIRCLE
  5
1B1
330
1F
100
AcDbEntity
  8
0
  6
Continuous
 62
     7
370
    15
100
AcDbCircle
 10
633.8619677726
 20
459.6604355869
 30
0.0
 40
41.77617759625957
  0
CIRCLE
  5
1B2
330
1F
100
AcDbEntity
  8
0
  6
Continuous
 62
     7
370
    15
100
AcDbCircle
 10
633.8619677726
 20
459.6604355869
 30
0.0
 40
82.49999999999994
  0
CIRCLE
  5
1B3
330
1F
100
AcDbEntity
  8
0
  6
Continuous
 62
     7
370
    15
100
AcDbCircle
 10
633.8619677726
 20
534.6604355869
 30
0.0
 40
5.0
  0
CIRCLE
  5
1B4
330
1F
100
AcDbEntity
  8
0
  6
Continuous
 62
     7
370
    15
100
AcDbCircle
 10
708.8619677726
 20
459.6604355869
 30
0.0
 40
5.0
  0
CIRCLE
  5
1B5
330
1F
100
AcDbEntity
  8
0
  6
Continuous
 62
     7
370
    15
100
AcDbCircle
 10
558.8619677726
 20
459.6604355869
 30
0.0
 40
5.0
  0
CIRCLE
  5
1B6
330
1F
100
AcDbEntity
  8
0
  6
Continuous
 62
     7
370
    15
100
AcDbCircle
 10
633.8619677726
 20
384.6604355869
 30
0.0
 40
5.0
  0
CIRCLE
  5
1B7
330
1F
100
AcDbEntity
  8
0
  6
Continuous
 62
     7
370
    15
100
AcDbCircle
 10
633.8619677726
 20
459.6604355869
 30
0.0
 40
40.60460472100573
  0
CIRCLE
  5
1B8
330
1F
100
AcDbEntity
  8
0
  6
Continuous
 62
     7
370
    15
100
AcDbCircle
 10
633.8619677726
 20
459.6604355869
 30
0.0
 40
39.10460472100573
  0
CIRCLE
  5
1B9
330
1F
100
AcDbEntity
  8
0
  6
Continuous
 62
     7
370
    15
100
AcDbCircle
 10
633.8619677726
 20
459.6604355869
 30
0.0
 40
31.81259282041907
  0
LINE
  5
1BA
330
1F
100
AcDbEntity
  8
0
  6
Continuous
 62
     7
370
    15
100
AcDbLine
 10
708.4220673397
 20
206.2749887557
 30
0.0
 11
695.6941452783
 21
213.6226617621
 31
0.0
  0
LINE
  5
1BB
330
1F
100
AcDbEntity
  8
0
  6
Continuous
 62
     7
370
    15
100
AcDbLine
 10
613.2008498358
 20
70.7245994693
 30
0.0
 11
625.9287718972
 21
63.3769264629
 31
0.0
  0
LINE
  5
1BC
330
1F
100
AcDbEntity
  8
0
  6
Continuous
 62
     7
370
    15
100
AcDbLine
 10
701.1905656989
 20
189.6655990931
 30
0.0
 11
699.4227987459
 21
190.6861092328
 31
0.0
  0
LINE
  5
1BD
330
1F
100
AcDbEntity
  8
0
  6
Continuous
 62
     7
370
    15
100
AcDbLine
 10
634.9280404909
 20
78.9658059857
 30
0.0
 11
636.6958074439
 21
77.945295846
 31
0.0
  0
SPLINE
  5
1BE
330
1F
100
AcDbEntity
  8
0
  6
Continuous
 62
     7
370
    15
100
AcDbSpline
210
0.0
220
0.0
230
1.0
 70
     8
 71
     3
 72
    32
 73
    28
 74
     0
 42
0.000000001
 43
0.00000001
 40
0.0
 40
0.0
 40
0.0
 40
0.0
 40
0.0054891209591673
 40
0.0472856342608594
 40
0.0891426027480415
 40
0.1310622230440971
 40
0.1730428701334109
 40
0.2150803485053184
 40
0.2571687734650008
 40
0.2993011806824537
 40
0.3414699382769737
 40
0.3836670171551909
 40
0.4258841611502138
 40
0.4681129879718193
 40
0.5103450443931286
 40
0.552569959644124
 40
0.5947782577735904
 40
0.6369614153488712
 40
0.679110945821998
 40
0.7212184746139422
 40
0.7632758714363767
 40
0.8052754664777715
 40
0.8472103862758861
 40
0.8890750569829664
 40
0.9308659380704599
 40
0.972582568524511
 40
1.0
 40
1.0
 40
1.0
 40
1.0
 10
637.6759800650362
 20
120.6176707043616
 30
0.0
 10
637.6830289815105
 20
120.7142206088465
 30
0.0
 10
637.7437513610697
 20
121.5459427562272
 30
0.0
 10
637.9659914044612
 20
123.1736169754691
 30
0.0
 10
638.3504784048287
 20
125.4933596827704
 30
0.0
 10
638.8589566937048
 20
127.8632519121416
 30
0.0
 10
639.4761281178081
 20
130.2651259785272
 30
0.0
 10
640.2040054549002
 20
132.6908058168902
 30
0.0
 10
641.0391782597429
 20
135.1292580476797
 30
0.0
 10
641.9789449597192
 20
137.5701306942412
 30
0.0
 10
643.0196970868961
 20
140.0028816875165
 30
0.0
 10
644.1573851282532
 20
142.4170837319503
 30
0.0
 10
645.3874258774007
 20
144.8024075124146
 30
0.0
 10
646.7047593120705
 20
147.1486869167669
 30
0.0
 10
648.1038440385164
 20
149.4459253280944
 30
0.0
 10
649.5786881885888
 20
151.6843618033814
 30
0.0
 10
651.1228826434731
 20
153.8545352299358
 30
0.0
 10
652.7296519966021
 20
155.9473602098382
 30
0.0
 10
654.3918717308595
 20
157.954150981812
 30
0.0
 10
656.1020832166698
 20
159.8666569822549
 30
0.0
 10
657.8525184661727
 20
161.6770888477114
 30
0.0
 10
659.6351399353198
 20
163.3782543002696
 30
0.0
 10
661.441640341345
 20
164.9632987883572
 30
0.0
 10
663.2636155881914
 20
166.4269335530624
 30
0.0
 10
665.0921285884266
 20
167.7611422936517
 30
0.0
 10
666.7118223900294
 20
168.8338512144563
 30
0.0
 10
667.7162553329971
 20
169.4275659794153
 30
0.0
 10
668.114596911908
 20
169.6630234866112
 30
0.0
  0
SPLINE
  5
1BF
330
1F
100
AcDbEntity
  8
0
  6
Continuous
 62
     7
370
    15
100
AcDbSpline
210
0.0
220
0.0
230
1.0
 70
     8
 71
     3
 72
    22
 73
    18
 74
     0
 42
0.000000001
 43
0.00000001
 40
0.0
 40
0.0
 40
0.0
 40
0.0
 40
0.0502069876426873
 40
0.1197468986654777
 40
0.1892410388965046
 40
0.2586965263948682
 40
0.3281210740248119
 40
0.3975227731345949
 40
0.4669099529034321
 40
0.5362910919097296
 40
0.6056747634325192
 40
0.6750669551072183
 40
0.744476109024882
 40
0.8139108965090699
 40
0.8833799417077929
 40
0.9528917399674187
 40
1.0
 40
1.0
 40
1.0
 40
1.0
 10
626.0253028189833
 20
184.5175857991146
 30
0.0
 10
625.5232477936181
 20
183.9952370065975
 30
0.0
 10
624.325814227702
 20
182.7494014991831
 30
0.0
 10
622.4943465229826
 20
180.66297483292
 30
0.0
 10
620.5291994640745
 20
178.2851267758755
 30
0.0
 10
618.6315459386398
 20
175.8191996367825
 30
0.0
 10
616.8042893979571
 20
173.2769141581987
 30
0.0
 10
615.0529982253748
 20
170.6642928159751
 30
0.0
 10
613.3823252430408
 20
167.9890845065379
 30
0.0
 10
611.7969391401133
 20
165.2587548713964
 30
0.0
 10
610.3013210566875
 20
162.4810390440425
 30
0.0
 10
608.8996281744741
 20
159.6637377707586
 30
0.0
 10
607.5963010494714
 20
156.8147699959193
 30
0.0
 10
606.3936635842194
 20
153.9419531756412
 30
0.0
 10
605.3008328373548
 20
151.0535749129489
 30
0.0
 10
604.4081901347837
 20
148.4682481934164
 30
0.0
 10
603.9301243197064
 20
146.850864363789
 30
0.0
 10
603.7370113247453
 20
146.1975278869055
 30
0.0
  0
SPLINE
  5
1C0
330
1F
100
AcDbEntity
  8
0
  6
Continuous
 62
     7
370
    15
100
AcDbSpline
210
0.0
220
0.0
230
1.0
 70
     8
 71
     3
 72
    18
 73
    14
 74
     0
 42
0.000000001
 43
0.00000001
 40
0.0
 40
0.0
 40
0.0
 40
0.0
 40
0.0183465762182228
 40
0.1243462020197307
 40
0.2299166798008586
 40
0.3333685792378543
 40
0.434165484160245
 40
0.5325379595258325
 40
0.6290186257735948
 40
0.7241538893551962
 40
0.8183984314724113
 40
0.9120980746106909
 40
1.0
 40
1.0
 40
1.0
 40
1.0
 10
644.7034894302127
 20
100.9276699745711
 30
0.0
 10
644.6337020777297
 20
100.96378274428
 30
0.0
 10
644.1607096170627
 20
101.2085415322031
 30
0.0
 10
643.3675342580434
 20
101.8019398748189
 30
0.0
 10
642.3299552039937
 20
102.7184926861255
 30
0.0
 10
641.3928838641815
 20
103.7881187610245
 30
0.0
 10
640.5523457014106
 20
104.9832287156471
 30
0.0
 10
639.8116842479245
 20
106.3002254975961
 30
0.0
 10
639.1700200186424
 20
107.7335139380799
 30
0.0
 10
638.6268335723105
 20
109.2793378880627
 30
0.0
 10
638.1863997061823
 20
110.9370945402096
 30
0.0
 10
637.8462802892213
 20
112.6579375712124
 30
0.0
 10
637.7083966651103
 20
113.876730803944
 30
0.0
 10
637.6416558536883
 20
114.4666721391274
 30
0.0
  0
SPLINE
  5
1C1
330
1F
100
AcDbEntity
  8
0
  6
Continuous
 62
     7
370
    15
100
AcDbSpline
210
0.0
220
0.0
230
1.0
 70
     8
 71
     3
 72
    20
 73
    16
 74
     0
 42
0.000000001
 43
0.00000001
 40
0.0
 40
0.0
 40
0.0
 40
0.0
 40
0.0418497010885471
 40
0.1217338569261311
 40
0.2015371863213687
 40
0.2813298027316552
 40
0.3611957644377556
 40
0.4412799782933636
 40
0.5217872288576142
 40
0.6029952899244873
 40
0.6852624531932883
 40
0.7690163515506087
 40
0.8546955219637479
 40
0.9425940786285703
 40
1.0
 40
1.0
 40
1.0
 40
1.0
 10
667.0169907442215
 20
169.0291829496861
 30
0.0
 10
667.3261731071497
 20
169.2041582951575
 30
0.0
 10
668.2255334503252
 20
169.7131326275223
 30
0.0
 10
669.7008544829555
 20
170.4516914744738
 30
0.0
 10
671.4258591637919
 20
171.19635233053
 30
0.0
 10
673.1122714260091
 20
171.798020643591
 30
0.0
 10
674.7527562227256
 20
172.2592835673657
 30
0.0
 10
676.3407270302909
 20
172.5807224925366
 30
0.0
 10
677.8711374730224
 20
172.7642985038171
 30
0.0
 10
679.3407858747104
 20
172.8120530370402
 30
0.0
 10
680.7481837308719
 20
172.7248880034836
 30
0.0
 10
682.0951609458967
 20
172.5043670956605
 30
0.0
 10
683.3797237368356
 20
172.1407425675289
 30
0.0
 10
684.4655291315851
 20
171.7150931316951
 30
0.0
 10
685.0895294696326
 20
171.3492480536092
 30
0.0
 10
685.3360553498105
 20
171.2047124269682
 30
0.0
  0
SPLINE
  5
1C2
330
1F
100
AcDbEntity
  8
0
  6
Continuous
 62
     7
370
    15
100
AcDbSpline
210
0.0
220
0.0
230
1.0
 70
     8
 71
     3
 72
    43
 73
    39
 74
     0
 42
0.000000001
 43
0.00000001
 40
0.0
 40
0.0
 40
0.0
 40
0.0
 40
0.0149978596773008
 40
0.0432559317560724
 40
0.0714968369939838
 40
0.0997194916017103
 40
0.1279198663898646
 40
0.1560962260968067
 40
0.1842485069730603
 40
0.2123778328043322
 40
0.2404861513278107
 40
0.2685759691086936
 40
0.2966501632957941
 40
0.3247118514606129
 40
0.3527643041594525
 40
0.3808108880808654
 40
0.4088550303011748
 40
0.4369001961750813
 40
0.4649488059294923
 40
0.4930042718923884
 40
0.5210700990484779
 40
0.5491497733139183
 40
0.5772467285427079
 40
0.6053642935389509
 40
0.6335056096390518
 40
0.6616735067069806
 40
0.6898703219466082
 40
0.718097642025485
 40
0.7463559452806137
 40
0.7746441187085175
 40
0.8029588268878073
 40
0.8312937219075733
 40
0.859637426360264
 40
0.8879695142858045
 40
0.9162668835879731
 40
0.944500099884556
 40
0.972634054697671
 40
1.0
 40
1.0
 40
1.0
 40
1.0
 10
633.355776999749
 20
201.0763930748608
 30
0.0
 10
632.9487131121921
 20
200.8372180964675
 30
0.0
 10
631.7746837427098
 20
200.1474038985923
 30
0.0
 10
629.8437827594109
 20
198.8997311705034
 30
0.0
 10
627.5743092084124
 20
197.2938881385191
 30
0.0
 10
625.3312141543815
 20
195.5575730210962
 30
0.0
 10
623.1202941732327
 20
193.6988467659143
 30
0.0
 10
620.9475127312217
 20
191.7229627562453
 30
0.0
 10
618.8186383070995
 20
189.636216321899
 30
0.0
 10
616.7393206763736
 20
187.444881082302
 30
0.0
 10
614.7150812288207
 20
185.1554914700686
 30
0.0
 10
612.7513168610294
 20
182.774763140838
 30
0.0
 10
610.8532931813364
 20
180.3096071157874
 30
0.0
 10
609.0261356705568
 20
177.7671151536425
 30
0.0
 10
607.27481829313
 20
175.1545491301854
 30
0.0
 10
605.6041511487851
 20
172.4793259288995
 30
0.0
 10
604.0187678898146
 20
169.7490005600595
 30
0.0
 10
602.523132592427
 20
166.9712825570549
 30
0.0
 10
601.1215057356643
 20
164.1539857208554
 30
0.0
 10
599.8179316313793
 20
161.3050023677591
 30
0.0
 10
598.6162165594718
 20
158.4322434548164
 30
0.0
 10
597.5199407521626
 20
155.5436489862986
 30
0.0
 10
596.5324561414894
 20
152.647170266628
 30
0.0
 10
595.6568848503398
 20
149.7507507177446
 30
0.0
 10
594.8961199066872
 20
146.862309337559
 30
0.0
 10
594.2528279312296
 20
143.9897280531669
 30
0.0
 10
593.7294531240502
 20
141.1408444091016
 30
0.0
 10
593.3282216432124
 20
138.3234515177082
 30
0.0
 10
593.0511436071064
 20
135.5453064169684
 30
0.0
 10
592.9000129823427
 20
132.814151326801
 30
0.0
 10
592.8763889642586
 20
130.1377387331825
 30
0.0
 10
592.981596734209
 20
127.5239313749591
 30
0.0
 10
593.216554179245
 20
124.9807824089733
 30
0.0
 10
593.5820551834289
 20
122.5167976667103
 30
0.0
 10
594.0771900892091
 20
120.1396915150725
 30
0.0
 10
594.7046645326722
 20
117.8608472669329
 30
0.0
 10
595.4448795434974
 20
115.6945625648692
 30
0.0
 10
596.0439971275296
 20
114.3458254486058
 30
0.0
 10
596.3394106147642
 20
113.6807888255828
 30
0.0
  0
SPLINE
  5
1C3
330
1F
100
AcDbEntity
  8
0
  6
Continuous
 62
     7
370
    15
100
AcDbSpline
210
0.0
220
0.0
230
1.0
 70
     8
 71
     3
 72
    15
 73
    11
 74
     0
 42
0.000000001
 43
0.00000001
 40
0.0
 40
0.0
 40
0.0
 40
0.0
 40
0.0742508634105866
 40
0.2089500221477391
 40
0.3445578032454142
 40
0.4809144319841089
 40
0.6178466529857688
 40
0.755187354219572
 40
0.8927888790577172
 40
1.0
 40
1.0
 40
1.0
 40
1.0
 10
649.9910933911916
 20
206.7188868190725
 30
0.0
 10
649.5902780597149
 20
206.6862405987872
 30
0.0
 10
648.462340032569
 20
206.5943705768331
 30
0.0
 10
646.5727606903912
 20
206.2663798534384
 30
0.0
 10
644.327594159656
 20
205.7499900169347
 30
0.0
 10
642.0537869707679
 20
205.0663370622398
 30
0.0
 10
639.7609027359357
 20
204.228252253427
 30
0.0
 10
637.456586752629
 20
203.2330973518195
 30
0.0
 10
635.3185798624513
 20
202.1807512223154
 30
0.0
 10
633.9535613398751
 20
201.412732510157
 30
0.0
 10
633.355776999749
 20
201.0763930748608
 30
0.0
  0
SPLINE
  5
1C4
330
1F
100
AcDbEntity
  8
0
  6
Continuous
 62
     7
370
    15
100
AcDbSpline
210
0.0
220
0.0
230
1.0
 70
     8
 71
     3
 72
    49
 73
    45
 74
     0
 42
0.000000001
 43
0.00000001
 40
0.0
 40
0.0
 40
0.0
 40
0.0
 40
0.0128949004327821
 40
0.0371907022150647
 40
0.061471744244393
 40
0.0857370946974454
 40
0.1099832893468578
 40
0.1342088362446694
 40
0.1584136805801876
 40
0.1825987885649317
 40
0.2067658348296559
 40
0.23091697447578
 40
0.2550546812261066
 40
0.27918163551471
 40
0.3033006493093472
 40
0.3274146172306288
 40
0.3515264858195167
 40
0.3756392345280693
 40
0.3997549442255324
 40
0.4238765487725065
 40
0.4480070616942413
 40
0.472149480121174
 40
0.4963067564216
 40
0.5204817526437338
 40
0.5446771696543005
 40
0.5688954405214112
 40
0.5931385747325465
 40
0.6174079364770276
 40
0.6417039370207404
 40
0.6660256194225415
 40
0.6903701159447898
 40
0.7147319687634438
 40
0.7391013957802075
 40
0.763460835107781
 40
0.7877904239632753
 40
0.8120648551737938
 40
0.8362539430770881
 40
0.8603243886632908
 40
0.8842429420827961
 40
0.9079807664926014
 40
0.9315182930481368
 40
0.9548494802192642
 40
0.9779844081898841
 40
1.0
 40
1.0
 40
1.0
 40
1.0
 10
625.577602406697
 20
205.5666376898857
 30
0.0
 10
625.1705385191401
 20
205.3274627114924
 30
0.0
 10
623.9965091496578
 20
204.6376485136172
 30
0.0
 10
622.0656081663587
 20
203.3899757855281
 30
0.0
 10
619.7961346153601
 20
201.7841327535438
 30
0.0
 10
617.5530395613292
 20
200.0478176361208
 30
0.0
 10
615.3421195801805
 20
198.189091380939
 30
0.0
 10
613.1693381381695
 20
196.21320737127
 30
0.0
 10
611.0404637140473
 20
194.1264609369236
 30
0.0
 10
608.9611460833213
 20
191.9351256973266
 30
0.0
 10
606.9369066357685
 20
189.6457360850932
 30
0.0
 10
604.9731422679773
 20
187.2650077558627
 30
0.0
 10
603.0751185882842
 20
184.7998517308121
 30
0.0
 10
601.2479610775046
 20
182.2573597686673
 30
0.0
 10
599.4966437000779
 20
179.64479374521
 30
0.0
 10
597.825976555733
 20
176.9695705439242
 30
0.0
 10
596.2405932967627
 20
174.2392451750841
 30
0.0
 10
594.7449579993748
 20
171.4615271720795
 30
0.0
 10
593.3433311426124
 20
168.6442303358803
 30
0.0
 10
592.039757038326
 20
165.7952469827827
 30
0.0
 10
590.8380419664239
 20
162.9224880698445
 30
0.0
 10
589.7417661590945
 20
160.0338936013094
 30
0.0
 10
588.7542815484975
 20
157.1374148817033
 30
0.0
 10
587.8787102570624
 20
154.2409953325787
 30
0.0
 10
587.1179453144765
 20
151.3525539532942
 30
0.0
 10
586.4746533350328
 20
148.4799726655345
 30
0.0
 10
585.9512785427524
 20
145.6310890340563
 30
0.0
 10
585.550047006221
 20
142.8136960956107
 30
0.0
 10
585.2729691783054
 20
140.0355511707588
 30
0.0
 10
585.1218377753569
 20
137.3043954231489
 30
0.0
 10
585.0982166654353
 20
134.6279852864656
 30
0.0
 10
585.2034135713482
 20
132.0141687498569
 30
0.0
 10
585.4384115738451
 20
129.4710540484801
 30
0.0
 10
585.8037613285591
 20
127.0069415244521
 30
0.0
 10
586.2994595599971
 20
124.6303112934692
 30
0.0
 10
586.9248392399151
 20
122.3496973030423
 30
0.0
 10
587.6783985735561
 20
120.1736817179413
 30
0.0
 10
588.5576901832967
 20
118.1107470367531
 30
0.0
 10
589.5591623985623
 20
116.1688864103718
 30
0.0
 10
590.6785155415554
 20
114.3557716427157
 30
0.0
 10
591.9096647407122
 20
112.67672849894
 30
0.0
 10
593.2494077136515
 20
111.1409714123628
 30
0.0
 10
594.6619490212065
 20
109.7570832885862
 30
0.0
 10
595.6788916555212
 20
108.9599188528907
 30
0.0
 10
596.1747573518653
 20
108.5712179717703
 30
0.0
  0
SPLINE
  5
1C5
330
1F
100
AcDbEntity
  8
0
  6
Continuous
 62
     7
370
    15
100
AcDbSpline
210
0.0
220
0.0
230
1.0
 70
     8
 71
     3
 72
    21
 73
    17
 74
     0
 42
0.000000001
 43
0.00000001
 40
0.0
 40
0.0
 40
0.0
 40
0.0
 40
0.0451955327463793
 40
0.1172065777781944
 40
0.189516560670772
 40
0.2622685295942855
 40
0.3355656355756666
 40
0.4094642703593369
 40
0.4839727908595998
 40
0.5590562321607454
 40
0.6346461539351952
 40
0.7106534952275184
 40
0.7869816807500191
 40
0.863537559613885
 40
0.9402388256796537
 40
0.9999999999999999
 40
0.9999999999999999
 40
0.9999999999999999
 40
0.9999999999999999
 10
654.3213940863537
 20
209.4584677634885
 30
0.0
 10
653.945623139122
 20
209.619057573729
 30
0.0
 10
652.9711280048207
 20
210.0355186914671
 30
0.0
 10
651.3165969289283
 20
210.5340825183107
 30
0.0
 10
649.373529409327
 20
210.9717995915099
 30
0.0
 10
647.3644066563072
 20
211.246653192751
 30
0.0
 10
645.297393916638
 20
211.3654397423049
 30
0.0
 10
643.176251771187
 20
211.3245276600117
 30
0.0
 10
641.0068363746113
 20
211.1234244815025
 30
0.0
 10
638.7954459764138
 20
210.7614311066384
 30
0.0
 10
636.5491871218027
 20
210.2389352887348
 30
0.0
 10
634.2756750940313
 20
209.5569322552107
 30
0.0
 10
631.9827112490864
 20
208.7184024338168
 30
0.0
 10
629.6784167174984
 20
207.7233674451748
 30
0.0
 10
627.5404044176292
 20
206.6709910760338
 30
0.0
 10
626.1753864874108
 20
205.902975675095
 30
0.0
 10
625.577602406697
 20
205.5666376898857
 30
0.0
  0
SPLINE
  5
1C6
330
1F
100
AcDbEntity
  8
0
  6
Continuous
 62
     7
370
    15
100
AcDbSpline
210
0.0
220
0.0
230
1.0
 70
     8
 71
     3
 72
    53
 73
    49
 74
     0
 42
0.000000001
 43
0.00000001
 40
0.0
 40
0.0
 40
0.0
 40
0.0
 40
0.011905083870615
 40
0.0343359323622081
 40
0.0567531540640676
 40
0.0791558886799199
 40
0.1015409378975689
 40
0.1239069242914429
 40
0.1462537972581359
 40
0.1685824488424679
 40
0.1908944251300194
 40
0.213191715795954
 40
0.2354766046793469
 40
0.2577515664633169
 40
0.2800191972681035
 40
0.3022821695223413
 40
0.3245432035895906
 40
0.3468050502182459
 40
0.3690696305493847
 40
0.3913396532395538
 40
0.4136179004948689
 40
0.4359071393851085
 40
0.4582100956538552
 40
0.4805294116576159
 40
0.5028675809437483
 40
0.5252268498172973
 40
0.5476090735168614
 40
0.5700155115161666
 40
0.5924465435122009
 40
0.6149012860189212
 40
0.6373770914271167
 40
0.6598689208570133
 40
0.682367743087221
 40
0.7048573442863639
 40
0.7273193863449336
 40
0.7497305046764888
 40
0.7720628306795878
 40
0.7942856213867034
 40
0.816368179217014
 40
0.8382838808525388
 40
0.8600146595592985
 40
0.8815549375568809
 40
0.9029140212711431
 40
0.9241163868241797
 40
0.9451998720629046
 40
0.9662122504697419
 40
0.9872034634680277
 40
1.0
 40
1.0
 40
1.0
 40
1.0
 10
617.799427813645
 20
210.0568823049106
 30
0.0
 10
617.3923639260881
 20
209.8177073265173
 30
0.0
 10
616.2183345566058
 20
209.1278931286421
 30
0.0
 10
614.2874335733068
 20
207.880220400553
 30
0.0
 10
612.0179600223081
 20
206.2743773685687
 30
0.0
 10
609.7748649682773
 20
204.5380622511458
 30
0.0
 10
607.5639449871284
 20
202.6793359959639
 30
0.0
 10
605.3911635451174
 20
200.7034519862948
 30
0.0
 10
603.2622891209953
 20
198.6167055519485
 30
0.0
 10
601.1829714902693
 20
196.4253703123515
 30
0.0
 10
599.1587320427166
 20
194.1359807001182
 30
0.0
 10
597.1949676749254
 20
191.7552523708877
 30
0.0
 10
595.2969439952324
 20
189.2900963458371
 30
0.0
 10
593.4697864844526
 20
186.7476043836922
 30
0.0
 10
591.718469107026
 20
184.1350383602349
 30
0.0
 10
590.047801962681
 20
181.4598151589491
 30
0.0
 10
588.4624187037107
 20
178.7294897901091
 30
0.0
 10
586.9667834063229
 20
175.9517717871044
 30
0.0
 10
585.5651565495605
 20
173.1344749509053
 30
0.0
 10
584.261582445274
 20
170.2854915978077
 30
0.0
 10
583.059867373372
 20
167.4127326848696
 30
0.0
 10
581.9635915660425
 20
164.5241382163345
 30
0.0
 10
580.9761069554455
 20
161.6276594967284
 30
0.0
 10
580.1005356640104
 20
158.7312399476037
 30
0.0
 10
579.3397707214249
 20
155.8427985683197
 30
0.0
 10
578.6964787419798
 20
152.9702172805583
 30
0.0
 10
578.1731039497041
 20
150.1213336490869
 30
0.0
 10
577.7718724131553
 20
147.3039407106159
 30
0.0
 10
577.4947945853049
 20
144.5257957858588
 30
0.0
 10
577.3436631821123
 20
141.7946400378943
 30
0.0
 10
577.3200420731029
 20
139.1182299025361
 30
0.0
 10
577.4252389756084
 20
136.504413360977
 30
0.0
 10
577.6602369908254
 20
133.9612986780814
 30
0.0
 10
578.0255866981029
 20
131.4971860851322
 30
0.0
 10
578.521285106217
 20
129.1205561108453
 30
0.0
 10
579.1466641291532
 20
126.8399411658777
 30
0.0
 10
579.9002259012244
 20
124.6639291236173
 30
0.0
 10
580.7795084792797
 20
122.6009813201245
 30
0.0
 10
581.7810140780442
 20
120.6591691972539
 30
0.0
 10
582.9002440474136
 20
118.8458754683327
 30
0.0
 10
584.1318471612952
 20
117.1674918257634
 30
0.0
 10
585.4699180161581
 20
115.6293052875122
 30
0.0
 10
586.9082097056503
 20
114.2351830439092
 30
0.0
 10
588.4408850564703
 20
112.9886938373438
 30
0.0
 10
590.0611941020758
 20
111.8896208250909
 30
0.0
 10
591.7673861685685
 20
110.9481052653238
 30
0.0
 10
593.3095237424506
 20
110.2399150060593
 30
0.0
 10
594.3080504444684
 20
109.9102211647545
 30
0.0
 10
594.6862254812248
 20
109.7853552194555
 30
0.0
  0
SPLINE
  5
1C7
330
1F
100
AcDbEntity
  8
0
  6
Continuous
 62
     7
370
    15
100
AcDbSpline
210
0.0
220
0.0
230
1.0
 70
     8
 71
     3
 72
    25
 73
    21
 74
     0
 42
0.000000001
 43
0.00000001
 40
0.0
 40
0.0
 40
0.0
 40
0.0
 40
0.0192311721074096
 40
0.0763888570477462
 40
0.1332674693487167
 40
0.1900026699903225
 40
0.2467147838038289
 40
0.3035273119032558
 40
0.3605756845957818
 40
0.4179727585714413
 40
0.4757999139936928
 40
0.5341016406705036
 40
0.5928845317214161
 40
0.6521210018606646
 40
0.7117570556486205
 40
0.7717224291690945
 40
0.8319409301345986
 40
0.8923390679092686
 40
0.9528519077340155
 40
1.0
 40
1.0
 40
1.0
 40
1.0
 10
652.6421121749074
 20
210.0946613535903
 30
0.0
 10
652.4796547008393
 20
210.2458068822788
 30
0.0
 10
651.834351300006
 20
210.8461776823483
 30
0.0
 10
650.6032167068124
 20
211.7530147293529
 30
0.0
 10
648.9587313228808
 20
212.8061827030264
 30
0.0
 10
647.2258745329152
 20
213.6985722328175
 30
0.0
 10
645.4189533377912
 20
214.4407488576006
 30
0.0
 10
643.5403064602189
 20
215.0283146436919
 30
0.0
 10
641.5948457779402
 20
215.4609668914199
 30
0.0
 10
639.5863699114336
 20
215.7371895459723
 30
0.0
 10
637.5191819431496
 20
215.8556052463734
 30
0.0
 10
635.3980873183684
 20
215.8147937355547
 30
0.0
 10
633.2286590322877
 20
215.6136632780421
 30
0.0
 10
631.0172721278255
 20
215.2516772972259
 30
0.0
 10
628.7710123275057
 20
214.7291794778495
 30
0.0
 10
626.497500555278
 20
214.0471769851512
 30
0.0
 10
624.2045366414084
 20
213.2086470178873
 30
0.0
 10
621.9002421283928
 20
212.2136120685514
 30
0.0
 10
619.76222982384
 20
211.1612356894981
 30
0.0
 10
618.3972118941343
 20
210.3932202896446
 30
0.0
 10
617.799427813645
 20
210.0568823049106
 30
0.0
  0
SPLINE
  5
1C8
330
1F
100
AcDbEntity
  8
0
  6
Continuous
 62
     7
370
    15
100
AcDbSpline
210
0.0
220
0.0
230
1.0
 70
     8
 71
     3
 72
    59
 73
    55
 74
     0
 42
0.000000001
 43
0.00000001
 40
0.0
 40
0.0
 40
0.0
 40
0.0
 40
0.0002403865639545
 40
0.0196179932542681
 40
0.0394242283966412
 40
0.0599026397751989
 40
0.0813371779088619
 40
0.1039045258893028
 40
0.1272739876712147
 40
0.1476797819718588
 40
0.1693376274879975
 40
0.1899777011392037
 40
0.209896820094527
 40
0.229378883012787
 40
0.2486173317351764
 40
0.2677368532322211
 40
0.2868156669500282
 40
0.3058938266207031
 40
0.3249983036847668
 40
0.3441468325930684
 40
0.3633471089493283
 40
0.3826003686521979
 40
0.401903770609852
 40
0.4212519664359294
 40
0.4406381183156178
 40
0.4600545425657838
 40
0.4794931012389246
 40
0.4989454268583284
 40
0.5184030401595454
 40
0.5378561451303454
 40
0.5572945880848725
 40
0.5767097998666572
 40
0.5960932715236661
 40
0.615436682439652
 40
0.6347321433361592
 40
0.6539726153207015
 40
0.6731525918684101
 40
0.6922691652174983
 40
0.7113236452965475
 40
0.7303239606686823
 40
0.7492881501160201
 40
0.7682451818713898
 40
0.7872338921393804
 40
0.8063295522950027
 40
0.8256467629874945
 40
0.8453529601853581
 40
0.8656793541004518
 40
0.8869077055635869
 40
0.9092581992741168
 40
0.9325374714356041
 40
0.9531689158132733
 40
0.9728484402844574
 40
0.9937292527422609
 40
1.0
 40
1.0
 40
1.0
 40
1.0
 10
664.0530358349624
 20
166.9786643396601
 30
0.0
 10
664.0580003307084
 20
166.9792955882396
 30
0.0
 10
664.4631537737832
 20
167.0308119050012
 30
0.0
 10
665.1994834505377
 20
167.0154764978329
 30
0.0
 10
666.2577004398944
 20
166.929901513066
 30
0.0
 10
667.2429417377498
 20
166.7062167738357
 30
0.0
 10
668.1782772787417
 20
166.3583815366708
 30
0.0
 10
669.0663081731346
 20
165.8655857641976
 30
0.0
 10
669.8693620297405
 20
165.2397211201838
 30
0.0
 10
670.6033449034683
 20
164.4728191453737
 30
0.0
 10
671.2514630934459
 20
163.5861827688891
 30
0.0
 10
671.829397310304
 20
162.5456223618887
 30
0.0
 10
672.3142298737199
 20
161.3908988948696
 30
0.0
 10
672.7065623237675
 20
160.1241860870686
 30
0.0
 10
673.0045883135789
 20
158.7476882666345
 30
0.0
 10
673.204864944296
 20
157.2657760256677
 30
0.0
 10
673.3034708727763
 20
155.6851879221742
 30
0.0
 10
673.296837711212
 20
154.0145618178526
 30
0.0
 10
673.1821840628683
 20
152.2639303653424
 30
0.0
 10
672.9576597635962
 20
150.4441470389492
 30
0.0
 10
672.6224111295857
 20
148.5668266473555
 30
0.0
 10
672.1766378597705
 20
146.6442722317155
 30
0.0
 10
671.6215955916937
 20
144.6892604124381
 30
0.0
 10
670.9595676984251
 20
142.7148605210088
 30
0.0
 10
670.1938208550521
 20
140.7342820686749
 30
0.0
 10
669.3285533494246
 20
138.7607447751747
 30
0.0
 10
668.3688414590603
 20
136.8073657795147
 30
0.0
 10
667.3205868421918
 20
134.8870592633389
 30
0.0
 10
666.1904906917541
 20
133.0124847403877
 30
0.0
 10
664.9860219580487
 20
131.1959629863681
 30
0.0
 10
663.7153454953974
 20
129.4493288491915
 30
0.0
 10
662.3872425106658
 20
127.7838038467731
 30
0.0
 10
661.0110483723871
 20
126.2099032621434
 30
0.0
 10
659.5966379055725
 20
124.7373875633164
 30
0.0
 10
658.1543718798958
 20
123.3751553643163
 30
0.0
 10
656.6950323426265
 20
122.1311251908139
 30
0.0
 10
655.2297397065596
 20
121.0121050333734
 30
0.0
 10
653.7698415848234
 20
120.0236505492219
 30
0.0
 10
652.3267596084384
 20
119.1699164659506
 30
0.0
 10
650.911775791363
 20
118.4535123214636
 30
0.0
 10
649.535835255165
 20
117.8754271361996
 30
0.0
 10
648.2093995063173
 20
117.4350184017913
 30
0.0
 10
646.9416716756175
 20
117.1298599148794
 30
0.0
 10
645.7397459127592
 20
116.9559742550743
 30
0.0
 10
644.6074476725792
 20
116.9085563871971
 30
0.0
 10
643.5444511545403
 20
116.9834725867068
 30
0.0
 10
642.5454941621069
 20
117.1796847680307
 30
0.0
 10
641.6013433057358
 20
117.5026938171049
 30
0.0
 10
640.7040349175493
 20
117.9658170940245
 30
0.0
 10
639.8895538883268
 20
118.5628507489602
 30
0.0
 10
639.1637391223196
 20
119.2750549135065
 30
0.0
 10
638.5213748825252
 20
120.110370988824
 30
0.0
 10
638.0585404575417
 20
120.8327416408224
 30
0.0
 10
637.833253876779
 20
121.3417293664676
 30
0.0
 10
637.7812231565065
 20
121.4592818539951
 30
0.0
  0
SPLINE
  5
1C9
330
1F
100
AcDbEntity
  8
0
  6
Continuous
 62
     7
370
    15
100
AcDbSpline
210
0.0
220
0.0
230
1.0
 70
     8
 71
     3
 72
    53
 73
    49
 74
     0
 42
0.000000001
 43
0.00000001
 40
0.0
 40
0.0
 40
0.0
 40
0.0
 40
0.011905083870615
 40
0.0343359323622081
 40
0.0567531540640677
 40
0.0791558886799199
 40
0.1015409378975689
 40
0.123906924291443
 40
0.146253797258136
 40
0.1685824488424683
 40
0.1908944251300207
 40
0.2131917157959562
 40
0.235476604679348
 40
0.2577515664633189
 40
0.2800191972681053
 40
0.3022821695223426
 40
0.3245432035895915
 40
0.3468050502182465
 40
0.3690696305493849
 40
0.3913396532395549
 40
0.413617900494871
 40
0.4359071393851082
 40
0.4582100956538568
 40
0.4805294116576183
 40
0.5028675809437501
 40
0.5252268498172997
 40
0.5476090735168633
 40
0.570015511516169
 40
0.5924465435122038
 40
0.6149012860189229
 40
0.637377091427118
 40
0.659868920857016
 40
0.6823677430872253
 40
0.7048573442863686
 40
0.7273193863449388
 40
0.7497305046764934
 40
0.7720628306795937
 40
0.7942856213867088
 40
0.8163681792170194
 40
0.8382838808525434
 40
0.8600146595593032
 40
0.8815549375568861
 40
0.9029140212711476
 40
0.9241163868241857
 40
0.94519987206291
 40
0.9662122504697469
 40
0.9872034634680336
 40
1.0
 40
1.0
 40
1.0
 40
1.0
 10
610.0212532205929
 20
214.5471269199355
 30
0.0
 10
609.6141893330362
 20
214.3079519415422
 30
0.0
 10
608.4401599635538
 20
213.6181377436669
 30
0.0
 10
606.5092589802548
 20
212.3704650155779
 30
0.0
 10
604.2397854292561
 20
210.7646219835936
 30
0.0
 10
601.9966903752252
 20
209.0283068661707
 30
0.0
 10
599.7857703940764
 20
207.1695806109888
 30
0.0
 10
597.6129889520654
 20
205.1936966013197
 30
0.0
 10
595.4841145279432
 20
203.1069501669734
 30
0.0
 10
593.4047968972172
 20
200.9156149273763
 30
0.0
 10
591.3805574496645
 20
198.6262253151429
 30
0.0
 10
589.4167930818733
 20
196.2454969859124
 30
0.0
 10
587.5187694021802
 20
193.7803409608618
 30
0.0
 10
585.6916118914005
 20
191.237848998717
 30
0.0
 10
583.9402945139739
 20
188.6252829752597
 30
0.0
 10
582.269627369629
 20
185.9500597739739
 30
0.0
 10
580.6842441106586
 20
183.2197344051339
 30
0.0
 10
579.1886088132709
 20
180.4420164021293
 30
0.0
 10
577.7869819565085
 20
177.6247195659301
 30
0.0
 10
576.4834078522221
 20
174.7757362128326
 30
0.0
 10
575.28169278032
 20
171.9029772998944
 30
0.0
 10
574.1854169729904
 20
169.0143828313593
 30
0.0
 10
573.1979323623935
 20
166.1179041117532
 30
0.0
 10
572.3223610709583
 20
163.2214845626284
 30
0.0
 10
571.5615961283728
 20
160.3330431833444
 30
0.0
 10
570.9183041489279
 20
157.460461895583
 30
0.0
 10
570.3949293566521
 20
154.6115782641116
 30
0.0
 10
569.9936978201032
 20
151.7941853256405
 30
0.0
 10
569.7166199922528
 20
149.0160404008834
 30
0.0
 10
569.5654885890604
 20
146.284884652919
 30
0.0
 10
569.5418674800508
 20
143.6084745175608
 30
0.0
 10
569.6470643825564
 20
140.9946579760016
 30
0.0
 10
569.8820623977734
 20
138.4515432931059
 30
0.0
 10
570.2474121050509
 20
135.9874307001567
 30
0.0
 10
570.7431105131651
 20
133.6108007258698
 30
0.0
 10
571.3684895361014
 20
131.3301857809021
 30
0.0
 10
572.1220513081727
 20
129.1541737386417
 30
0.0
 10
573.0013338862279
 20
127.0912259351489
 30
0.0
 10
574.0028394849925
 20
125.1494138122785
 30
0.0
 10
575.1220694543617
 20
123.3361200833573
 30
0.0
 10
576.3536725682435
 20
121.657736440788
 30
0.0
 10
577.6917434231063
 20
120.1195499025368
 30
0.0
 10
579.1300351125985
 20
118.7254276589338
 30
0.0
 10
580.6627104634185
 20
117.4789384523685
 30
0.0
 10
582.2830195090243
 20
116.3798654401156
 30
0.0
 10
583.989211575517
 20
115.4383498803485
 30
0.0
 10
585.5313491493988
 20
114.7301596210841
 30
0.0
 10
586.5298758514166
 20
114.4004657797794
 30
0.0
 10
586.9080508881727
 20
114.2755998344804
 30
0.0
  0
SPLINE
  5
1CA
330
1F
100
AcDbEntity
  8
0
  6
Continuous
 62
     7
370
    15
100
AcDbSpline
210
0.0
220
0.0
230
1.0
 70
     8
 71
     3
 72
    25
 73
    21
 74
     0
 42
0.000000001
 43
0.00000001
 40
0.0
 40
0.0
 40
0.0
 40
0.0
 40
0.0192311721074183
 40
0.0763888570477571
 40
0.1332674693487247
 40
0.1900026699903307
 40
0.2467147838038361
 40
0.3035273119032648
 40
0.3605756845957901
 40
0.4179727585714468
 40
0.4757999139937013
 40
0.5341016406705119
 40
0.5928845317214224
 40
0.652121001860669
 40
0.7117570556486231
 40
0.7717224291691002
 40
0.8319409301346051
 40
0.8923390679092733
 40
0.9528519077340212
 40
1.0
 40
1.0
 40
1.0
 40
1.0
 10
644.8639375818553
 20
214.5849059686152
 30
0.0
 10
644.7014801077872
 20
214.7360514973038
 30
0.0
 10
644.0561767069539
 20
215.3364222973734
 30
0.0
 10
642.8250421137601
 20
216.2432593443779
 30
0.0
 10
641.1805567298286
 20
217.2964273180514
 30
0.0
 10
639.4476999398629
 20
218.1888168478425
 30
0.0
 10
637.640778744739
 20
218.9309934726256
 30
0.0
 10
635.7621318671665
 20
219.5185592587169
 30
0.0
 10
633.816671184888
 20
219.9512115064449
 30
0.0
 10
631.8081953183813
 20
220.2274341609972
 30
0.0
 10
629.7410073500974
 20
220.3458498613983
 30
0.0
 10
627.6199127253161
 20
220.3050383505796
 30
0.0
 10
625.4504844392355
 20
220.1039078930669
 30
0.0
 10
623.2390975347734
 20
219.7419219122508
 30
0.0
 10
620.9928377344535
 20
219.2194240928743
 30
0.0
 10
618.7193259622258
 20
218.537421600176
 30
0.0
 10
616.4263620483562
 20
217.6988916329121
 30
0.0
 10
614.1220675353408
 20
216.7038566835762
 30
0.0
 10
611.9840552307879
 20
215.6514803045229
 30
0.0
 10
610.6190373010822
 20
214.8834649046695
 30
0.0
 10
610.0212532205929
 20
214.5471269199355
 30
0.0
  0
SPLINE
  5
1CB
330
1F
100
AcDbEntity
  8
0
  6
Continuous
 62
     7
370
    15
100
AcDbSpline
210
0.0
220
0.0
230
1.0
 70
     8
 71
     3
 72
    40
 73
    36
 74
     0
 42
0.000000001
 43
0.00000001
 40
0.0
 40
0.0
 40
0.0
 40
0.0
 40
0.03163062220161
 40
0.0630822229105882
 40
0.0941405358836781
 40
0.1250068542194104
 40
0.1558074544213026
 40
0.186606998737619
 40
0.2174490295273676
 40
0.2483621770680075
 40
0.2793588650467294
 40
0.310441088682983
 40
0.3416042613533691
 40
0.3728397486892888
 40
0.4041365118073308
 40
0.4354821462647569
 40
0.4668635142600658
 40
0.4982671074426487
 40
0.5296792369931588
 40
0.5610840883509686
 40
0.592465269531584
 40
0.6238089465950948
 40
0.6551013827948888
 40
0.6863291454313124
 40
0.7174794981510881
 40
0.7485410774535015
 40
0.7795049936731074
 40
0.8103665525553501
 40
0.8411278688326791
 40
0.8718017422790566
 40
0.902417294480567
 40
0.9330212913929519
 40
0.9636764297031546
 40
0.9945042265852838
 40
1.0
 40
1.0
 40
1.0
 40
1.0
 10
664.0530358349624
 20
166.9786643396601
 30
0.0
 10
664.2161545806418
 20
166.6119943634123
 30
0.0
 10
664.5414688602744
 20
165.8807296722262
 30
0.0
 10
664.9275358070711
 20
164.6126822580836
 30
0.0
 10
665.2266392308353
 20
163.2383957073488
 30
0.0
 10
665.4266302273976
 20
161.7558972456209
 30
0.0
 10
665.5253123738953
 20
160.175465568043
 30
0.0
 10
665.5186587995406
 20
158.5047975695666
 30
0.0
 10
665.4040106305209
 20
156.7541773625375
 30
0.0
 10
665.1794848583257
 20
154.934391013193
 30
0.0
 10
664.8442366205373
 20
153.0570714347852
 30
0.0
 10
664.39846324412
 20
151.1345168003607
 30
0.0
 10
663.8434210047188
 20
149.1795050399355
 30
0.0
 10
663.1813931037397
 20
147.2051051326813
 30
0.0
 10
662.4156462624392
 20
145.2245266846008
 30
0.0
 10
661.550378756254
 20
143.2509893899566
 30
0.0
 10
660.5906668660435
 20
141.2976103946096
 30
0.0
 10
659.5424122491182
 20
139.3773038783275
 30
0.0
 10
658.4123160987535
 20
137.5027293554883
 30
0.0
 10
657.2078473648128
 20
135.6862076011273
 30
0.0
 10
655.9371709030293
 20
133.9395734652029
 30
0.0
 10
654.6090679150674
 20
132.2740484581251
 30
0.0
 10
653.2328737888141
 20
130.7001478908396
 30
0.0
 10
651.8184632772613
 20
129.2276321274876
 30
0.0
 10
650.3761974179221
 20
127.8654001683925
 30
0.0
 10
648.9168572625414
 20
126.6213691034006
 30
0.0
 10
647.451566922433
 20
125.5023522573747
 30
0.0
 10
645.9916602740884
 20
124.5138854754683
 30
0.0
 10
644.5486099684288
 20
123.6601970702441
 30
0.0
 10
643.1335084306942
 20
122.9436231396306
 30
0.0
 10
641.7580061233592
 20
122.3661700029945
 30
0.0
 10
640.4299351745709
 20
121.9234028527764
 30
0.0
 10
639.1683309749649
 20
121.6270763551686
 30
0.0
 10
638.2829266860928
 20
121.4773406059075
 30
0.0
 10
637.8471555379181
 20
121.461655081307
 30
0.0
 10
637.7812231565065
 20
121.4592818539951
 30
0.0
  0
LINE
  5
1CC
330
1F
100
AcDbEntity
  8
0
  6
Continuous
 62
     7
370
    15
100
AcDbLine
 10
618.619506129
 20
258.1169038564
 30
0.0
 11
605.8915840676
 21
265.4645768628
 31
0.0
  0
LINE
  5
1CD
330
1F
100
AcDbEntity
  8
0
  6
Continuous
 62
     7
370
    15
100
AcDbLine
 10
523.3982886251
 20
122.56651457
 30
0.0
 11
536.1262106865
 21
115.2188415636
 31
0.0
  0
SPLINE
  5
1CE
330
1F
100
AcDbEntity
  8
0
  6
Continuous
 62
     7
370
    15
100
AcDbSpline
210
0.0
220
0.0
230
1.0
 70
     8
 71
     3
 72
    53
 73
    49
 74
     0
 42
0.000000001
 43
0.00000001
 40
0.0
 40
0.0
 40
0.0
 40
0.0
 40
0.011905083870615
 40
0.0343359323622081
 40
0.0567531540640678
 40
0.079155888679921
 40
0.1015409378975701
 40
0.1239069242914451
 40
0.1462537972581371
 40
0.1685824488424686
 40
0.1908944251300212
 40
0.213191715795956
 40
0.2354766046793488
 40
0.2577515664633185
 40
0.2800191972681056
 40
0.3022821695223425
 40
0.3245432035895929
 40
0.3468050502182487
 40
0.3690696305493866
 40
0.3913396532395574
 40
0.4136179004948722
 40
0.4359071393851107
 40
0.4582100956538583
 40
0.4805294116576191
 40
0.5028675809437515
 40
0.5252268498173005
 40
0.5476090735168645
 40
0.5700155115161699
 40
0.5924465435122053
 40
0.6149012860189248
 40
0.6373770914271194
 40
0.659868920857018
 40
0.6823677430872277
 40
0.7048573442863697
 40
0.7273193863449404
 40
0.7497305046764965
 40
0.7720628306795952
 40
0.7942856213867115
 40
0.8163681792170215
 40
0.8382838808525458
 40
0.8600146595593057
 40
0.8815549375568894
 40
0.9029140212711515
 40
0.924116386824189
 40
0.9451998720629126
 40
0.9662122504697509
 40
0.9872034634680376
 40
1.0
 40
1.0
 40
1.0
 40
1.0
 10
602.243078627541
 20
219.0373715349604
 30
0.0
 10
601.8360147399842
 20
218.798196556567
 30
0.0
 10
600.6619853705018
 20
218.1083823586918
 30
0.0
 10
598.7310843872028
 20
216.8607096306028
 30
0.0
 10
596.461610836204
 20
215.2548665986185
 30
0.0
 10
594.2185157821731
 20
213.5185514811955
 30
0.0
 10
592.0075958010243
 20
211.6598252260136
 30
0.0
 10
589.8348143590133
 20
209.6839412163445
 30
0.0
 10
587.7059399348911
 20
207.5971947819982
 30
0.0
 10
585.6266223041652
 20
205.4058595424011
 30
0.0
 10
583.6023828566125
 20
203.1164699301678
 30
0.0
 10
581.6386184888212
 20
200.7357416009372
 30
0.0
 10
579.7405948091282
 20
198.2705855758867
 30
0.0
 10
577.9134372983485
 20
195.7280936137418
 30
0.0
 10
576.1621199209218
 20
193.1155275902846
 30
0.0
 10
574.491452776577
 20
190.4403043889987
 30
0.0
 10
572.9060695176065
 20
187.7099790201586
 30
0.0
 10
571.4104342202188
 20
184.9322610171539
 30
0.0
 10
570.0088073634563
 20
182.1149641809547
 30
0.0
 10
568.7052332591699
 20
179.2659808278572
 30
0.0
 10
567.503518187268
 20
176.393221914919
 30
0.0
 10
566.4072423799383
 20
173.5046274463839
 30
0.0
 10
565.4197577693415
 20
170.6081487267778
 30
0.0
 10
564.5441864779064
 20
167.7117291776532
 30
0.0
 10
563.7834215353208
 20
164.8232877983691
 30
0.0
 10
563.1401295558758
 20
161.9507065106077
 30
0.0
 10
562.6167547636
 20
159.1018228791363
 30
0.0
 10
562.2155232270512
 20
156.2844299406652
 30
0.0
 10
561.9384453992009
 20
153.5062850159081
 30
0.0
 10
561.7873139960084
 20
150.7751292679436
 30
0.0
 10
561.7636928869988
 20
148.0987191325854
 30
0.0
 10
561.8688897895045
 20
145.4849025910262
 30
0.0
 10
562.1038878047215
 20
142.9417879081306
 30
0.0
 10
562.469237511999
 20
140.4776753151814
 30
0.0
 10
562.9649359201132
 20
138.1010453408944
 30
0.0
 10
563.5903149430495
 20
135.8204303959267
 30
0.0
 10
564.3438767151208
 20
133.6444183536664
 30
0.0
 10
565.2231592931761
 20
131.5814705501736
 30
0.0
 10
566.2246648919406
 20
129.6396584273031
 30
0.0
 10
567.34389486131
 20
127.8263646983819
 30
0.0
 10
568.5754979751918
 20
126.1479810558127
 30
0.0
 10
569.9135688300546
 20
124.6097945175614
 30
0.0
 10
571.3518605195469
 20
123.2156722739585
 30
0.0
 10
572.8845358703669
 20
121.9691830673932
 30
0.0
 10
574.5048449159725
 20
120.8701100551403
 30
0.0
 10
576.2110369824653
 20
119.9285944953732
 30
0.0
 10
577.7531745563472
 20
119.2204042361089
 30
0.0
 10
578.7517012583647
 20
118.8907103948043
 30
0.0
 10
579.1298762951209
 20
118.7658444495053
 30
0.0
  0
SPLINE
  5
1CF
330
1F
100
AcDbEntity
  8
0
  6
Continuous
 62
     7
370
    15
100
AcDbSpline
210
0.0
220
0.0
230
1.0
 70
     8
 71
     3
 72
    25
 73
    21
 74
     0
 42
0.000000001
 43
0.00000001
 40
0.0
 40
0.0
 40
0.0
 40
0.0
 40
0.0192311721074333
 40
0.0763888570477691
 40
0.133267469348738
 40
0.1900026699903427
 40
0.2467147838038501
 40
0.3035273119032749
 40
0.3605756845958022
 40
0.4179727585714588
 40
0.4757999139937114
 40
0.5341016406705251
 40
0.5928845317214357
 40
0.6521210018606834
 40
0.7117570556486403
 40
0.7717224291691154
 40
0.8319409301346186
 40
0.8923390679092897
 40
0.9528519077340386
 40
0.9999999999999999
 40
0.9999999999999999
 40
0.9999999999999999
 40
0.9999999999999999
 10
637.0857629888034
 20
219.0751505836401
 30
0.0
 10
636.923305514735
 20
219.2262961123289
 30
0.0
 10
636.2780021139016
 20
219.8266669123985
 30
0.0
 10
635.0468675207077
 20
220.7335039594032
 30
0.0
 10
633.4023821367763
 20
221.7866719330765
 30
0.0
 10
631.6695253468106
 20
222.6790614628677
 30
0.0
 10
629.8626041516866
 20
223.4212380876506
 30
0.0
 10
627.9839572741141
 20
224.0088038737419
 30
0.0
 10
626.0384965918356
 20
224.4414561214698
 30
0.0
 10
624.0300207253289
 20
224.7176787760221
 30
0.0
 10
621.962832757045
 20
224.8360944764232
 30
0.0
 10
619.8417381322637
 20
224.7952829656045
 30
0.0
 10
617.672309846183
 20
224.5941525080917
 30
0.0
 10
615.4609229417208
 20
224.2321665272756
 30
0.0
 10
613.2146631414008
 20
223.7096687078991
 30
0.0
 10
610.9411513691731
 20
223.0276662152007
 30
0.0
 10
608.6481874553037
 20
222.1891362479368
 30
0.0
 10
606.3438929422881
 20
221.1941012986008
 30
0.0
 10
604.2058806377355
 20
220.1417249195476
 30
0.0
 10
602.84086270803
 20
219.3737095196943
 30
0.0
 10
602.243078627541
 20
219.0373715349604
 30
0.0
  0
SPLINE
  5
1D0
330
1F
100
AcDbEntity
  8
0
  6
Continuous
 62
     7
370
    15
100
AcDbSpline
210
0.0
220
0.0
230
1.0
 70
     8
 71
     3
 72
    27
 73
    23
 74
     0
 42
0.000000001
 43
0.00000001
 40
0.0
 40
0.0
 40
0.0
 40
0.0
 40
0.0054721118782524
 40
0.0595709497098603
 40
0.1138159855501343
 40
0.1682107110866641
 40
0.2227470996054042
 40
0.2774100407295846
 40
0.3321802161169731
 40
0.3870359176598752
 40
0.4419541538530732
 40
0.4969112847204764
 40
0.5518833544608466
 40
0.60684268716866
 40
0.6617605964311322
 40
0.7166128724821507
 40
0.7713754756464847
 40
0.8260248983392313
 40
0.8805388516003455
 40
0.9348974489986096
 40
0.9890851333809144
 40
1.0
 40
1.0
 40
1.0
 40
1.0
 10
657.6193577009969
 20
161.4121137261718
 30
0.0
 10
657.6156295945499
 20
161.3531371695509
 30
0.0
 10
657.5750443787107
 20
160.7111017787014
 30
0.0
 10
657.3942481945057
 20
159.420107941117
 30
0.0
 10
657.067962106019
 20
157.5485342422116
 30
0.0
 10
656.6197774977903
 20
155.6244337010787
 30
0.0
 10
656.0653838700107
 20
153.6698377830179
 30
0.0
 10
655.4031815643029
 20
151.6953260613165
 30
0.0
 10
654.637481594035
 20
149.7147776590334
 30
0.0
 10
653.7722014993408
 20
147.7412323104062
 30
0.0
 10
652.8124929857788
 20
145.7878554169136
 30
0.0
 10
651.7642374720291
 20
143.8675485610348
 30
0.0
 10
650.6341415286164
 20
141.9929732921372
 30
0.0
 10
649.4296728640646
 20
140.1764548603738
 30
0.0
 10
648.1589959183989
 20
138.4298081945601
 30
0.0
 10
646.8308947932046
 20
136.7643299015204
 30
0.0
 10
645.4546937163619
 20
135.1902554225691
 30
0.0
 10
644.0403090672711
 20
133.7183866625909
 30
0.0
 10
642.5979470497226
 20
132.3537491335333
 30
0.0
 10
641.138964219421
 20
131.1186571884127
 30
0.0
 10
640.0611505621638
 20
130.2718928458611
 30
0.0
 10
639.4754441489073
 20
129.8789345156119
 30
0.0
 10
639.3772466546417
 20
129.8130524926258
 30
0.0
  0
SPLINE
  5
1D1
330
1F
100
AcDbEntity
  8
0
  6
Continuous
 62
     7
370
    15
100
AcDbSpline
210
0.0
220
0.0
230
1.0
 70
     8
 71
     3
 72
    53
 73
    49
 74
     0
 42
0.000000001
 43
0.00000001
 40
0.0
 40
0.0
 40
0.0
 40
0.0
 40
0.011905083870615
 40
0.0343359323622049
 40
0.056753154064064
 40
0.0791558886799176
 40
0.1015409378975653
 40
0.1239069242914408
 40
0.1462537972581325
 40
0.1685824488424634
 40
0.1908944251300174
 40
0.2131917157959517
 40
0.2354766046793451
 40
0.2577515664633141
 40
0.2800191972681024
 40
0.3022821695223384
 40
0.3245432035895888
 40
0.3468050502182438
 40
0.3690696305493815
 40
0.3913396532395522
 40
0.4136179004948676
 40
0.4359071393851056
 40
0.4582100956538537
 40
0.4805294116576138
 40
0.5028675809437463
 40
0.5252268498172955
 40
0.5476090735168597
 40
0.5700155115161643
 40
0.5924465435121988
 40
0.6149012860189185
 40
0.6373770914271141
 40
0.6598689208570118
 40
0.6823677430872205
 40
0.7048573442863625
 40
0.7273193863449343
 40
0.7497305046764887
 40
0.7720628306795879
 40
0.7942856213867029
 40
0.8163681792170144
 40
0.8382838808525391
 40
0.8600146595592988
 40
0.8815549375568815
 40
0.902914021271144
 40
0.9241163868241804
 40
0.9451998720629066
 40
0.9662122504697443
 40
0.9872034634680317
 40
1.0
 40
1.0
 40
1.0
 40
1.0
 10
594.464904034489
 20
223.5276161499852
 30
0.0
 10
594.0578401469321
 20
223.2884411715919
 30
0.0
 10
592.8838107774499
 20
222.5986269737168
 30
0.0
 10
590.9529097941511
 20
221.3509542456278
 30
0.0
 10
588.6834362431524
 20
219.7451112136436
 30
0.0
 10
586.4403411891216
 20
218.0087960962207
 30
0.0
 10
584.2294212079727
 20
216.1500698410388
 30
0.0
 10
582.0566397659617
 20
214.1741858313698
 30
0.0
 10
579.9277653418396
 20
212.0874393970235
 30
0.0
 10
577.8484477111136
 20
209.8961041574265
 30
0.0
 10
575.8242082635609
 20
207.6067145451931
 30
0.0
 10
573.8604438957695
 20
205.2259862159626
 30
0.0
 10
571.9624202160766
 20
202.760830190912
 30
0.0
 10
570.1352627052968
 20
200.2183382287671
 30
0.0
 10
568.3839453278702
 20
197.6057722053099
 30
0.0
 10
566.7132781835253
 20
194.930549004024
 30
0.0
 10
565.1278949245549
 20
192.200223635184
 30
0.0
 10
563.6322596271671
 20
189.4225056321794
 30
0.0
 10
562.2306327704047
 20
186.6052087959802
 30
0.0
 10
560.9270586661181
 20
183.7562254428827
 30
0.0
 10
559.7253435942163
 20
180.8834665299445
 30
0.0
 10
558.6290677868866
 20
177.9948720614094
 30
0.0
 10
557.6415831762897
 20
175.0983933418033
 30
0.0
 10
556.7660118848545
 20
172.2019737926786
 30
0.0
 10
556.005246942269
 20
169.3135324133946
 30
0.0
 10
555.3619549628239
 20
166.4409511256331
 30
0.0
 10
554.8385801705482
 20
163.5920674941618
 30
0.0
 10
554.4373486339992
 20
160.7746745556908
 30
0.0
 10
554.1602708061489
 20
157.9965296309337
 30
0.0
 10
554.0091394029564
 20
155.2653738829692
 30
0.0
 10
553.9855182939468
 20
152.588963747611
 30
0.0
 10
554.0907151964525
 20
149.9751472060518
 30
0.0
 10
554.3257132116694
 20
147.4320325231562
 30
0.0
 10
554.6910629189468
 20
144.9679199302069
 30
0.0
 10
555.186761327061
 20
142.59128995592
 30
0.0
 10
555.8121403499973
 20
140.3106750109523
 30
0.0
 10
556.5657021220685
 20
138.1346629686919
 30
0.0
 10
557.4449847001238
 20
136.0717151651991
 30
0.0
 10
558.4464902988883
 20
134.1299030423286
 30
0.0
 10
559.5657202682576
 20
132.3166093134073
 30
0.0
 10
560.7973233821394
 20
130.638225670838
 30
0.0
 10
562.1353942370022
 20
129.1000391325867
 30
0.0
 10
563.5736859264944
 20
127.7059168889838
 30
0.0
 10
565.1063612773144
 20
126.4594276824184
 30
0.0
 10
566.72667032292
 20
125.3603546701655
 30
0.0
 10
568.4328623894128
 20
124.4188391103983
 30
0.0
 10
569.974999963295
 20
123.7106488511339
 30
0.0
 10
570.9735266653126
 20
123.3809550098292
 30
0.0
 10
571.3517017020689
 20
123.2560890645302
 30
0.0
  0
SPLINE
  5
1D2
330
1F
100
AcDbEntity
  8
0
  6
Continuous
 62
     7
370
    15
100
AcDbSpline
210
0.0
220
0.0
230
1.0
 70
     8
 71
     3
 72
    25
 73
    21
 74
     0
 42
0.000000001
 43
0.00000001
 40
0.0
 40
0.0
 40
0.0
 40
0.0
 40
0.0192311721074293
 40
0.0763888570477631
 40
0.1332674693487347
 40
0.1900026699903375
 40
0.246714783803846
 40
0.3035273119032708
 40
0.360575684595795
 40
0.4179727585714566
 40
0.475799913993708
 40
0.5341016406705207
 40
0.5928845317214332
 40
0.6521210018606818
 40
0.7117570556486378
 40
0.7717224291691148
 40
0.8319409301346169
 40
0.8923390679092861
 40
0.9528519077340348
 40
1.0
 40
1.0
 40
1.0
 40
1.0
 10
629.3075883957514
 20
223.565395198665
 30
0.0
 10
629.1451309216832
 20
223.7165407273537
 30
0.0
 10
628.4998275208497
 20
224.3169115274233
 30
0.0
 10
627.2686929276558
 20
225.223748574428
 30
0.0
 10
625.6242075437244
 20
226.2769165481014
 30
0.0
 10
623.8913507537587
 20
227.1693060778925
 30
0.0
 10
622.0844295586347
 20
227.9114827026754
 30
0.0
 10
620.2057826810624
 20
228.4990484887667
 30
0.0
 10
618.2603219987838
 20
228.9317007364947
 30
0.0
 10
616.2518461322771
 20
229.207923391047
 30
0.0
 10
614.1846581639932
 20
229.3263390914481
 30
0.0
 10
612.0635635392118
 20
229.2855275806294
 30
0.0
 10
609.8941352531311
 20
229.0843971231167
 30
0.0
 10
607.682748348669
 20
228.7224111423005
 30
0.0
 10
605.436488548349
 20
228.199913322924
 30
0.0
 10
603.1629767761212
 20
227.5179108302257
 30
0.0
 10
600.8700128622518
 20
226.6793808629617
 30
0.0
 10
598.5657183492362
 20
225.6843459136258
 30
0.0
 10
596.4277060446835
 20
224.6319695345725
 30
0.0
 10
595.0626881149782
 20
223.8639541347192
 30
0.0
 10
594.464904034489
 20
223.5276161499852
 30
0.0
  0
SPLINE
  5
1D3
330
1F
100
AcDbEntity
  8
0
  6
Continuous
 62
     7
370
    15
100
AcDbSpline
210
0.0
220
0.0
230
1.0
 70
     8
 71
     3
 72
    53
 73
    49
 74
     0
 42
0.000000001
 43
0.00000001
 40
0.0
 40
0.0
 40
0.0
 40
0.0
 40
0.011905083870615
 40
0.0343359323622048
 40
0.0567531540640648
 40
0.0791558886799174
 40
0.101540937897566
 40
0.1239069242914415
 40
0.1462537972581331
 40
0.168582448842466
 40
0.1908944251300182
 40
0.2131917157959535
 40
0.2354766046793459
 40
0.2577515664633153
 40
0.2800191972681028
 40
0.30228216952234
 40
0.3245432035895895
 40
0.3468050502182456
 40
0.3690696305493838
 40
0.3913396532395537
 40
0.4136179004948695
 40
0.4359071393851079
 40
0.4582100956538557
 40
0.4805294116576159
 40
0.5028675809437483
 40
0.5252268498172974
 40
0.5476090735168613
 40
0.5700155115161666
 40
0.5924465435122018
 40
0.6149012860189212
 40
0.6373770914271167
 40
0.6598689208570133
 40
0.682367743087222
 40
0.7048573442863639
 40
0.7273193863449356
 40
0.7497305046764898
 40
0.7720628306795898
 40
0.7942856213867056
 40
0.816368179217017
 40
0.8382838808525407
 40
0.8600146595593003
 40
0.8815549375568839
 40
0.902914021271145
 40
0.9241163868241815
 40
0.9451998720629077
 40
0.9662122504697455
 40
0.9872034634680327
 40
1.0
 40
1.0
 40
1.0
 40
1.0
 10
586.686729441437
 20
228.0178607650101
 30
0.0
 10
586.2796655538801
 20
227.7786857866168
 30
0.0
 10
585.1056361843979
 20
227.0888715887417
 30
0.0
 10
583.174735201099
 20
225.8411988606528
 30
0.0
 10
580.9052616501004
 20
224.2353558286685
 30
0.0
 10
578.6621665960695
 20
222.4990407112456
 30
0.0
 10
576.4512466149207
 20
220.6403144560637
 30
0.0
 10
574.2784651729097
 20
218.6644304463946
 30
0.0
 10
572.1495907487875
 20
216.5776840120483
 30
0.0
 10
570.0702731180616
 20
214.3863487724513
 30
0.0
 10
568.0460336705088
 20
212.0969591602179
 30
0.0
 10
566.0822693027175
 20
209.7162308309874
 30
0.0
 10
564.1842456230245
 20
207.2510748059368
 30
0.0
 10
562.3570881122447
 20
204.708582843792
 30
0.0
 10
560.6057707348181
 20
202.0960168203347
 30
0.0
 10
558.9351035904732
 20
199.4207936190488
 30
0.0
 10
557.3497203315028
 20
196.6904682502088
 30
0.0
 10
555.8540850341151
 20
193.9127502472041
 30
0.0
 10
554.4524581773526
 20
191.0954534110049
 30
0.0
 10
553.1488840730661
 20
188.2464700579074
 30
0.0
 10
551.9471690011642
 20
185.3737111449692
 30
0.0
 10
550.8508931938345
 20
182.485116676434
 30
0.0
 10
549.8634085832376
 20
179.588637956828
 30
0.0
 10
548.9878372918024
 20
176.6922184077034
 30
0.0
 10
548.2270723492169
 20
173.8037770284193
 30
0.0
 10
547.583780369772
 20
170.9311957406579
 30
0.0
 10
547.0604055774961
 20
168.0823121091865
 30
0.0
 10
546.6591740409473
 20
165.2649191707155
 30
0.0
 10
546.3820962130969
 20
162.4867742459584
 30
0.0
 10
546.2309648099044
 20
159.7556184979939
 30
0.0
 10
546.2073437008947
 20
157.0792083626357
 30
0.0
 10
546.3125406034004
 20
154.4653918210766
 30
0.0
 10
546.5475386186174
 20
151.922277138181
 30
0.0
 10
546.9128883258949
 20
149.4581645452317
 30
0.0
 10
547.408586734009
 20
147.0815345709448
 30
0.0
 10
548.0339657569455
 20
144.8009196259771
 30
0.0
 10
548.7875275290165
 20
142.6249075837167
 30
0.0
 10
549.6668101070719
 20
140.5619597802239
 30
0.0
 10
550.6683157058363
 20
138.6201476573534
 30
0.0
 10
551.7875456752057
 20
136.8068539284322
 30
0.0
 10
553.0191487890875
 20
135.1284702858629
 30
0.0
 10
554.3572196439502
 20
133.5902837476116
 30
0.0
 10
555.7955113334424
 20
132.1961615040086
 30
0.0
 10
557.3281866842624
 20
130.9496722974433
 30
0.0
 10
558.948495729868
 20
129.8505992851904
 30
0.0
 10
560.6546877963608
 20
128.9090837254232
 30
0.0
 10
562.1968253702429
 20
128.2008934661588
 30
0.0
 10
563.1953520722606
 20
127.8711996248541
 30
0.0
 10
563.5735271090168
 20
127.7463336795551
 30
0.0
  0
SPLINE
  5
1D4
330
1F
100
AcDbEntity
  8
0
  6
Continuous
 62
     7
370
    15
100
AcDbSpline
210
0.0
220
0.0
230
1.0
 70
     8
 71
     3
 72
    25
 73
    21
 74
     0
 42
0.000000001
 43
0.00000001
 40
0.0
 40
0.0
 40
0.0
 40
0.0
 40
0.0192311721074204
 40
0.076388857047756
 40
0.1332674693487288
 40
0.1900026699903297
 40
0.2467147838038361
 40
0.3035273119032638
 40
0.3605756845957863
 40
0.4179727585714459
 40
0.4757999139937003
 40
0.534101640670508
 40
0.5928845317214234
 40
0.6521210018606691
 40
0.7117570556486222
 40
0.7717224291691012
 40
0.8319409301346051
 40
0.8923390679092724
 40
0.9528519077340222
 40
1.0
 40
1.0
 40
1.0
 40
1.0
 10
621.5294138026994
 20
228.0556398136899
 30
0.0
 10
621.3669563286312
 20
228.2067853423785
 30
0.0
 10
620.7216529277979
 20
228.8071561424481
 30
0.0
 10
619.4905183346041
 20
229.7139931894527
 30
0.0
 10
617.8460329506727
 20
230.7671611631262
 30
0.0
 10
616.113176160707
 20
231.6595506929173
 30
0.0
 10
614.306254965583
 20
232.4017273177002
 30
0.0
 10
612.4276080880106
 20
232.9892931037916
 30
0.0
 10
610.4821474057321
 20
233.4219453515195
 30
0.0
 10
608.4736715392254
 20
233.6981680060719
 30
0.0
 10
606.4064835709415
 20
233.816583706473
 30
0.0
 10
604.2853889461602
 20
233.7757721956543
 30
0.0
 10
602.1159606600796
 20
233.5746417381416
 30
0.0
 10
599.9045737556174
 20
233.2126557573255
 30
0.0
 10
597.6583139552976
 20
232.690157937949
 30
0.0
 10
595.3848021830697
 20
232.0081554452507
 30
0.0
 10
593.0918382692004
 20
231.1696254779868
 30
0.0
 10
590.7875437561847
 20
230.1745905286509
 30
0.0
 10
588.6495314516319
 20
229.1222141495975
 30
0.0
 10
587.2845135219263
 20
228.3541987497442
 30
0.0
 10
586.686729441437
 20
228.0178607650101
 30
0.0
  0
SPLINE
  5
1D5
330
1F
100
AcDbEntity
  8
0
  6
Continuous
 62
     7
370
    15
100
AcDbSpline
210
0.0
220
0.0
230
1.0
 70
     8
 71
     3
 72
    53
 73
    49
 74
     0
 42
0.000000001
 43
0.00000001
 40
0.0
 40
0.0
 40
0.0
 40
0.0
 40
0.011905083870615
 40
0.0343359323622048
 40
0.0567531540640648
 40
0.0791558886799174
 40
0.101540937897566
 40
0.1239069242914415
 40
0.1462537972581331
 40
0.168582448842466
 40
0.1908944251300183
 40
0.2131917157959536
 40
0.2354766046793462
 40
0.2577515664633166
 40
0.2800191972681033
 40
0.3022821695223402
 40
0.3245432035895914
 40
0.3468050502182465
 40
0.3690696305493852
 40
0.3913396532395548
 40
0.4136179004948703
 40
0.4359071393851074
 40
0.4582100956538551
 40
0.4805294116576176
 40
0.5028675809437487
 40
0.5252268498172975
 40
0.5476090735168624
 40
0.5700155115161666
 40
0.5924465435122016
 40
0.6149012860189208
 40
0.6373770914271162
 40
0.6598689208570144
 40
0.6823677430872238
 40
0.7048573442863665
 40
0.7273193863449378
 40
0.7497305046764926
 40
0.7720628306795922
 40
0.7942856213867074
 40
0.8163681792170184
 40
0.8382838808525426
 40
0.8600146595593017
 40
0.8815549375568859
 40
0.9029140212711467
 40
0.9241163868241841
 40
0.94519987206291
 40
0.9662122504697462
 40
0.9872034634680334
 40
1.0
 40
1.0
 40
1.0
 40
1.0
 10
578.908554848385
 20
232.508105380035
 30
0.0
 10
578.5014909608282
 20
232.2689304016417
 30
0.0
 10
577.3274615913459
 20
231.5791162037666
 30
0.0
 10
575.396560608047
 20
230.3314434756777
 30
0.0
 10
573.1270870570485
 20
228.7256004436934
 30
0.0
 10
570.8839920030175
 20
226.9892853262704
 30
0.0
 10
568.6730720218686
 20
225.1305590710886
 30
0.0
 10
566.5002905798577
 20
223.1546750614195
 30
0.0
 10
564.3714161557356
 20
221.0679286270732
 30
0.0
 10
562.2920985250096
 20
218.8765933874762
 30
0.0
 10
560.2678590774568
 20
216.5872037752427
 30
0.0
 10
558.3040947096655
 20
214.2064754460123
 30
0.0
 10
556.4060710299724
 20
211.7413194209616
 30
0.0
 10
554.5789135191927
 20
209.1988274588168
 30
0.0
 10
552.827596141766
 20
206.5862614353595
 30
0.0
 10
551.1569289974212
 20
203.9110382340736
 30
0.0
 10
549.5715457384507
 20
201.1807128652336
 30
0.0
 10
548.075910441063
 20
198.4029948622288
 30
0.0
 10
546.6742835843005
 20
195.5856980260297
 30
0.0
 10
545.370709480014
 20
192.7367146729322
 30
0.0
 10
544.1689944081122
 20
189.863955759994
 30
0.0
 10
543.0727186007825
 20
186.9753612914589
 30
0.0
 10
542.0852339901855
 20
184.0788825718529
 30
0.0
 10
541.2096626987504
 20
181.1824630227282
 30
0.0
 10
540.4488977561649
 20
178.2940216434441
 30
0.0
 10
539.8056057767199
 20
175.4214403556827
 30
0.0
 10
539.2822309844443
 20
172.5725567242114
 30
0.0
 10
538.8809994478952
 20
169.7551637857404
 30
0.0
 10
538.603921620045
 20
166.9770188609833
 30
0.0
 10
538.4527902168523
 20
164.2458631130188
 30
0.0
 10
538.4291691078428
 20
161.5694529776606
 30
0.0
 10
538.5343660103484
 20
158.9556364361014
 30
0.0
 10
538.7693640255654
 20
156.4125217532057
 30
0.0
 10
539.1347137328429
 20
153.9484091602564
 30
0.0
 10
539.6304121409571
 20
151.5717791859695
 30
0.0
 10
540.2557911638935
 20
149.2911642410018
 30
0.0
 10
541.0093529359646
 20
147.1151521987414
 30
0.0
 10
541.88863551402
 20
145.0522043952486
 30
0.0
 10
542.8901411127845
 20
143.1103922723781
 30
0.0
 10
544.0093710821537
 20
141.2970985434569
 30
0.0
 10
545.2409741960356
 20
139.6187149008877
 30
0.0
 10
546.5790450508982
 20
138.0805283626364
 30
0.0
 10
548.0173367403905
 20
136.6864061190334
 30
0.0
 10
549.5500120912105
 20
135.4399169124681
 30
0.0
 10
551.1703211368161
 20
134.3408439002152
 30
0.0
 10
552.8765132033088
 20
133.3993283404481
 30
0.0
 10
554.4186507771909
 20
132.6911380811837
 30
0.0
 10
555.4171774792086
 20
132.361444239879
 30
0.0
 10
555.7953525159647
 20
132.23657829458
 30
0.0
  0
SPLINE
  5
1D6
330
1F
100
AcDbEntity
  8
0
  6
Continuous
 62
     7
370
    15
100
AcDbSpline
210
0.0
220
0.0
230
1.0
 70
     8
 71
     3
 72
    25
 73
    21
 74
     0
 42
0.000000001
 43
0.00000001
 40
0.0
 40
0.0
 40
0.0
 40
0.0
 40
0.0192311721074164
 40
0.0763888570477542
 40
0.1332674693487229
 40
0.1900026699903297
 40
0.2467147838038381
 40
0.303527311903265
 40
0.3605756845957901
 40
0.4179727585714468
 40
0.4757999139937013
 40
0.5341016406705119
 40
0.5928845317214224
 40
0.6521210018606681
 40
0.711757055648624
 40
0.7717224291691059
 40
0.8319409301346071
 40
0.8923390679092773
 40
0.9528519077340241
 40
1.0
 40
1.0
 40
1.0
 40
1.0
 10
613.7512392096475
 20
232.5458844287148
 30
0.0
 10
613.5887817355793
 20
232.6970299574034
 30
0.0
 10
612.9434783347459
 20
233.2974007574729
 30
0.0
 10
611.7123437415522
 20
234.2042378044775
 30
0.0
 10
610.0678583576207
 20
235.257405778151
 30
0.0
 10
608.335001567655
 20
236.1497953079421
 30
0.0
 10
606.528080372531
 20
236.8919719327251
 30
0.0
 10
604.6494334949585
 20
237.4795377188165
 30
0.0
 10
602.70397281268
 20
237.9121899665444
 30
0.0
 10
600.6954969461734
 20
238.1884126210968
 30
0.0
 10
598.6283089778894
 20
238.3068283214978
 30
0.0
 10
596.5072143531081
 20
238.2660168106792
 30
0.0
 10
594.3377860670275
 20
238.0648863531665
 30
0.0
 10
592.1263991625655
 20
237.7029003723504
 30
0.0
 10
589.8801393622455
 20
237.1804025529739
 30
0.0
 10
587.6066275900176
 20
236.4984000602756
 30
0.0
 10
585.3136636761482
 20
235.6598700930116
 30
0.0
 10
583.0093691631326
 20
234.6648351436757
 30
0.0
 10
580.8713568585798
 20
233.6124587646224
 30
0.0
 10
579.5063389288742
 20
232.8444433647691
 30
0.0
 10
578.908554848385
 20
232.508105380035
 30
0.0
  0
LWPOLYLINE
  5
1D7
330
1F
100
AcDbEntity
  8
0
  6
Continuous
 62
     7
370
    15
100
AcDbPolyline
 90
      132
 70
   128
 43
0.0
 10
667.1754196184
 20
202.1905745899
 10
664.3784934849
 20
200.4984731125
 10
661.5880003711
 20
198.6553227449
 10
658.8103585006
 20
196.6653627921
 10
656.0519565388
 20
194.5331702257
 10
653.3191388985
 20
192.263649157
 10
650.6181911479
 20
189.862019557
 10
647.9553255533
 20
187.333805251
 10
645.336666791
 20
184.6848212127
 10
642.7682378601
 20
181.9211601904
 10
640.2559462293
 20
179.0491786929
 10
637.80557025
 20
176.0754823699
 10
635.4227458654
 20
173.006910818
 10
633.112953648
 20
169.8505218502
 10
630.8815061938
 20
166.6135752622
 10
628.7335359036
 20
163.3035161351
 10
626.6739831778
 20
159.9279577107
 10
624.7075850537
 20
156.4946638817
 10
622.83886431
 20
153.0115313339
 10
621.0721190643
 20
149.4865713837
 10
619.4114128872
 20
145.9278915521
 10
617.8605654563
 20
142.3436769167
 10
616.4231437702
 20
138.7421712859
 10
615.102453945
 20
135.1316582381
 10
613.9015336096
 20
131.5204420692
 10
612.8231449191
 20
127.9168286919
 10
611.8697682022
 20
124.3291065325
 10
611.0435962558
 20
120.7655274669
 10
610.346529302
 20
117.2342878413
 10
609.780170617
 20
113.7435096198
 10
609.3458228439
 20
110.3012217044
 10
609.0444849966
 20
106.9153414674
 10
608.8768501617
 20
103.593656542
 10
608.8433039049
 20
100.3438069098
 10
608.9439233834
 20
97.1732673293
 10
609.1784771693
 20
94.089330143
 10
609.5464257814
 20
91.0990885053
 10
610.0469229261
 20
88.2094200678
 10
610.6788174438
 20
85.4269711605
 10
611.4406559571
 20
82.758141505
 10
612.3306862127
 20
80.2090694951
 10
613.3468611128
 20
77.7856180781
 10
614.4868434224
 20
75.4933612699
 10
615.7480111456
 20
73.3375713346
 10
617.1274635564
 20
71.3232066582
 10
618.6220278699
 20
69.4549003439
 10
620.2282665403
 20
67.7369495562
 10
621.9424851673
 20
66.1733056369
 10
623.760740993
 20
64.7675650171
 10
625.6788519708
 20
63.5229609454
 10
627.6924063839
 20
62.4423560509
 10
629.7967729928
 20
61.5282357596
 10
631.9871116867
 20
60.7827025773
 10
634.2583846164
 20
60.2074712544
 10
636.6053677816
 20
59.8038648413
 10
639.0226630455
 20
59.5728116457
 10
641.5047105518
 20
59.5148430973
 10
644.0458015115
 20
59.6300925257
 10
646.6400913341
 20
59.9182948535
 10
649.2816130698
 20
60.378787206
 10
651.964291134
 20
61.0105104362
 10
654.6819552811
 20
61.8120115603
 10
657.4283547966
 20
62.7814471
 10
660.1971728735
 20
63.9165873227
 10
662.9820411415
 20
65.2148213693
 10
665.7765543144
 20
66.67316326
 10
668.5742849224
 20
68.2882587617
 10
671.3687980953
 20
70.056393103
 10
674.1536663634
 20
71.9734995182
 10
676.9224844403
 20
74.0351686011
 10
679.6688839557
 20
76.2366584469
 10
682.3865481029
 20
78.5729055582
 10
685.069226167
 20
81.0385364919
 10
687.7107479027
 20
83.6278802178
 10
690.3050377253
 20
86.3349811624
 10
692.8461286851
 20
89.1536129067
 10
695.3281761913
 20
92.0772925074
 10
697.7454714553
 20
95.0992954078
 10
700.0924546204
 20
98.2126709043
 10
702.3637275502
 20
101.4102581335
 10
704.5540662441
 20
104.6847025423
 10
706.6584328529
 20
108.0284728036
 10
708.6719872661
 20
111.4338781388
 10
710.5900982438
 20
114.8930860063
 10
712.4083540696
 20
118.3981401173
 10
714.1225726965
 20
121.9409787349
 10
715.728811367
 20
125.5134532169
 10
717.2233756805
 20
129.1073467574
 10
718.6028280912
 20
132.7143932861
 10
719.8639958145
 20
136.3262964804
 10
721.003978124
 20
139.9347488472
 10
722.0201530241
 20
143.5314508305
 10
722.9101832798
 20
147.1081299004
 10
723.672021793
 20
150.6565595804
 10
724.3039163108
 20
154.1685783686
 10
724.8044134554
 20
157.6361085092
 10
725.1723620675
 20
161.0511745718
 10
725.4069158535
 20
164.405921795
 10
725.507535332
 20
167.6926341526
 10
725.4739890751
 20
170.903752101
 10
725.3063542402
 20
174.0318899659
 10
725.0050163929
 20
177.06985293
 10
724.5706686199
 20
180.0106535811
 10
724.0043099349
 20
182.8475279836
 10
723.307242981
 20
185.5739512353
 10
722.4810710346
 20
188.1836524754
 10
721.5276943177
 20
190.6706293075
 10
720.4493056273
 20
193.0291616051
 10
719.2483852918
 20
195.2538246683
 10
717.9276954666
 20
197.3395017009
 10
716.4902737806
 20
199.2813955788
 10
714.9394263496
 20
201.0750398839
 10
713.2787201726
 20
202.7163091768
 10
711.5119749269
 20
204.2014284854
 10
709.6432541832
 20
205.5269819879
 10
707.6768560591
 20
206.6899208687
 10
705.6173033333
 20
207.6875703311
 10
703.469333043
 20
208.5176357493
 10
701.2378855889
 20
209.1782079463
 10
698.9280933714
 20
209.6677675849
 10
696.5452689868
 20
209.9851886622
 10
694.0948930075
 20
210.1297410996
 10
691.5826013767
 20
210.1010924218
 10
689.0141724458
 20
209.8993085217
 10
686.3955136835
 20
209.5248535088
 10
683.732648089
 20
208.9785886415
 10
681.0317003383
 20
208.2617703466
 10
678.298882698
 20
207.3760473291
 10
675.5404807362
 20
206.3234567804
 10
672.7628388657
 20
205.1064196924
 10
669.9723457519
 20
203.7277352895
 10
667.1754196184
 20
202.1905745899
  0
LWPOLYLINE
  5
1D8
330
1F
100
AcDbEntity
  8
0
  6
Continuous
 62
     7
370
    15
100
AcDbPolyline
 90
       16
 70
   128
 43
0.0
 10
667.1754196184
 20
187.4928399759
 10
669.6660578598
 20
188.8520654895
 10
672.1492630577
 20
190.050055863
 10
674.6176243519
 20
191.0832358224
 10
677.0637751822
 20
191.9485219525
 10
679.480415273
 20
192.6433318995
 10
681.8603324205
 20
193.1655920774
 10
684.1964240164
 20
193.5137438566
 10
686.4817182455
 20
193.6867482153
 10
688.7093948914
 20
193.6840888405
 10
690.8728056915
 20
193.5057736688
 10
692.9654941776
 20
193.1523348629
 10
694.9812149449
 20
192.6248272229
 10
696.9139522903
 20
191.9248250391
 10
698.7579381659
 20
191.0544173931
 10
699.4227987459
 20
190.6861092328
  0
LWPOLYLINE
  5
1D9
330
1F
100
AcDbEntity
  8
0
  6
Continuous
 62
     7
370
    15
100
AcDbPolyline
 90
       45
 70
   128
 43
0.0
 10
634.9280404909
 20
78.9658059857
 10
634.7059204787
 20
79.0958115986
 10
633.0052929825
 20
80.2168000205
 10
631.4066425741
 20
81.5007636319
 10
629.9147402549
 20
82.9438705808
 10
628.5340384475
 20
84.5418140688
 10
627.268657709
 20
86.2898252045
 10
626.1223744328
 20
88.1826872357
 10
625.0986095786
 20
90.2147511181
 10
624.2004184632
 20
92.3799523744
 10
623.430481642
 20
94.671829193
 10
622.7910969089
 20
97.0835417128
 10
622.2841724393
 20
99.6078924357
 10
621.9112210951
 20
102.237347707
 10
621.6733559097
 20
104.9640601986
 10
621.5712867663
 20
107.7798923289
 10
621.6053182793
 20
110.6764405481
 10
621.7753488853
 20
113.6450604177
 10
622.0808711462
 20
116.6768924094
 10
622.5209732634
 20
119.7628883448
 10
623.0943417993
 20
122.8938383992
 10
623.7992655967
 20
126.0603985871
 10
624.6336408861
 20
129.2531186482
 10
625.5949775636
 20
132.4624702512
 10
626.6804066227
 20
135.6788754293
 10
627.8866887166
 20
138.8927351655
 10
629.2102238253
 20
142.094458039
 10
630.6470619998
 20
145.2744888505
 10
632.1929151504
 20
148.4233371381
 10
633.8431698436
 20
151.531605501
 10
635.5929010709
 20
154.5900176447
 10
637.4368869465
 20
157.5894460653
 10
639.3696242919
 20
160.5209392894
 10
641.3853450592
 20
163.3757485893
 10
643.4780335454
 20
166.1453540918
 10
645.6414443455
 20
168.8214902056
 10
647.8691209914
 20
171.3961702887
 10
650.1544152204
 20
173.8617104839
 10
652.4905068164
 20
176.2107526501
 10
654.8704239639
 20
178.4362863222
 10
657.2870640546
 20
180.5316696331
 10
659.7332148849
 20
182.4906491354
 10
662.2015761791
 20
184.3073784643
 10
664.6847813771
 20
185.9764357855
 10
667.1754196184
 20
187.4928399759
  0
LWPOLYLINE
  5
1DA
330
1F
100
AcDbEntity
  8
0
  6
Continuous
 62
     7
370
    15
100
AcDbPolyline
 90
       33
 70
   128
 43
0.0
 10
667.1754196184
 20
200.1492225602
 10
666.4856711702
 20
199.6725912429
 10
665.8224293681
 20
199.0573805724
 10
665.2111822224
 20
198.3272327499
 10
664.6754196184
 20
197.5102069465
 10
664.2357306124
 20
196.6377010058
 10
663.9090122062
 20
195.7432448418
 10
663.7078200051
 20
194.8612119032
 10
663.6398857125
 20
194.0254982212
 10
663.7078200051
 20
193.2682198039
 10
663.9090122062
 20
192.6184784362
 10
664.2357306124
 20
192.1012433145
 10
664.6754196184
 20
191.7363914945
 10
665.2111822224
 20
191.537944027
 10
665.8224293681
 20
191.5135271368
 10
666.4856711702
 20
191.6640791514
 10
667.1754196184
 20
191.9838144413
 10
667.8651680666
 20
192.4604457586
 10
668.5284098688
 20
193.075656429
 10
669.1396570144
 20
193.8058042516
 10
669.6754196184
 20
194.6228300549
 10
670.1151086245
 20
195.4953359956
 10
670.4418270306
 20
196.3897921597
 10
670.6430192317
 20
197.2718250983
 10
670.7109535243
 20
198.1075387803
 10
670.6430192317
 20
198.8648171976
 10
670.4418270306
 20
199.5145585652
 10
670.1151086245
 20
200.0317936869
 10
669.6754196184
 20
200.3966455069
 10
669.1396570144
 20
200.5950929745
 10
668.5284098688
 20
200.6195098646
 10
667.8651680666
 20
200.46895785
 10
667.1754196184
 20
200.1492225602
  0
LWPOLYLINE
  5
1DB
330
1F
100
AcDbEntity
  8
0
  6
Continuous
 62
     7
370
    15
100
AcDbPolyline
 90
       33
 70
   128
 43
0.0
 10
614.1424110294
 20
108.2933574754
 10
613.4526625812
 20
107.8167261581
 10
612.7894207791
 20
107.2015154876
 10
612.1781736335
 20
106.4713676651
 10
611.6424110294
 20
105.6543418617
 10
611.2027220234
 20
104.781835921
 10
610.8760036172
 20
103.887379757
 10
610.6748114161
 20
103.0053468184
 10
610.6068771235
 20
102.1696331364
 10
610.6748114161
 20
101.4123547191
 10
610.8760036172
 20
100.7626133514
 10
611.2027220234
 20
100.2453782298
 10
611.6424110294
 20
99.8805264097
 10
612.1781736335
 20
99.6820789422
 10
612.7894207791
 20
99.657662052
 10
613.4526625812
 20
99.8082140666
 10
614.1424110294
 20
100.1279493565
 10
614.8321594776
 20
100.6045806738
 10
615.4954012798
 20
101.2197913442
 10
616.1066484254
 20
101.9499391668
 10
616.6424110294
 20
102.7669649702
 10
617.0821000355
 20
103.6394709108
 10
617.4088184416
 20
104.5339270749
 10
617.6100106427
 20
105.4159600135
 10
617.6779449354
 20
106.2516736955
 10
617.6100106427
 20
107.0089521128
 10
617.4088184416
 20
107.6586934805
 10
617.0821000355
 20
108.1759286021
 10
616.6424110294
 20
108.5407804222
 10
616.1066484254
 20
108.7392278897
 10
615.4954012798
 20
108.7636447799
 10
614.8321594776
 20
108.6130927653
 10
614.1424110294
 20
108.2933574754
  0
LWPOLYLINE
  5
1DC
330
1F
100
AcDbEntity
  8
0
  6
Continuous
 62
     7
370
    15
100
AcDbPolyline
 90
       33
 70
   128
 43
0.0
 10
720.2084282074
 20
169.5239658621
 10
719.5186797592
 20
169.0473345448
 10
718.855437957
 20
168.4321238743
 10
718.2441908114
 20
167.7019760518
 10
717.7084282074
 20
166.8849502484
 10
717.2687392014
 20
166.0124443077
 10
716.9420207952
 20
165.1179881437
 10
716.7408285941
 20
164.2359552051
 10
716.6728943015
 20
163.4002415231
 10
716.7408285941
 20
162.6429631058
 10
716.9420207952
 20
161.9932217381
 10
717.2687392014
 20
161.4759866165
 10
717.7084282074
 20
161.1111347964
 10
718.2441908114
 20
160.9126873289
 10
718.855437957
 20
160.8882704387
 10
719.5186797592
 20
161.0388224533
 10
720.2084282074
 20
161.3585577432
 10
720.8981766556
 20
161.8351890605
 10
721.5614184578
 20
162.4503997309
 10
722.1726656034
 20
163.1805475535
 10
722.7084282074
 20
163.9975733569
 10
723.1481172135
 20
164.8700792975
 10
723.4748356196
 20
165.7645354616
 10
723.6760278207
 20
166.6465684002
 10
723.7439621133
 20
167.4822820822
 10
723.6760278207
 20
168.2395604995
 10
723.4748356196
 20
168.8893018672
 10
723.1481172135
 20
169.4065369888
 10
722.7084282074
 20
169.7713888089
 10
722.1726656034
 20
169.9698362764
 10
721.5614184578
 20
169.9942531666
 10
720.8981766556
 20
169.843701152
 10
720.2084282074
 20
169.5239658621
  0
LWPOLYLINE
  5
1DD
330
1F
100
AcDbEntity
  8
0
  6
Continuous
 62
     7
370
    15
100
AcDbPolyline
 90
       33
 70
   128
 43
0.0
 10
667.1754196184
 20
77.6681007773
 10
666.4856711702
 20
77.19146946
 10
665.8224293681
 20
76.5762587896
 10
665.2111822224
 20
75.846110967
 10
664.6754196184
 20
75.0290851636
 10
664.2357306124
 20
74.156579223
 10
663.9090122062
 20
73.2621230589
 10
663.7078200051
 20
72.3800901203
 10
663.6398857125
 20
71.5443764383
 10
663.7078200051
 20
70.787098021
 10
663.9090122062
 20
70.1373566533
 10
664.2357306124
 20
69.6201215317
 10
664.6754196184
 20
69.2552697116
 10
665.2111822224
 20
69.0568222441
 10
665.8224293681
 20
69.0324053539
 10
666.4856711702
 20
69.1829573686
 10
667.1754196184
 20
69.5026926584
 10
667.8651680666
 20
69.9793239757
 10
668.5284098688
 20
70.5945346462
 10
669.1396570144
 20
71.3246824687
 10
669.6754196184
 20
72.1417082721
 10
670.1151086245
 20
73.0142142128
 10
670.4418270306
 20
73.9086703768
 10
670.6430192317
 20
74.7907033154
 10
670.7109535243
 20
75.6264169974
 10
670.6430192317
 20
76.3836954147
 10
670.4418270306
 20
77.0334367824
 10
670.1151086245
 20
77.5506719041
 10
669.6754196184
 20
77.9155237241
 10
669.1396570144
 20
78.1139711916
 10
668.5284098688
 20
78.1383880818
 10
667.8651680666
 20
77.9878360672
 10
667.1754196184
 20
77.6681007773
  0
LWPOLYLINE
  5
1DE
330
1F
100
AcDbEntity
  8
0
  6
Continuous
 62
     7
370
    15
100
AcDbPolyline
 90
       51
 70
   128
 43
0.0
 10
654.4474975571
 20
209.5382475963
 10
651.6505714235
 20
207.8461461189
 10
648.8600783097
 20
206.0029957513
 10
646.0824364393
 20
204.0130357985
 10
643.3240344774
 20
201.8808432321
 10
640.5912168371
 20
199.6113221634
 10
637.8902690865
 20
197.2096925635
 10
635.227403492
 20
194.6814782574
 10
632.6087447297
 20
192.0324942191
 10
630.0403157987
 20
189.2688331968
 10
627.528024168
 20
186.3968516994
 10
625.0776481887
 20
183.4231553763
 10
622.6948238041
 20
180.3545838244
 10
620.3850315866
 20
177.1981948566
 10
618.1535841324
 20
173.9612482686
 10
616.0056138422
 20
170.6511891415
 10
613.9460611164
 20
167.2756307171
 10
611.9796629923
 20
163.8423368881
 10
610.1109422486
 20
160.3592043403
 10
608.3441970029
 20
156.8342443901
 10
606.6834908259
 20
153.2755645585
 10
605.1326433949
 20
149.6913499231
 10
603.6952217089
 20
146.0898442923
 10
602.3745318837
 20
142.4793312445
 10
601.1736115482
 20
138.8681150756
 10
600.0952228577
 20
135.2645016983
 10
599.1418461408
 20
131.6767795389
 10
598.3156741945
 20
128.1132004733
 10
597.6186072406
 20
124.5819608477
 10
597.0522485556
 20
121.0911826263
 10
596.6179007825
 20
117.6488947108
 10
596.3165629352
 20
114.2630144738
 10
596.1489281004
 20
110.9413295484
 10
596.1153818435
 20
107.6914799162
 10
596.216001322
 20
104.5209403357
 10
596.4505551079
 20
101.4370031494
 10
596.81850372
 20
98.4467615117
 10
597.3190008647
 20
95.5570930742
 10
597.9508953825
 20
92.7746441669
 10
598.7127338957
 20
90.1058145114
 10
599.6027641514
 20
87.5567425015
 10
600.6189390514
 20
85.1332910845
 10
601.758921361
 20
82.8410342763
 10
603.0200890843
 20
80.685244341
 10
604.399541495
 20
78.6708796646
 10
605.8941058085
 20
76.8025733503
 10
607.500344479
 20
75.0846225626
 10
609.2145631059
 20
73.5209786433
 10
611.0328189316
 20
72.1152380235
 10
612.9509299094
 20
70.8706339518
 10
613.2008498358
 20
70.7245994693
  0
LWPOLYLINE
  5
1DF
330
1F
100
AcDbEntity
  8
0
  6
Continuous
 62
     7
370
    15
100
AcDbPolyline
 90
       18
 70
   128
 43
0.0
 10
695.6941452783
 20
213.6226617621
 10
694.9489339977
 20
214.0375938751
 10
692.8893812719
 20
215.0352433375
 10
690.7414109817
 20
215.8653087557
 10
688.5099635275
 20
216.5258809527
 10
686.2001713101
 20
217.0154405913
 10
683.8173469255
 20
217.3328616686
 10
681.3669709461
 20
217.477414106
 10
678.8546793154
 20
217.4487654282
 10
676.2862503844
 20
217.2469815281
 10
673.6675916221
 20
216.8725265152
 10
671.0047260276
 20
216.3262616479
 10
668.303778277
 20
215.609443353
 10
665.5709606367
 20
214.7237203356
 10
662.8125586748
 20
213.6711297868
 10
660.0349168044
 20
212.4540926988
 10
657.2444236906
 20
211.0754082959
 10
654.4474975571
 20
209.5382475963
  0
LWPOLYLINE
  5
1E0
330
1F
100
AcDbEntity
  8
0
  6
Continuous
 62
     7
370
    15
100
AcDbPolyline
 90
       99
 70
   128
 43
0.0
 10
668.9431865714
 20
171.4944027125
 10
666.8520739671
 20
170.2097931008
 10
664.7695541931
 20
168.7755902242
 10
662.7041847698
 20
167.1976875299
 10
660.6644527431
 20
165.4825689587
 10
658.6587398095
 20
163.6372823005
 10
656.6952878737
 20
161.669410234
 10
654.7821651808
 20
159.5870391678
 10
652.9272331623
 20
157.3987260112
 10
651.1381141317
 20
155.1134630123
 10
649.422159963
 20
152.7406408069
 10
647.7864218799
 20
150.2900098306
 10
646.237621481
 20
147.7716402515
 10
644.7821231194
 20
145.1958805907
 10
643.4259077501
 20
142.5733151968
 10
642.1745483528
 20
139.9147207538
 10
641.0331870319
 20
137.2310219964
 10
640.0065138858
 20
134.5332468185
 10
639.0987477346
 20
131.832480957
 10
638.3136187842
 20
129.139822438
 10
637.6543532978
 20
126.4663359731
 10
637.1236603388
 20
123.8230074916
 10
636.7237206384
 20
121.2206989972
 10
636.4561776346
 20
118.6701039336
 10
636.3221307189
 20
116.1817032432
 10
636.3221307189
 20
113.765722298
 10
636.4561776346
 20
111.4320888821
 10
636.7237206384
 20
109.1903923958
 10
637.1236603388
 20
107.0498444506
 10
637.6543532978
 20
105.0192410173
 10
638.3136187842
 20
103.1069262809
 10
639.0987477346
 20
101.3207583529
 10
640.0065138858
 20
99.6680769804
 10
641.0331870319
 20
98.1556733857
 10
642.1745483528
 20
96.7897623596
 10
643.4259077501
 20
95.5759567234
 10
644.7821231194
 20
94.5192442649
 10
646.237621481
 20
93.6239672422
 10
647.7864218799
 20
92.8938045407
 10
649.422159963
 20
92.3317565555
 10
651.1381141317
 20
91.9401328624
 10
652.9272331623
 20
91.720542727
 10
654.7821651808
 20
91.6738884924
 10
656.6952878737
 20
91.8003618709
 10
658.6587398095
 20
92.0994431561
 10
660.6644527431
 20
92.569903359
 10
662.7041847698
 20
93.2098092576
 10
664.7695541931
 20
94.0165313414
 10
666.8520739671
 20
94.9867546162
 10
668.9431865714
 20
96.1164922265
 10
671.0342991756
 20
97.4011018382
 10
673.1168189497
 20
98.8353047148
 10
675.182188373
 20
100.4132074091
 10
677.2219203997
 20
102.1283259804
 10
679.2276333332
 20
103.9736126386
 10
681.1910852691
 20
105.941484705
 10
683.104207962
 20
108.0238557712
 10
684.9591399805
 20
110.2121689279
 10
686.748259011
 20
112.4974319268
 10
688.4642131797
 20
114.8702541321
 10
690.0999512628
 20
117.3208851085
 10
691.6487516617
 20
119.8392546875
 10
693.1042500233
 20
122.4150143484
 10
694.4604653927
 20
125.0375797422
 10
695.7118247899
 20
127.6961741852
 10
696.8531861109
 20
130.3798729426
 10
697.879859257
 20
133.0776481205
 10
698.7876254082
 20
135.7784139821
 10
699.5727543586
 20
138.471072501
 10
700.2320198449
 20
141.1445589659
 10
700.7627128039
 20
143.7878874474
 10
701.1626525043
 20
146.3901959419
 10
701.4301955082
 20
148.9407910054
 10
701.5642424239
 20
151.4291916959
 10
701.5642424239
 20
153.845172641
 10
701.4301955082
 20
156.1788060569
 10
701.1626525043
 20
158.4205025433
 10
700.7627128039
 20
160.5610504884
 10
700.2320198449
 20
162.5916539218
 10
699.5727543586
 20
164.5039686581
 10
698.7876254082
 20
166.2901365861
 10
697.879859257
 20
167.9428179586
 10
696.8531861109
 20
169.4552215533
 10
695.7118247899
 20
170.8211325794
 10
694.4604653927
 20
172.0349382156
 10
693.1042500233
 20
173.0916506741
 10
691.6487516617
 20
173.9869276968
 10
690.0999512628
 20
174.7170903983
 10
688.4642131797
 20
175.2791383835
 10
686.748259011
 20
175.6707620767
 10
684.9591399805
 20
175.890352212
 10
683.104207962
 20
175.9370064466
 10
681.1910852691
 20
175.8105330681
 10
679.2276333332
 20
175.5114517829
 10
677.2219203997
 20
175.04099158
 10
675.182188373
 20
174.4010856814
 10
673.1168189497
 20
173.5943635977
 10
671.0342991756
 20
172.6241403228
 10
668.9431865714
 20
171.4944027125
  0
LWPOLYLINE
  5
1E1
330
1F
100
AcDbEntity
  8
0
  6
Continuous
 62
     7
370
    15
100
AcDbPolyline
 90
      116
 70
   128
 43
0.0
 10
668.9431865714
 20
186.4723298361
 10
666.45254833
 20
184.9559256457
 10
663.9693431321
 20
183.2868683245
 10
661.5009818379
 20
181.4701389956
 10
659.0548310076
 20
179.5111594933
 10
656.6381909168
 20
177.4157761824
 10
654.2582737693
 20
175.1902425103
 10
651.9221821733
 20
172.8412003441
 10
649.6368879443
 20
170.375660149
 10
647.4092112984
 20
167.8009800658
 10
645.2458004983
 20
165.124843952
 10
643.1531120122
 20
162.3552384495
 10
641.1373912449
 20
159.5004291497
 10
639.2046538995
 20
156.5689359255
 10
637.3606680239
 20
153.5695075049
 10
635.6109367966
 20
150.5110953612
 10
633.9606821033
 20
147.4028269983
 10
632.4148289528
 20
144.2539787107
 10
630.9779907782
 20
141.0739478992
 10
629.6544556695
 20
137.8722250257
 10
628.4481735757
 20
134.6583652896
 10
627.3627445166
 20
131.4419601114
 10
626.4014078391
 20
128.2326085085
 10
625.5670325497
 20
125.0398884473
 10
624.8621087522
 20
121.8733282594
 10
624.2887402164
 20
118.742378205
 10
623.8486380992
 20
115.6563822696
 10
623.5431158383
 20
112.6245502779
 10
623.3730852323
 20
109.6559304083
 10
623.3390537193
 20
106.7593821892
 10
623.4411228627
 20
103.9435500589
 10
623.6789880481
 20
101.2168375672
 10
624.0519393923
 20
98.5873822959
 10
624.5588638618
 20
96.063031573
 10
625.1982485949
 20
93.6513190532
 10
625.9681854162
 20
91.3594422346
 10
626.8663765316
 20
89.1942409783
 10
627.8901413857
 20
87.1621770959
 10
629.036424662
 20
85.2693150647
 10
630.3018054005
 20
83.521303929
 10
631.6825072078
 20
81.923360441
 10
633.1744095271
 20
80.4802534921
 10
634.7730599354
 20
79.1962898807
 10
636.4736874317
 20
78.0753014589
 10
638.271216675
 20
77.1206336965
 10
640.1602831316
 20
76.3351356976
 10
642.1352490847
 20
75.7211516968
 10
644.1902204598
 20
75.2805140637
 10
646.3190644145
 20
75.0145378341
 10
648.5154276417
 20
74.9240167858
 10
650.7727553305
 20
75.0092210691
 10
653.0843107276
 20
75.2698964009
 10
655.4431952434
 20
75.7052648235
 10
657.8423690392
 20
76.3140270266
 10
660.2746720375
 20
77.0943662243
 10
662.7328452903
 20
78.0439535779
 10
665.2095526423
 20
79.1599551454
 10
667.6974026254
 20
80.4390403396
 10
670.1889705174
 20
81.8773918675
 10
672.6768205005
 20
83.4707171228
 10
675.1535278525
 20
85.2142609968
 10
677.6117011052
 20
87.1028200692
 10
680.0440041036
 20
89.1307581375
 10
682.4431778994
 20
91.2920230374
 10
684.8020624152
 20
93.5801647051
 10
687.1136178123
 20
95.9883544265
 10
689.370945501
 20
98.5094052169
 10
691.5673087283
 20
101.13579327
 10
693.696152683
 20
103.8596804115
 10
695.751124058
 20
106.6729374916
 10
697.7260900112
 20
109.5671686455
 10
699.6151564678
 20
112.5337363498
 10
701.4126857111
 20
115.5637872007
 10
703.1133132073
 20
118.6482783354
 10
704.7119636157
 20
121.7780044201
 10
706.2038659349
 20
124.9436251221
 10
707.5845677423
 20
128.1356929849
 10
708.8499484808
 20
131.3446816236
 10
709.996231757
 20
134.5610141546
 10
711.0199966112
 20
137.7750917778
 10
711.9181877266
 20
140.9773224221
 10
712.6881245478
 20
144.1581493727
 10
713.3275092809
 20
147.3080797919
 10
713.8344337505
 20
150.4177130493
 10
714.2073850947
 20
153.477768777
 10
714.4452502801
 20
156.479114566
 10
714.5473194235
 20
159.4127932208
 10
714.5132879105
 20
162.2700494914
 10
714.3432573045
 20
165.042356202
 10
714.0377350436
 20
167.7214396997
 10
713.5976329264
 20
170.2993045465
 10
713.0242643905
 20
172.7682573804
 10
712.3193405931
 20
175.1209298758
 10
711.4849653037
 20
177.3503007333
 10
710.5236286262
 20
179.4497166341
 10
709.4381995671
 20
181.4129120958
 10
708.2319174732
 20
183.2340281718
 10
706.9083823645
 20
184.9076299359
 10
705.47154419
 20
186.4287227025
 10
703.9256910394
 20
187.7927669331
 10
702.2754363462
 20
188.9956917835
 10
700.5257051189
 20
190.0339072533
 10
698.6817192433
 20
190.9043148993
 10
696.7489818979
 20
191.6043170832
 10
694.7332611306
 20
192.1318247231
 10
692.6405726444
 20
192.485263529
 10
690.4771618443
 20
192.6635787007
 10
688.2494851984
 20
192.6662380755
 10
685.9641909694
 20
192.4932337168
 10
683.6280993734
 20
192.1450819376
 10
681.2481822259
 20
191.6228217597
 10
678.8315421352
 20
190.9280118127
 10
676.3853913049
 20
190.0627256826
 10
673.9170300107
 20
189.0295457232
 10
671.4338248127
 20
187.8315553497
 10
668.9431865714
 20
186.4723298361
  0
ARC
  5
1E2
330
1F
100
AcDbEntity
  8
0
  6
Continuous
 62
     7
370
    15
100
AcDbCircle
 10
678.665364698
 20
116.7013542579
 30
0.0
 40
41.18807166318093
100
AcDbArc
 50
174.2597740501
 51
185.0531206964
  0
LWPOLYLINE
  5
1E3
330
1F
100
AcDbEntity
  8
0
  6
Continuous
 62
     7
370
    15
100
AcDbPolyline
 90
        3
 70
   128
 43
0.0
 10
637.48193891
 20
117.239151431
 10
637.5148494672
 20
116.1582632374
 10
637.6465289302
 20
114.3119966965
  0
LWPOLYLINE
  5
1E4
330
1F
100
AcDbEntity
  8
0
  6
Continuous
 62
     7
370
    15
100
AcDbPolyline
 90
       48
 70
   128
 43
0.0
 10
577.3728584077
 20
236.1084230882
 10
574.9722328644
 20
234.6447923294
 10
572.5791605771
 20
233.0302084316
 10
570.2011710367
 20
231.2697514733
 10
567.845746278
 20
229.3689605032
 10
565.5202973388
 20
227.3338161131
 10
563.2321409418
 20
225.1707216201
 10
560.9884764734
 20
222.8864829198
 10
558.7963633323
 20
220.4882870721
 10
556.6626987173
 20
217.9836796885
 10
554.5941959267
 20
215.3805411904
 10
552.5973632356
 20
212.6870620146
 10
550.6784834183
 20
209.9117168431
 10
548.8435939807
 20
207.0632379385
 10
547.0984681638
 20
204.1505876694
 10
545.4485967791
 20
201.182930311
 10
543.8991709323
 20
198.1696032114
 10
542.4550656903
 20
195.1200874123
 10
541.1208247426
 20
192.0439778188
 10
539.9006461048
 20
188.9509530097
 10
538.7983689102
 20
185.8507447853
 10
537.8174613308
 20
182.7531075476
 10
536.9610096647
 20
179.6677876095
 10
536.2317086257
 20
176.6044925289
 10
535.6318528646
 20
173.5728605654
 10
535.1633297497
 20
170.5824303548
 10
534.827613428
 20
167.6426108969
 10
534.6257601871
 20
164.7626519513
 10
534.5584051322
 20
161.9516149344
 10
534.6257601871
 20
159.2183444086
 10
534.827613428
 20
156.5714402542
 10
535.1633297497
 20
154.0192306109
 10
535.6318528646
 20
151.5697456744
 10
536.2317086257
 20
149.2306924307
 10
536.9610096647
 20
147.0094304066
 10
537.8174613308
 20
144.9129485141
 10
538.7983689102
 20
142.947843061
 10
539.9006461048
 20
141.1202969961
 10
541.1208247426
 20
139.4360604553
 10
542.4550656903
 20
137.9004326699
 10
543.8991709323
 20
136.5182452932
 10
545.4485967791
 20
135.2938471978
 10
547.0984681638
 20
134.2310907933
 10
548.8435939807
 20
133.3333199045
 10
550.6784834183
 20
132.6033592506
 10
552.5973632356
 20
132.043505558
 10
554.5941959267
 20
131.6555203336
 10
556.6309614612
 20
131.4425782575
  0
LWPOLYLINE
  5
1E5
330
1F
100
AcDbEntity
  8
0
  6
Continuous
 62
     7
370
    15
100
AcDbPolyline
 90
       20
 70
   128
 43
0.0
 10
614.8264218981
 20
232.2436059003
 10
613.6248920728
 20
233.8996849648
 10
612.2906511251
 20
235.4353127501
 10
610.8465458832
 20
236.8175001269
 10
609.2971200364
 20
238.0418982222
 10
607.6472486516
 20
239.1046546267
 10
605.9021228347
 20
240.0024255156
 10
604.0672333972
 20
240.7323861695
 10
602.1483535799
 20
241.292239862
 10
600.1515208888
 20
241.6802250865
 10
598.0830180982
 20
241.8951210977
 10
595.9493534832
 20
241.9362517534
 10
593.757240342
 20
241.8034876413
 10
591.5135758737
 20
241.4972464865
 10
589.2254194766
 20
241.0184918368
 10
586.8999705374
 20
240.3687300315
 10
584.5445457788
 20
239.5500054617
 10
582.1665562384
 20
238.5648941378
 10
579.7734839511
 20
237.4164955844
 10
577.3728584077
 20
236.1084230882
  0
LWPOLYLINE
  5
1E6
330
1F
100
AcDbEntity
  8
0
  6
Continuous
 62
     7
370
    15
100
AcDbPolyline
 90
       67
 70
   128
 43
0.0
 10
577.3728584077
 20
254.0324896906
 10
574.5759322742
 20
252.3403882132
 10
571.7854391604
 20
250.4972378457
 10
569.0077972899
 20
248.5072778929
 10
566.2493953281
 20
246.3750853265
 10
563.5165776878
 20
244.1055642577
 10
560.8156299372
 20
241.7039346578
 10
558.1527643426
 20
239.1757203517
 10
555.5341055804
 20
236.5267363134
 10
552.9656766494
 20
233.7630752911
 10
550.4533850186
 20
230.8910937937
 10
548.0030090393
 20
227.9173974706
 10
545.6201846547
 20
224.8488259187
 10
543.3103924373
 20
221.6924369509
 10
541.0789449831
 20
218.455490363
 10
538.9309746929
 20
215.1454312358
 10
536.8714219671
 20
211.7698728114
 10
534.905023843
 20
208.3365789824
 10
533.0363030993
 20
204.8534464346
 10
531.2695578536
 20
201.3284864845
 10
529.6088516765
 20
197.7698066529
 10
528.0580042456
 20
194.1855920174
 10
526.6205825595
 20
190.5840863866
 10
525.2998927343
 20
186.9735733389
 10
524.0989723989
 20
183.3623571699
 10
523.0205837084
 20
179.7587437926
 10
522.0672069915
 20
176.1710216332
 10
521.2410350451
 20
172.6074425677
 10
520.5439680913
 20
169.076202942
 10
519.9776094063
 20
165.5854247206
 10
519.5432616332
 20
162.1431368051
 10
519.2419237859
 20
158.7572565681
 10
519.074288951
 20
155.4355716427
 10
519.0407426942
 20
152.1857220106
 10
519.1413621727
 20
149.01518243
 10
519.3759159586
 20
145.9312452437
 10
519.7438645707
 20
142.941003606
 10
520.2443617154
 20
140.0513351685
 10
520.8762562331
 20
137.2688862612
 10
521.6380947464
 20
134.6000566057
 10
522.5281250021
 20
132.0509845958
 10
523.5442999021
 20
129.6275331788
 10
524.6842822117
 20
127.3352763706
 10
525.9454499349
 20
125.1794864353
 10
527.3249023457
 20
123.1651217589
 10
528.8194666592
 20
121.2968154446
 10
530.4257053296
 20
119.5788646569
 10
532.1399239566
 20
118.0152207376
 10
533.9581797823
 20
116.6094801179
 10
535.8762907601
 20
115.3648760461
 10
537.8898451732
 20
114.2842711516
 10
539.9942117821
 20
113.3701508603
 10
542.184550476
 20
112.6246176781
 10
544.4558234058
 20
112.0493863552
 10
546.8028065709
 20
111.6457799421
 10
549.2201018348
 20
111.4147267465
 10
551.7021493411
 20
111.3567581981
 10
554.2432403008
 20
111.4720076265
 10
556.8375301234
 20
111.7602099542
 10
559.4790518591
 20
112.2207023067
 10
562.1617299233
 20
112.8524255369
 10
564.8793940704
 20
113.653926661
 10
567.6257935859
 20
114.6233622008
 10
570.3946116628
 20
115.7585024234
 10
573.1794799308
 20
117.0567364701
 10
575.9739931038
 20
118.5150783608
 10
577.4541816197
 20
119.350268077
  0
LWPOLYLINE
  5
1E7
330
1F
100
AcDbEntity
  8
0
  6
Continuous
 62
     7
370
    15
100
AcDbPolyline
 90
       34
 70
   128
 43
0.0
 10
635.7091113632
 20
220.2509244693
 10
635.6714278644
 20
222.7456672017
 10
635.5037930296
 20
225.8738050666
 10
635.2024551823
 20
228.9117680307
 10
634.7681074092
 20
231.8525686819
 10
634.2017487242
 20
234.6894430843
 10
633.5046817703
 20
237.415866336
 10
632.678509824
 20
240.0255675762
 10
631.725133107
 20
242.5125444082
 10
630.6467444166
 20
244.8710767058
 10
629.4458240811
 20
247.0957397691
 10
628.1251342559
 20
249.1814168017
 10
626.6877125699
 20
251.1233106796
 10
625.1368651389
 20
252.9169549846
 10
623.4761589619
 20
254.5582242775
 10
621.7094137162
 20
256.0433435862
 10
619.8406929725
 20
257.3688970887
 10
617.8742948484
 20
258.5318359694
 10
615.8147421226
 20
259.5294854318
 10
613.6667718323
 20
260.35955085
 10
611.4353243782
 20
261.0201230471
 10
609.1255321607
 20
261.5096826857
 10
606.7427077761
 20
261.827103763
 10
604.2923317968
 20
261.9716562003
 10
601.780040166
 20
261.9430075226
 10
599.2116112351
 20
261.7412236225
 10
596.5929524728
 20
261.3667686095
 10
593.9300868783
 20
260.8205037423
 10
591.2291391277
 20
260.1036854474
 10
588.4963214874
 20
259.2179624299
 10
585.7379195255
 20
258.1653718812
 10
582.960277655
 20
256.9483347932
 10
580.1697845413
 20
255.5696503902
 10
577.3728584077
 20
254.0324896906
  0
LWPOLYLINE
  5
1E8
330
1F
100
AcDbEntity
  8
0
  6
Continuous
 62
     7
370
    15
100
AcDbPolyline
 90
       33
 70
   128
 43
0.0
 10
577.3728584077
 20
251.9911376609
 10
576.6831099595
 20
251.5145063436
 10
576.0198681574
 20
250.8992956732
 10
575.4086210118
 20
250.1691478506
 10
574.8728584077
 20
249.3521220473
 10
574.4331694017
 20
248.4796161066
 10
574.1064509955
 20
247.5851599425
 10
573.9052587944
 20
246.7031270039
 10
573.8373245018
 20
245.8674133219
 10
573.9052587944
 20
245.1101349046
 10
574.1064509955
 20
244.460393537
 10
574.4331694017
 20
243.9431584153
 10
574.8728584077
 20
243.5783065953
 10
575.4086210118
 20
243.3798591277
 10
576.0198681574
 20
243.3554422376
 10
576.6831099595
 20
243.5059942522
 10
577.3728584077
 20
243.825729542
 10
578.0626068559
 20
244.3023608593
 10
578.7258486581
 20
244.9175715298
 10
579.3370958037
 20
245.6477193523
 10
579.8728584077
 20
246.4647451557
 10
580.3125474138
 20
247.3372510964
 10
580.6392658199
 20
248.2317072604
 10
580.840458021
 20
249.113740199
 10
580.9083923137
 20
249.949453881
 10
580.840458021
 20
250.7067322983
 10
580.6392658199
 20
251.356473666
 10
580.3125474138
 20
251.8737087877
 10
579.8728584077
 20
252.2385606077
 10
579.3370958037
 20
252.4370080752
 10
578.7258486581
 20
252.4614249654
 10
578.0626068559
 20
252.3108729508
 10
577.3728584077
 20
251.9911376609
  0
LWPOLYLINE
  5
1E9
330
1F
100
AcDbEntity
  8
0
  6
Continuous
 62
     7
370
    15
100
AcDbPolyline
 90
       33
 70
   128
 43
0.0
 10
524.3398498187
 20
160.1352725761
 10
523.6501013705
 20
159.6586412588
 10
522.9868595684
 20
159.0434305884
 10
522.3756124228
 20
158.3132827658
 10
521.8398498187
 20
157.4962569625
 10
521.4001608127
 20
156.6237510218
 10
521.0734424065
 20
155.7292948578
 10
520.8722502054
 20
154.8472619191
 10
520.8043159128
 20
154.0115482371
 10
520.8722502054
 20
153.2542698198
 10
521.0734424065
 20
152.6045284522
 10
521.4001608127
 20
152.0872933305
 10
521.8398498187
 20
151.7224415105
 10
522.3756124228
 20
151.5239940429
 10
522.9868595684
 20
151.4995771528
 10
523.6501013705
 20
151.6501291674
 10
524.3398498187
 20
151.9698644573
 10
525.0295982669
 20
152.4464957745
 10
525.6928400691
 20
153.061706445
 10
526.3040872147
 20
153.7918542676
 10
526.8398498187
 20
154.6088800709
 10
527.2795388248
 20
155.4813860116
 10
527.6062572309
 20
156.3758421756
 10
527.807449432
 20
157.2578751142
 10
527.8753837247
 20
158.0935887962
 10
527.807449432
 20
158.8508672135
 10
527.6062572309
 20
159.5006085812
 10
527.2795388248
 20
160.0178437029
 10
526.8398498187
 20
160.3826955229
 10
526.3040872147
 20
160.5811429904
 10
525.6928400691
 20
160.6055598806
 10
525.0295982669
 20
160.455007866
 10
524.3398498187
 20
160.1352725761
  0
LWPOLYLINE
  5
1EA
330
1F
100
AcDbEntity
  8
0
  6
Continuous
 62
     7
370
    15
100
AcDbPolyline
 90
       51
 70
   128
 43
0.0
 10
564.6449363464
 20
261.380162697
 10
561.8480102128
 20
259.6880612196
 10
559.057517099
 20
257.8449108521
 10
556.2798752286
 20
255.8549508993
 10
553.5214732667
 20
253.7227583329
 10
550.7886556264
 20
251.4532372641
 10
548.0877078758
 20
249.0516076642
 10
545.4248422813
 20
246.5233933581
 10
542.806183519
 20
243.8744093198
 10
540.2377545881
 20
241.1107482975
 10
537.7254629573
 20
238.2387668001
 10
535.275086978
 20
235.265070477
 10
532.8922625934
 20
232.1964989251
 10
530.5824703759
 20
229.0401099573
 10
528.3510229218
 20
225.8031633694
 10
526.2030526315
 20
222.4931042422
 10
524.1434999057
 20
219.1175458178
 10
522.1771017816
 20
215.6842519888
 10
520.3083810379
 20
212.201119441
 10
518.5416357922
 20
208.6761594909
 10
516.8809296152
 20
205.1174796593
 10
515.3300821842
 20
201.5332650238
 10
513.8926604982
 20
197.931759393
 10
512.571970673
 20
194.3212463453
 10
511.3710503375
 20
190.7100301763
 10
510.292661647
 20
187.106416799
 10
509.3392849301
 20
183.5186946396
 10
508.5131129838
 20
179.9551155741
 10
507.8160460299
 20
176.4238759484
 10
507.2496873449
 20
172.933097727
 10
506.8153395718
 20
169.4908098115
 10
506.5140017245
 20
166.1049295745
 10
506.3463668897
 20
162.7832446491
 10
506.3128206328
 20
159.533395017
 10
506.4134401113
 20
156.3628554364
 10
506.6479938973
 20
153.2789182501
 10
507.0159425093
 20
150.2886766124
 10
507.516439654
 20
147.3990081749
 10
508.1483341718
 20
144.6165592676
 10
508.910172685
 20
141.9477296121
 10
509.8002029407
 20
139.3986576022
 10
510.8163778407
 20
136.9752061852
 10
511.9563601503
 20
134.682949377
 10
513.2175278736
 20
132.5271594417
 10
514.5969802843
 20
130.5127947653
 10
516.0915445978
 20
128.644488451
 10
517.6977832683
 20
126.9265376633
 10
519.4120018952
 20
125.362893744
 10
521.2302577209
 20
123.9571531243
 10
523.1483686987
 20
122.7125490525
 10
523.3982886251
 20
122.56651457
  0
LWPOLYLINE
  5
1EB
330
1F
100
AcDbEntity
  8
0
  6
Continuous
 62
     7
370
    15
100
AcDbPolyline
 90
       18
 70
   128
 43
0.0
 10
605.8915840676
 20
265.4645768628
 10
605.146372787
 20
265.8795089758
 10
603.0868200612
 20
266.8771584382
 10
600.938849771
 20
267.7072238564
 10
598.7074023168
 20
268.3677960535
 10
596.3976100994
 20
268.8573556921
 10
594.0147857148
 20
269.1747767694
 10
591.5644097354
 20
269.3193292067
 10
589.0521181047
 20
269.290680529
 10
586.4836891737
 20
269.0888966289
 10
583.8650304115
 20
268.7144416159
 10
581.2021648169
 20
268.1681767487
 10
578.5012170663
 20
267.4513584538
 10
575.768399426
 20
266.5656354363
 10
573.0099974642
 20
265.5130448876
 10
570.2323555937
 20
264.2960077996
 10
567.4418624799
 20
262.9173233966
 10
564.6449363464
 20
261.380162697
  0
ARC
  5
1EC
330
1F
100
AcDbEntity
  8
0
  6
Continuous
 62
     7
370
    15
100
AcDbCircle
 10
581.6462341625
 20
225.9902319696
 30
0.0
 40
24.56311239139824
100
AcDbArc
 50
28.6865084205
 51
39.4823258258
  0
ARC
  5
1ED
330
1F
100
AcDbEntity
  8
0
  6
Continuous
 62
     7
370
    15
100
AcDbCircle
 10
545.4563191461
 20
163.2927258016
 30
0.0
 40
24.55292313424697
100
AcDbArc
 50
260.5220565879
 51
271.2557407913
  0
LWPOLYLINE
  5
1EE
330
1F
100
AcDbEntity
  8
0
  6
Continuous
 62
     8
370
    15
100
AcDbPolyline
 90
       72
 70
   128
 43
0.0
 10
637.6373719105
 20
113.0735373999
 10
637.815548011
 20
111.5468426146
 10
638.1820082514
 20
109.4574596602
 10
638.6793567968
 20
107.4766354868
 10
639.3054188685
 20
105.6130317344
 10
640.0574568564
 20
103.8747974683
 10
640.9321822896
 20
102.2695335444
 10
641.9257702166
 20
100.8042593735
 10
643.0338759299
 20
99.4853822268
 10
644.2516539654
 20
98.3186692184
 10
645.5737792894
 20
97.3092220874
 10
646.9944705844
 20
96.4614548894
 10
648.5075155288
 20
95.7790746945
 10
650.1062979621
 20
95.2650653778
 10
651.7838268153
 20
94.9216745712
 10
653.5327666818
 20
94.7504038353
 10
655.3454698925
 20
94.7520020935
 10
657.2140099573
 20
94.926462357
 10
659.1302162261
 20
95.2730217554
 10
661.0857096165
 20
95.7901648727
 10
663.0719392532
 20
96.4756303737
 10
665.0802198596
 20
97.326420892
 10
667.1017697355
 20
98.3388161373
 10
669.1277491577
 20
99.5083891626
 10
671.1492990336
 20
100.8300257228
 10
673.15757964
 20
102.2979466375
 10
675.1438092768
 20
103.9057330619
 10
677.0993026671
 20
105.6463545552
 10
679.0155089359
 20
107.5121998224
 10
680.8840490008
 20
109.4951099969
 10
682.6967522114
 20
111.586414317
 10
684.4456920779
 20
113.7769680411
 10
686.1232209312
 20
116.057192435
 10
687.7220033644
 20
118.4171166578
 10
689.2350483089
 20
120.8464213611
 10
690.6557396039
 20
123.3344838137
 10
691.9778649279
 20
125.8704243514
 10
693.1956429634
 20
128.4431539517
 10
694.3037486767
 20
131.0414227224
 10
695.2973366036
 20
133.6538690955
 10
696.1720620369
 20
136.2690695075
 10
696.9241000248
 20
138.8755883525
 10
697.5501620965
 20
141.4620279869
 10
698.0475106419
 20
144.017078568
 10
698.4139708823
 20
146.52956751
 10
698.6479403804
 20
148.9885083378
 10
698.748396047
 20
151.3831487289
 10
698.7148986152
 20
153.7030175302
 10
698.5475945605
 20
155.9379705456
 10
698.2472154612
 20
158.0782348943
 10
697.8150747986
 20
160.1144517448
 10
697.2530622138
 20
162.037717239
 10
696.5636352448
 20
163.8396214261
 10
695.7498085805
 20
165.5122850377
 10
694.8151408777
 20
167.0483939413
 10
693.7637192005
 20
168.4412311237
 10
692.6001411483
 20
169.684706062
 10
691.329494752
 20
170.7733813569
 10
689.9573362249
 20
171.7024965083
 10
688.4896656671
 20
172.467988732
 10
686.9329008285
 20
173.0665107253
 10
685.2938490457
 20
173.4954453038
 10
683.5796774751
 20
173.7529168457
 10
681.7978817528
 20
173.8377994935
 10
679.9562532182
 20
173.749722077
 10
678.0628448442
 20
173.4890697363
 10
676.1259360239
 20
173.0569822378
 10
674.1539963669
 20
172.4553489901
 10
672.1556486633
 20
171.6868007823
 10
670.1396311794
 20
170.7546982803
 10
668.1147594466
 20
169.6631173312
 10
668.1147594466
 20
169.6631173312
  0
LWPOLYLINE
  5
1EF
330
1F
100
AcDbEntity
  8
0
  6
Continuous
 62
     8
370
    15
100
AcDbPolyline
 90
       70
 70
   128
 43
0.0
 10
637.6465289302
 20
114.3119966965
 10
637.6831628302
 20
113.9594364837
 10
637.9853204637
 20
111.8562357584
 10
638.4199436915
 20
109.8582574842
 10
638.9850494276
 20
107.9746179775
 10
639.6780592241
 20
106.2139118534
 10
640.4958110363
 20
104.5841728102
 10
641.4345736503
 20
103.0928369733
 10
642.4900637074
 20
101.746708966
 10
643.6574652487
 20
100.5519308617
 10
644.9314516888
 20
99.5139541589
 10
646.3062101196
 20
98.6375149072
 10
647.7754678337
 20
97.9266120978
 10
649.3325209453
 20
97.3844894174
 10
650.9702649781
 20
97.0136204471
 10
652.6812272817
 20
96.8156973773
 10
654.4576011275
 20
96.7916232853
 10
656.2912813291
 20
96.9415080158
 10
658.1739012243
 20
97.2646676792
 10
660.0968708504
 20
97.7596277719
 10
662.051416138
 20
98.4241299047
 10
664.0286189452
 20
99.2551421066
 10
666.0194577491
 20
100.2488726597
 10
668.0148488088
 20
101.4007873993
 10
670.0056876127
 20
102.7056304027
 10
671.9828904199
 20
104.1574479705
 10
673.9374357075
 20
105.7496157922
 10
675.8604053336
 20
107.4748691712
 10
677.7430252288
 20
109.3253361719
 10
679.5767054304
 20
111.292573538
 10
681.3530792762
 20
113.3676052165
 10
683.0640415798
 20
115.5409633137
 10
684.7017856126
 20
117.8027312952
 10
686.2588387242
 20
120.1425892325
 10
687.7280964383
 20
122.5498608904
 10
689.1028548691
 20
125.0135624405
 10
690.3768413092
 20
127.5224525777
 10
691.5442428505
 20
130.0650838117
 10
692.5997329076
 20
132.6298546994
 10
693.5384955216
 20
135.2050627795
 10
694.3562473338
 20
137.7789579682
 10
695.0492571303
 20
140.3397961721
 10
695.6143628664
 20
142.8758928737
 10
696.0489860942
 20
145.3756764456
 10
696.3511437277
 20
147.8277409487
 10
696.5194570907
 20
150.2208981749
 10
696.5531582082
 20
152.5442286969
 10
696.4520933095
 20
154.7871316903
 10
696.2167235306
 20
156.9393733031
 10
695.84812281
 20
158.9911333506
 10
695.347972988
 20
160.9330501222
 10
694.7185561336
 20
162.7562630971
 10
693.9627441316
 20
164.4524533727
 10
693.0839855789
 20
166.0138816217
 10
692.086290049
 20
167.4334234053
 10
690.9742097979
 20
168.7046016798
 10
689.7528189927
 20
169.8216163504
 10
688.4276905594
 20
170.7793707352
 10
687.0048707554
 20
171.5734948207
 10
685.4908515808
 20
172.2003652009
 10
683.892541158
 20
172.6571216099
 10
682.2172322109
 20
172.941679973
 10
680.4725687899
 20
173.0527419158
 10
678.6665113941
 20
172.989800688
 10
676.807300649
 20
172.753143476
 10
674.903419707
 20
172.3438500923
 10
672.9635555401
 20
171.7637880489
 10
670.9965593036
 20
171.0156040358
 10
669.01140595
 20
170.102711845
 10
667.3575689437
 20
169.223529499
  0
LWPOLYLINE
  5
1F0
330
1F
100
AcDbEntity
  8
0
  6
Continuous
 62
     8
370
    15
100
AcDbPolyline
 90
       27
 70
   128
 43
0.0
 10
645.795545502
 20
116.9350299691
 10
647.2398049726
 20
117.5187329263
 10
648.9790553762
 20
118.3666738941
 10
650.7235515825
 20
119.3737501178
 10
652.4628019861
 20
120.5339049225
 10
654.1863465304
 20
121.8401610007
 10
655.8838196158
 20
123.2846623746
 10
657.5450124392
 20
124.8587216431
 10
659.1599343917
 20
126.5528722284
 10
660.7188731426
 20
128.3569253096
 10
662.2124530508
 20
130.2600310992
 10
663.6316915511
 20
132.2507440951
 10
664.968053176
 20
134.317091915
 10
666.2135008895
 20
136.4466473
 10
667.3605444226
 20
138.6266028536
 10
668.4022853204
 20
140.8438480664
 10
669.3324584306
 20
143.0850481648
 10
670.1454695827
 20
145.3367243079
 10
670.836429232
 20
147.5853346502
 10
671.4011818657
 20
149.8173557847
 10
671.8363309952
 20
152.0193640735
 10
672.1392595824
 20
154.1781163798
 10
672.3081457791
 20
156.2806297132
 10
672.3419738838
 20
158.314259311
 10
672.2405404504
 20
160.2667746857
 10
672.0044555113
 20
162.1264331799
 10
671.9706741595
 20
162.3228297836
  0
LWPOLYLINE
  5
1F1
330
1F
100
AcDbEntity
  8
0
  6
Continuous
 62
     8
370
    15
100
AcDbPolyline
 90
       47
 70
   128
 43
0.0
 10
644.6924794356
 20
100.9202266293
 10
645.977713879
 20
100.2635527733
 10
647.5057741873
 20
99.6879734403
 10
649.1172841917
 20
99.2857800781
 10
650.804564313
 20
99.0588893213
 10
652.5595738931
 20
99.0083824077
 10
654.3739495122
 20
99.1345000257
 10
656.2390448441
 20
99.4366411674
 10
658.1459718602
 20
99.9133659927
 10
660.0856431849
 20
100.5624026906
 10
662.048815401
 20
101.3806583059
 10
664.0261330988
 20
102.3642334777
 10
666.0081734591
 20
103.5084410226
 10
667.9854911569
 20
104.8078282704
 10
669.948663373
 20
106.2562030493
 10
671.8883346977
 20
107.8466631938
 10
673.7952617138
 20
109.571629437
 10
675.6603570457
 20
111.4228815292
 10
677.4747326648
 20
113.3915974112
 10
679.2297422449
 20
115.4683952552
 10
680.9170223662
 20
117.6433781738
 10
682.5285323706
 20
119.9061813828
 10
684.0565926789
 20
122.2460215945
 10
685.493921388
 20
124.6517484047
 10
686.833668972
 20
127.1118974296
 10
688.0694509235
 20
129.6147449388
 10
689.1953781788
 20
132.1483637241
 10
690.2060851818
 20
134.7006799381
 10
691.0967554532
 20
137.2595306318
 10
691.8631445437
 20
139.8127217163
 10
692.5016002602
 20
142.3480860735
 10
693.0090800705
 20
144.8535415375
 10
693.3831656022
 20
147.3171484721
 10
693.6220741674
 20
149.7271666683
 10
693.7246672579
 20
152.0721112919
 10
693.690455971
 20
154.3408076138
 10
693.519603339
 20
156.522444263
 10
693.2129235525
 20
158.6066247474
 10
692.7718780804
 20
160.5834169976
 10
692.1985687052
 20
162.4434006986
 10
691.4957275071
 20
164.1777121809
 10
690.6667038445
 20
165.7780866604
 10
689.7154483928
 20
167.236897624
 10
688.6464943173
 20
168.5471931731
 10
687.464935671
 20
169.7027291528
 10
686.176403119
 20
170.6979989077
 10
685.3526601298
 20
171.2172797532
  0
LWPOLYLINE
  5
1F2
330
1F
100
AcDbEntity
  8
0
  6
Continuous
 62
     8
370
    15
100
AcDbPolyline
 90
       43
 70
   128
 43
0.0
 10
641.8871794262
 20
103.1396652231
 10
642.7902691569
 20
102.9382881119
 10
644.4775492783
 20
102.7113973551
 10
646.2325588584
 20
102.6608904415
 10
648.0469344774
 20
102.7870080594
 10
649.9120298093
 20
103.0891492011
 10
651.8189568254
 20
103.5658740264
 10
653.7586281501
 20
104.2149107244
 10
655.7218003662
 20
105.0331663396
 10
657.699118064
 20
106.0167415115
 10
659.6811584243
 20
107.1609490563
 10
661.6584761222
 20
108.4603363042
 10
663.6216483383
 20
109.9087110831
 10
665.5613196629
 20
111.4991712275
 10
667.468246679
 20
113.2241374707
 10
669.3333420109
 20
115.075389563
 10
671.14771763
 20
117.044105445
 10
672.9027272101
 20
119.120903289
 10
674.5900073314
 20
121.2958862076
 10
676.2015173358
 20
123.5586894166
 10
677.7295776441
 20
125.8985296283
 10
679.1669063532
 20
128.3042564385
 10
680.5066539372
 20
130.7644054634
 10
681.7424358888
 20
133.2672529726
 10
682.868363144
 20
135.8008717578
 10
683.879070147
 20
138.3531879718
 10
684.7697404184
 20
140.9120386656
 10
685.5361295089
 20
143.4652297501
 10
686.1745852255
 20
146.0005941073
 10
686.6820650358
 20
148.5060495713
 10
687.0561505675
 20
150.9696565058
 10
687.2950591326
 20
153.379674702
 10
687.3976522231
 20
155.7246193256
 10
687.3634409362
 20
157.9933156476
 10
687.1925883042
 20
160.1749522968
 10
686.8859085178
 20
162.2591327811
 10
686.4448630456
 20
164.2359250314
 10
685.8715536704
 20
166.0959087324
 10
685.1687124723
 20
167.8302202146
 10
684.3396888098
 20
169.4305946941
 10
683.388433358
 20
170.8894056578
 10
682.3194792825
 20
172.1997012069
 10
682.0311864141
 20
172.5066847024
  0
LWPOLYLINE
  5
1F3
330
1F
100
AcDbEntity
  8
0
  6
Continuous
 62
     8
370
    15
100
AcDbPolyline
 90
       24
 70
   128
 43
0.0
 10
633.473754376
 20
192.9258890607
 10
631.3800957531
 20
191.3511157504
 10
629.1493338751
 20
189.5210958218
 10
626.9503067376
 20
187.5577443224
 10
624.7907385034
 20
185.4679575959
 10
622.6782147348
 20
183.2590760945
 10
620.6201557485
 20
180.938858595
 10
618.6237905518
 20
178.515454946
 10
616.6961314503
 20
175.9973774412
 10
614.8439494168
 20
173.3934709197
 10
613.0737503084
 20
170.712881698
 10
611.3917520138
 20
167.9650254437
 10
609.8038626136
 20
165.1595541019
 10
608.3156596271
 20
162.3063219932
 10
606.9323704215
 20
159.4153511993
 10
605.6588538508
 20
156.4967963606
 10
604.4995831882
 20
153.5609090074
 10
603.4586304142
 20
150.6180015512
 10
602.5396519135
 20
147.6784110616
 10
601.7458756315
 20
144.7524629576
 10
601.0800897364
 20
141.8504347385
 10
600.5446328255
 20
138.9825198843
 10
600.1413857105
 20
136.1587920505
 10
600.008557886
 20
134.9561873167
  0
LWPOLYLINE
  5
1F4
330
1F
100
AcDbEntity
  8
0
  6
Continuous
 62
     8
370
    15
100
AcDbPolyline
 90
       27
 70
   128
 43
0.0
 10
638.017370909
 20
121.4252745841
 10
639.4616303795
 20
122.0089775413
 10
641.2008807831
 20
122.8569185091
 10
642.9453769895
 20
123.8639947328
 10
644.6846273931
 20
125.0241495375
 10
646.4081719374
 20
126.3304056157
 10
648.1056450227
 20
127.7749069896
 10
649.7668378462
 20
129.3489662581
 10
651.3817597987
 20
131.0431168434
 10
652.9406985496
 20
132.8471699246
 10
654.4342784578
 20
134.7502757142
 10
655.853516958
 20
136.7409887101
 10
657.1898785829
 20
138.80733653
 10
658.4353262964
 20
140.9368919151
 10
659.5823698295
 20
143.1168474686
 10
660.6241107273
 20
145.3340926814
 10
661.5542838375
 20
147.5752927798
 10
662.3672949896
 20
149.8269689229
 10
663.0582546389
 20
152.0755792652
 10
663.6230072727
 20
154.3076003997
 10
664.0581564022
 20
156.5096086885
 10
664.3610849894
 20
158.6683609948
 10
664.529971186
 20
160.7708743282
 10
664.5637992908
 20
162.8045039261
 10
664.4623658573
 20
164.7570193007
 10
664.2262809183
 20
166.616677795
 10
664.1924995665
 20
166.8130743986
  0
LWPOLYLINE
  5
1F5
330
1F
100
AcDbEntity
  8
0
  6
Continuous
 62
     8
370
    15
100
AcDbPolyline
 90
       44
 70
   128
 43
0.0
 10
640.2226086074
 20
105.4783734982
 10
641.3765509592
 20
105.1217755162
 10
642.9766109855
 20
104.7991876906
 10
644.6480583074
 20
104.6497351129
 10
646.3827498015
 20
104.6741459012
 10
648.1722342252
 20
104.8723011285
 10
650.0077933903
 20
105.2432354025
 10
651.880484637
 20
105.7851415687
 10
653.7811844019
 20
106.4953795146
 10
655.7006326667
 20
107.3704890325
 10
657.6294780724
 20
108.4062066767
 10
659.5583234781
 20
109.597486535
 10
661.4777717429
 20
110.9385248116
 10
663.3784715078
 20
112.4227881029
 10
665.2511627545
 20
114.0430452273
 10
667.0867219196
 20
115.7914024549
 10
668.8762063433
 20
117.6593419651
 10
670.6108978374
 20
119.6377633444
 10
672.2823451593
 20
121.7170279227
 10
673.8824051856
 20
123.8870057319
 10
675.4032825848
 20
126.1371248583
 10
676.837567795
 20
128.4564229477
 10
678.1782731228
 20
130.833600613
 10
679.4188667868
 20
133.2570764834
 10
680.5533047392
 20
135.7150436282
 10
681.5760601123
 20
138.1955270785
 10
682.4821501449
 20
140.6864421683
 10
683.2671604573
 20
143.1756534097
 10
683.9272665582
 20
145.6510336156
 10
684.4592524771
 20
148.1005229826
 10
684.860526432
 20
150.5121878447
 10
685.1291334565
 20
152.8742788131
 10
685.2637649242
 20
155.175288018
 10
685.2637649242
 20
157.4040051739
 10
685.1291334565
 20
159.5495721948
 10
684.860526432
 20
161.6015360939
 10
684.4592524771
 20
163.5498999093
 10
683.9272665582
 20
165.3851714084
 10
683.2671604573
 20
167.0984093328
 10
682.4821501449
 20
168.6812669598
 10
681.5760601123
 20
170.1260327659
 10
680.5533047392
 20
171.4256679974
 10
679.4188667868
 20
172.5738409621
 10
679.1140792201
 20
172.8402481374
  0
LWPOLYLINE
  5
1F6
330
1F
100
AcDbEntity
  8
0
  6
Continuous
 62
     8
370
    15
100
AcDbPolyline
 90
       33
 70
   128
 43
0.0
 10
630.4058669967
 20
200.4696260167
 10
628.1272226606
 20
199.0761843741
 10
625.8565821458
 20
197.5316207116
 10
623.60192116
 20
195.8413603654
 10
621.3711592821
 20
194.0113404368
 10
619.1721321445
 20
192.0479889374
 10
617.0125639103
 20
189.9582022109
 10
614.9000401417
 20
187.7493207095
 10
612.8419811554
 20
185.4291032101
 10
610.8456159588
 20
183.0056995611
 10
608.9179568572
 20
180.4876220563
 10
607.0657748238
 20
177.8837155347
 10
605.2955757153
 20
175.2031263131
 10
603.6135774208
 20
172.4552700587
 10
602.0256880205
 20
169.6497987169
 10
600.537485034
 20
166.7965666082
 10
599.1541958285
 20
163.9055958143
 10
597.8806792577
 20
160.9870409756
 10
596.7214085951
 20
158.0511536224
 10
595.6804558212
 20
155.1082461662
 10
594.7614773205
 20
152.1686556767
 10
593.9677010385
 20
149.2427075726
 10
593.3019151434
 20
146.3406793535
 10
592.7664582324
 20
143.4727644993
 10
592.3632111175
 20
140.6490366655
 10
592.0935902188
 20
137.8794142991
 10
591.9585425896
 20
135.1736257997
 10
591.9585425896
 20
132.5411753481
 10
592.0935902188
 20
129.9913095224
 10
592.3632111175
 20
127.5329848195
 10
592.7664582324
 20
125.1748361945
 10
593.3019151434
 20
122.9251467304
 10
593.9307409532
 20
120.8973553569
  0
ARC
  5
1F7
330
1F
100
AcDbEntity
  8
0
  6
Continuous
 62
     8
370
    15
100
AcDbCircle
 10
650.6764686831
 20
166.5158992951
 30
0.0
 40
39.54431502775964
100
AcDbArc
 50
102.6398395113
 51
120.8374836851
  0
LWPOLYLINE
  5
1F8
330
1F
100
AcDbEntity
  8
0
  6
Continuous
 62
     8
370
    15
100
AcDbPolyline
 90
       51
 70
   128
 43
0.0
 10
637.4834800018
 20
117.1498507184
 10
638.1483231212
 20
116.1023408086
 10
639.0784962314
 20
114.9350957234
 10
640.1202371292
 20
113.9206189496
 10
641.2672806622
 20
113.0650116698
 10
642.5127283758
 20
112.3734196069
 10
643.8490900007
 20
111.8500020769
 10
645.2683285009
 20
111.4979069744
 10
646.7619084091
 20
111.3192518409
 10
648.32084716
 20
111.3151111293
 10
649.9357691125
 20
111.4855097423
 10
651.596961936
 20
111.8294228826
 10
653.2944350213
 20
112.3447822162
 10
655.0179795656
 20
113.0284883113
 10
656.7572299692
 20
113.8764292791
 10
658.5017261756
 20
114.8835055028
 10
660.2409765792
 20
116.0436603075
 10
661.9645211235
 20
117.3499163857
 10
663.6619942088
 20
118.7944177596
 10
665.3231870323
 20
120.368477028
 10
666.9381089848
 20
122.0626276134
 10
668.4970477357
 20
123.8666806946
 10
669.9906276439
 20
125.7697864842
 10
671.4098661441
 20
127.76049948
 10
672.746227769
 20
129.8268473
 10
673.9916754826
 20
131.956402685
 10
675.1387190156
 20
134.1363582385
 10
676.1804599134
 20
136.3536034513
 10
677.1106330236
 20
138.5948035498
 10
677.9236441757
 20
140.8464796928
 10
678.614603825
 20
143.0950900352
 10
679.1793564588
 20
145.3271111696
 10
679.6145055883
 20
147.5291194585
 10
679.9174341755
 20
149.6878717648
 10
680.0863203722
 20
151.7903850982
 10
680.1201484769
 20
153.824014696
 10
680.0187150434
 20
155.7765300707
 10
679.7826301044
 20
157.6361885649
 10
679.4133135024
 20
159.3918059738
 10
678.912986351
 20
161.0328238075
 10
678.2846576765
 20
162.5493727919
 10
677.5321063214
 20
163.9323322228
 10
676.6598582183
 20
165.1733848195
 10
675.6731591697
 20
166.2650667456
 10
674.5779432999
 20
167.2008124977
 10
673.380797366
 20
167.9749943906
 10
672.0889211445
 20
168.5829564034
 10
670.710084131
 20
169.0210421809
 10
669.2525788136
 20
169.2866170238
 10
667.7251708007
 20
169.3780837337
 10
667.5489158792
 20
169.3774394209
  0
ARC
  5
1F9
330
1F
100
AcDbEntity
  8
0
  6
Continuous
 62
     8
370
    15
100
AcDbCircle
 10
605.165952433
 20
170.6235170015
 30
0.0
 40
52.03099319607576
100
AcDbArc
 50
312.0465319846
 51
347.9455559016
  0
LWPOLYLINE
  5
1FA
330
1F
100
AcDbEntity
  8
0
  6
Continuous
 62
     8
370
    15
100
AcDbPolyline
 90
       33
 70
   128
 43
0.0
 10
622.6276924037
 20
204.9598706317
 10
620.3490480675
 20
203.5664289891
 10
618.0784075528
 20
202.0218653266
 10
615.823746567
 20
200.3316049805
 10
613.592984689
 20
198.5015850518
 10
611.3939575515
 20
196.5382335524
 10
609.2343893173
 20
194.448446826
 10
607.1218655487
 20
192.2395653246
 10
605.0638065624
 20
189.9193478251
 10
603.0674413657
 20
187.4959441761
 10
601.1397822642
 20
184.9778666713
 10
599.2876002307
 20
182.3739601497
 10
597.5174011223
 20
179.6933709281
 10
595.8354028277
 20
176.9455146737
 10
594.2475134275
 20
174.140043332
 10
592.759310441
 20
171.2868112232
 10
591.3760212354
 20
168.3958404293
 10
590.1025046647
 20
165.4772855906
 10
588.9432340021
 20
162.5413982375
 10
587.9022812281
 20
159.5984907812
 10
586.9833027274
 20
156.6589002917
 10
586.1895264454
 20
153.7329521876
 10
585.5237405503
 20
150.8309239685
 10
584.9882836394
 20
147.9630091143
 10
584.5850365244
 20
145.1392812805
 10
584.3154156257
 20
142.3696589141
 10
584.1803679965
 20
139.6638704147
 10
584.1803679965
 20
137.0314199631
 10
584.3154156257
 20
134.4815541375
 10
584.5850365244
 20
132.0232294345
 10
584.9882836394
 20
129.6650808095
 10
585.5237405503
 20
127.4153913454
 10
586.1525663601
 20
125.3875999719
  0
ARC
  5
1FB
330
1F
100
AcDbEntity
  8
0
  6
Continuous
 62
     8
370
    15
100
AcDbCircle
 10
642.89829409
 20
171.0061439101
 30
0.0
 40
39.54431502776308
100
AcDbArc
 50
102.6398395113
 51
120.8374836851
  0
LWPOLYLINE
  5
1FC
330
1F
100
AcDbEntity
  8
0
  6
Continuous
 62
     8
370
    15
100
AcDbPolyline
 90
       33
 70
   128
 43
0.0
 10
614.8495178106
 20
209.4501152468
 10
612.5708734745
 20
208.0566736041
 10
610.3002329597
 20
206.5121099416
 10
608.0455719739
 20
204.8218495955
 10
605.814810096
 20
202.9918296669
 10
603.6157829584
 20
201.0284781674
 10
601.4562147242
 20
198.938691441
 10
599.3436909556
 20
196.7298099396
 10
597.2856319693
 20
194.4095924401
 10
595.2892667726
 20
191.9861887911
 10
593.3616076711
 20
189.4681112863
 10
591.5094256377
 20
186.8642047648
 10
589.7392265292
 20
184.1836155431
 10
588.0572282347
 20
181.4357592887
 10
586.4693388344
 20
178.630287947
 10
584.9811358479
 20
175.7770558382
 10
583.5978466424
 20
172.8860850443
 10
582.3243300716
 20
169.9675302057
 10
581.165059409
 20
167.0316428525
 10
580.1241066351
 20
164.0887353962
 10
579.2051281343
 20
161.1491449067
 10
578.4113518524
 20
158.2231968027
 10
577.7455659573
 20
155.3211685836
 10
577.2101090463
 20
152.4532537293
 10
576.8068619314
 20
149.6295258955
 10
576.5372410327
 20
146.8599035291
 10
576.4021934035
 20
144.1541150297
 10
576.4021934035
 20
141.5216645781
 10
576.5372410327
 20
138.9717987525
 10
576.8068619314
 20
136.5134740496
 10
577.2101090463
 20
134.1553254245
 10
577.7455659573
 20
131.9056359604
 10
578.3743917671
 20
129.877844587
  0
ARC
  5
1FD
330
1F
100
AcDbEntity
  8
0
  6
Continuous
 62
     8
370
    15
100
AcDbCircle
 10
635.120119497
 20
175.4963885251
 30
0.0
 40
39.54431502776588
100
AcDbArc
 50
102.6398395113
 51
120.8374836851
  0
LWPOLYLINE
  5
1FE
330
1F
100
AcDbEntity
  8
0
  6
Continuous
 62
     8
370
    15
100
AcDbPolyline
 90
       33
 70
   128
 43
0.0
 10
607.0713432176
 20
213.9403598618
 10
604.7926988814
 20
212.5469182191
 10
602.5220583667
 20
211.0023545566
 10
600.2673973808
 20
209.3120942105
 10
598.0366355029
 20
207.4820742819
 10
595.8376083654
 20
205.5187227825
 10
593.6780401312
 20
203.428936056
 10
591.5655163626
 20
201.2200545546
 10
589.5074573763
 20
198.8998370551
 10
587.5110921796
 20
196.4764334061
 10
585.5834330781
 20
193.9583559013
 10
583.7312510446
 20
191.3544493798
 10
581.9610519362
 20
188.6738601581
 10
580.2790536416
 20
185.9260039038
 10
578.6911642414
 20
183.120532562
 10
577.2029612549
 20
180.2673004533
 10
575.8196720493
 20
177.3763296594
 10
574.5461554785
 20
174.4577748207
 10
573.3868848159
 20
171.5218874675
 10
572.345932042
 20
168.5789800113
 10
571.4269535413
 20
165.6393895217
 10
570.6331772593
 20
162.7134414177
 10
569.9673913642
 20
159.8114131986
 10
569.4319344533
 20
156.9434983444
 10
569.0286873383
 20
154.1197705106
 10
568.7590664396
 20
151.3501481442
 10
568.6240188104
 20
148.6443596448
 10
568.6240188104
 20
146.0119091931
 10
568.7590664396
 20
143.4620433675
 10
569.0286873383
 20
141.0037186646
 10
569.4319344533
 20
138.6455700396
 10
569.9673913642
 20
136.3958805755
 10
570.596217174
 20
134.368089202
  0
ARC
  5
1FF
330
1F
100
AcDbEntity
  8
0
  6
Continuous
 62
     8
370
    15
100
AcDbCircle
 10
627.3419449039
 20
179.9866331402
 30
0.0
 40
39.54431502775576
100
AcDbArc
 50
102.6398395113
 51
120.8374836851
  0
LWPOLYLINE
  5
200
330
1F
100
AcDbEntity
  8
0
  6
Continuous
 62
     8
370
    15
100
AcDbPolyline
 90
       33
 70
   128
 43
0.0
 10
599.2931686245
 20
218.4306044768
 10
597.0145242884
 20
217.0371628342
 10
594.7438837736
 20
215.4925991717
 10
592.4892227878
 20
213.8023388255
 10
590.2584609099
 20
211.9723188969
 10
588.0594337723
 20
210.0089673975
 10
585.8998655381
 20
207.919180671
 10
583.7873417695
 20
205.7102991696
 10
581.7292827832
 20
203.3900816702
 10
579.7329175865
 20
200.9666780212
 10
577.805258485
 20
198.4486005164
 10
575.9530764516
 20
195.8446939948
 10
574.1828773431
 20
193.1641047732
 10
572.5008790486
 20
190.4162485188
 10
570.9129896483
 20
187.610777177
 10
569.4247866618
 20
184.7575450683
 10
568.0414974563
 20
181.8665742744
 10
566.7679808855
 20
178.9480194357
 10
565.6087102229
 20
176.0121320825
 10
564.567757449
 20
173.0692246263
 10
563.6487789482
 20
170.1296341368
 10
562.8550026663
 20
167.2036860327
 10
562.1892167712
 20
164.3016578136
 10
561.6537598602
 20
161.4337429594
 10
561.2505127453
 20
158.6100151256
 10
560.9808918466
 20
155.8403927592
 10
560.8458442174
 20
153.1346042598
 10
560.8458442174
 20
150.5021538082
 10
560.9808918466
 20
147.9522879825
 10
561.2505127453
 20
145.4939632796
 10
561.6537598602
 20
143.1358146546
 10
562.1892167712
 20
140.8861251905
 10
562.818042581
 20
138.858333817
  0
ARC
  5
201
330
1F
100
AcDbEntity
  8
0
  6
Continuous
 62
     8
370
    15
100
AcDbCircle
 10
619.5637703109
 20
184.4768777552
 30
0.0
 40
39.54431502775952
100
AcDbArc
 50
102.6398395113
 51
120.8374836851
  0
LWPOLYLINE
  5
202
330
1F
100
AcDbEntity
  8
0
  6
Continuous
 62
     8
370
    15
100
AcDbPolyline
 90
       33
 70
   128
 43
0.0
 10
591.5149940315
 20
222.9208490918
 10
589.2363496953
 20
221.5274074492
 10
586.9657091806
 20
219.9828437867
 10
584.7110481947
 20
218.2925834406
 10
582.4802863168
 20
216.4625635119
 10
580.2812591793
 20
214.4992120125
 10
578.1216909451
 20
212.4094252861
 10
576.0091671764
 20
210.2005437847
 10
573.9511081902
 20
207.8803262852
 10
571.9547429935
 20
205.4569226362
 10
570.027083892
 20
202.9388451314
 10
568.1749018585
 20
200.3349386098
 10
566.40470275
 20
197.6543493882
 10
564.7227044555
 20
194.9064931338
 10
563.1348150553
 20
192.1010217921
 10
561.6466120688
 20
189.2477896833
 10
560.2633228632
 20
186.3568188894
 10
558.9898062924
 20
183.4382640507
 10
557.8305356298
 20
180.5023766976
 10
556.7895828559
 20
177.5594692413
 10
555.8706043552
 20
174.6198787518
 10
555.0768280732
 20
171.6939306477
 10
554.4110421781
 20
168.7919024286
 10
553.8755852671
 20
165.9239875744
 10
553.4723381522
 20
163.1002597406
 10
553.2027172535
 20
160.3306373742
 10
553.0676696243
 20
157.6248488748
 10
553.0676696243
 20
154.9923984232
 10
553.2027172535
 20
152.4425325976
 10
553.4723381522
 20
149.9842078946
 10
553.8755852671
 20
147.6260592696
 10
554.4110421781
 20
145.3763698055
 10
555.0398679879
 20
143.348578432
  0
ARC
  5
203
330
1F
100
AcDbEntity
  8
0
  6
Continuous
 62
     8
370
    15
100
AcDbCircle
 10
611.7855957178
 20
188.9671223702
 30
0.0
 40
39.54431502776364
100
AcDbArc
 50
102.6398395113
 51
120.8374836851
  0
LWPOLYLINE
  5
204
330
1F
100
AcDbEntity
  8
0
  6
Continuous
 62
     8
370
    15
100
AcDbPolyline
 90
       33
 70
   128
 43
0.0
 10
583.7368194384
 20
227.4110937069
 10
581.4581751023
 20
226.0176520642
 10
579.1875345875
 20
224.4730884017
 10
576.9328736017
 20
222.7828280556
 10
574.7021117238
 20
220.952808127
 10
572.5030845862
 20
218.9894566275
 10
570.343516352
 20
216.8996699011
 10
568.2309925834
 20
214.6907883997
 10
566.1729335971
 20
212.3705709002
 10
564.1765684004
 20
209.9471672512
 10
562.2489092989
 20
207.4290897464
 10
560.3967272655
 20
204.8251832249
 10
558.626528157
 20
202.1445940032
 10
556.9445298625
 20
199.3967377488
 10
555.3566404622
 20
196.5912664071
 10
553.8684374757
 20
193.7380342983
 10
552.4851482702
 20
190.8470635044
 10
551.2116316994
 20
187.9285086658
 10
550.0523610368
 20
184.9926213126
 10
549.0114082628
 20
182.0497138563
 10
548.0924297621
 20
179.1101233668
 10
547.2986534802
 20
176.1841752628
 10
546.6328675851
 20
173.2821470437
 10
546.0974106741
 20
170.4142321894
 10
545.6941635592
 20
167.5905043556
 10
545.4245426605
 20
164.8208819892
 10
545.2894950313
 20
162.1150934898
 10
545.2894950313
 20
159.4826430382
 10
545.4245426605
 20
156.9327772126
 10
545.6941635592
 20
154.4744525097
 10
546.0974106741
 20
152.1163038846
 10
546.6328675851
 20
149.8666144205
 10
547.2616933949
 20
147.8388230471
  0
ARC
  5
205
330
1F
100
AcDbEntity
  8
0
  6
Continuous
 62
     8
370
    15
100
AcDbCircle
 10
604.0074211248
 20
193.4573669852
 30
0.0
 40
39.54431502776556
100
AcDbArc
 50
102.6398395113
 51
120.8374836851
  0
ARC
  5
206
330
1F
100
AcDbEntity
  8
0
  6
Continuous
 62
     8
370
    15
100
AcDbCircle
 10
551.5875877338
 20
169.6688449776
 30
0.0
 40
18.6603417560768
100
AcDbArc
 50
204.1351795331
 51
226.6537907238
  0
ARC
  5
207
330
1F
100
AcDbEntity
  8
0
  6
Continuous
 62
     8
370
    15
100
AcDbCircle
 10
579.207029911
 20
217.603637514
 30
0.0
 40
18.55635337730832
100
AcDbArc
 50
73.0624454145
 51
95.9283848607
  0
LINE
  5
208
330
1F
100
AcDbEntity
  8
0
  6
Continuous
 62
     8
370
    15
100
AcDbLine
 10
566.8032026858
 20
227.9662740142
 30
0.0
 11
565.0265008351
 21
226.8807574417
 31
0.0
  0
ARC
  5
209
330
1F
100
AcDbEntity
  8
0
  6
Continuous
 62
     8
370
    15
100
AcDbCircle
 10
567.6536954727
 20
174.9201806519
 30
0.0
 40
31.36515003834403
100
AcDbArc
 50
175.7404053245
 51
201.2046053734
  0
ARC
  5
20A
330
1F
100
AcDbEntity
  8
0
  6
Continuous
 62
     8
370
    15
100
AcDbCircle
 10
582.2517143922
 20
202.4382638213
 30
0.0
 40
29.83849557782576
100
AcDbArc
 50
98.4720542441
 51
121.1806175554
  0
ARC
  5
20B
330
1F
100
AcDbEntity
  8
0
  6
Continuous
 62
     8
370
    15
100
AcDbCircle
 10
553.7853665995
 20
171.0849520443
 30
0.0
 40
20.11507704418159
100
AcDbArc
 50
197.8079470736
 51
221.0122690666
  0
ARC
  5
20C
330
1F
100
AcDbEntity
  8
0
  6
Continuous
 62
     8
370
    15
100
AcDbCircle
 10
579.0712632596
 20
214.8919259112
 30
0.0
 40
20.11003934676113
100
AcDbArc
 50
78.9612282578
 51
102.1993474087
  0
ARC
  5
20D
330
1F
100
AcDbEntity
  8
0
  6
Continuous
 62
     8
370
    15
100
AcDbCircle
 10
561.4039983484
 20
173.8461856845
 30
0.0
 40
26.05933944233462
100
AcDbArc
 50
183.6669809125
 51
208.0068828019
  0
ARC
  5
20E
330
1F
100
AcDbEntity
  8
0
  6
Continuous
 62
     8
370
    15
100
AcDbCircle
 10
580.5393961823
 20
206.7004877456
 30
0.0
 40
26.26747754933379
100
AcDbArc
 50
91.9610913914
 51
116.2328495435
  0
ENDSEC
  0
SECTION
  2
OBJECTS
  0
DICTIONARY
  5
C
330
0
100
AcDbDictionary
281
     1
  3
ACAD_GROUP
350
D
  3
ACAD_LAYOUT
350
1A
  3
ACAD_MLINESTYLE
350
17
  3
ACAD_PLOTSETTINGS
350
19
  3
ACAD_PLOTSTYLENAME
350
E
  3
ACAD_SCALELIST
350
47
  0
DICTIONARY
  5
D
102
{ACAD_REACTORS
330
C
102
}
330
C
100
AcDbDictionary
281
     1
  0
DICTIONARY
  5
1A
102
{ACAD_REACTORS
330
C
102
}
330
C
100
AcDbDictionary
281
     1
  3
Layout1
350
1E
  3
Layout2
350
26
  3
Model
350
22
  0
DICTIONARY
  5
17
102
{ACAD_REACTORS
330
C
102
}
330
C
100
AcDbDictionary
281
     1
  3
Standard
350
18
  0
DICTIONARY
  5
19
102
{ACAD_REACTORS
330
C
102
}
330
C
100
AcDbDictionary
281
     1
  0
ACDBDICTIONARYWDFLT
  5
E
102
{ACAD_REACTORS
330
C
102
}
330
C
100
AcDbDictionary
281
     1
  3
Normal
350
F
100
AcDbDictionaryWithDefault
340
F
  0
DICTIONARY
  5
47
102
{ACAD_REACTORS
330
C
102
}
330
C
100
AcDbDictionary
281
     1
  3
A0
350
48
  3
A1
350
49
  3
A2
350
4A
  3
A3
350
4B
  3
A4
350
4C
  3
A5
350
4D
  3
A6
350
4E
  3
A7
350
4F
  3
A8
350
50
  3
A9
350
51
  3
B0
350
52
  3
B1
350
53
  3
B2
350
54
  3
B3
350
55
  3
B4
350
56
  3
B5
350
57
  3
B6
350
58
  3
B7
350
59
  3
B8
350
5A
  3
B9
350
5B
  3
C0
350
5C
  3
C1
350
5D
  3
C2
350
5E
  3
C3
350
5F
  3
C4
350
60
  3
C5
350
61
  3
C6
350
62
  3
C7
350
63
  3
C8
350
64
  3
C9
350
65
  3
D0
350
66
  3
D1
350
67
  3
D2
350
68
  0
LAYOUT
  5
1E
102
{ACAD_REACTORS
330
1A
102
}
330
1A
100
AcDbPlotSettings
  1

  2
none_device
  4

  6

 40
0.0
 41
0.0
 42
0.0
 43
0.0
 44
0.0
 45
0.0
 46
0.0
 47
0.0
 48
0.0
 49
0.0
140
0.0
141
0.0
142
1.0
143
1.0
 70
   688
 72
     1
 73
     0
 74
     5
  7

 75
    16
147
1.0
148
0.0
149
0.0
100
AcDbLayout
  1
Layout1
 70
     1
 71
     1
 10
0.0
 20
0.0
 11
420.0
 21
297.0
 12
0.0
 22
0.0
 32
0.0
 14
1.0000000000E+20
 24
1.0000000000E+20
 34
1.0000000000E+20
 15
-1.0000000000E+20
 25
-1.0000000000E+20
 35
-1.0000000000E+20
146
0.0
 13
0.0
 23
0.0
 33
0.0
 16
1.0
 26
0.0
 36
0.0
 17
0.0
 27
1.0
 37
0.0
 76
     0
330
1B
  0
LAYOUT
  5
26
102
{ACAD_REACTORS
330
1A
102
}
330
1A
100
AcDbPlotSettings
  1

  2
none_device
  4

  6

 40
0.0
 41
0.0
 42
0.0
 43
0.0
 44
0.0
 45
0.0
 46
0.0
 47
0.0
 48
0.0
 49
0.0
140
0.0
141
0.0
142
1.0
143
1.0
 70
   688
 72
     1
 73
     0
 74
     5
  7

 75
    16
147
1.0
148
0.0
149
0.0
100
AcDbLayout
  1
Layout2
 70
     1
 71
     2
 10
0.0
 20
0.0
 11
0.0
 21
0.0
 12
0.0
 22
0.0
 32
0.0
 14
0.0
 24
0.0
 34
0.0
 15
0.0
 25
0.0
 35
0.0
146
0.0
 13
0.0
 23
0.0
 33
0.0
 16
1.0
 26
0.0
 36
0.0
 17
0.0
 27
1.0
 37
0.0
 76
     0
330
23
  0
LAYOUT
  5
22
102
{ACAD_REACTORS
330
1A
102
}
330
1A
100
AcDbPlotSettings
  1

  2
none_device
  4
Letter_(8.50_x_11.00_Inches)
  6

 40
6.35
 41
6.35
 42
6.35000508
 43
6.35000508
 44
215.9
 45
279.4
 46
0.0
 47
0.0
 48
0.0
 49
0.0
140
0.0
141
0.0
142
1.0
143
1.0
 70
  1712
 72
     1
 73
     0
 74
     0
  7

 75
     0
147
1.0
148
0.0
149
0.0
100
AcDbLayout
  1
Model
 70
     1
 71
     0
 10
0.0
 20
0.0
 11
841.0
 21
594.0
 12
0.0
 22
0.0
 32
0.0
 14
0.0
 24
0.0
 34
0.0
 15
841.0
 25
594.0
 35
0.0
146
0.0
 13
0.0
 23
0.0
 33
0.0
 16
1.0
 26
0.0
 36
0.0
 17
0.0
 27
1.0
 37
0.0
 76
     0
330
1F
331
29
  0
MLINESTYLE
  5
18
102
{ACAD_REACTORS
330
17
102
}
330
17
100
AcDbMlineStyle
  2
Standard
 70
     0
  3

 62
   256
 51
90.0
 52
90.0
 71
     2
 49
0.5
 62
   256
  6
BYLAYER
 49
-0.5
 62
   256
  6
BYLAYER
  0
ACDBPLACEHOLDER
  5
F
102
{ACAD_REACTORS
330
E
102
}
330
E
  0
SCALE
  5
48
102
{ACAD_REACTORS
330
47
102
}
330
47
100
AcDbScale
 70
     0
300
1:1
140
1.0
141
1.0
290
     1
  0
SCALE
  5
49
102
{ACAD_REACTORS
330
47
102
}
330
47
100
AcDbScale
 70
     0
300
1:2
140
1.0
141
2.0
290
     0
  0
SCALE
  5
4A
102
{ACAD_REACTORS
330
47
102
}
330
47
100
AcDbScale
 70
     0
300
1:4
140
1.0
141
4.0
290
     0
  0
SCALE
  5
4B
102
{ACAD_REACTORS
330
47
102
}
330
47
100
AcDbScale
 70
     0
300
1:5
140
1.0
141
5.0
290
     0
  0
SCALE
  5
4C
102
{ACAD_REACTORS
330
47
102
}
330
47
100
AcDbScale
 70
     0
300
1:8
140
1.0
141
8.0
290
     0
  0
SCALE
  5
4D
102
{ACAD_REACTORS
330
47
102
}
330
47
100
AcDbScale
 70
     0
300
1:10
140
1.0
141
10.0
290
     0
  0
SCALE
  5
4E
102
{ACAD_REACTORS
330
47
102
}
330
47
100
AcDbScale
 70
     0
300
1:16
140
1.0
141
16.0
290
     0
  0
SCALE
  5
4F
102
{ACAD_REACTORS
330
47
102
}
330
47
100
AcDbScale
 70
     0
300
1:20
140
1.0
141
20.0
290
     0
  0
SCALE
  5
50
102
{ACAD_REACTORS
330
47
102
}
330
47
100
AcDbScale
 70
     0
300
1:30
140
1.0
141
30.0
290
     0
  0
SCALE
  5
51
102
{ACAD_REACTORS
330
47
102
}
330
47
100
AcDbScale
 70
     0
300
1:40
140
1.0
141
40.0
290
     0
  0
SCALE
  5
52
102
{ACAD_REACTORS
330
47
102
}
330
47
100
AcDbScale
 70
     0
300
1:50
140
1.0
141
50.0
290
     0
  0
SCALE
  5
53
102
{ACAD_REACTORS
330
47
102
}
330
47
100
AcDbScale
 70
     0
300
1:100
140
1.0
141
100.0
290
     0
  0
SCALE
  5
54
102
{ACAD_REACTORS
330
47
102
}
330
47
100
AcDbScale
 70
     0
300
2:1
140
2.0
141
1.0
290
     0
  0
SCALE
  5
55
102
{ACAD_REACTORS
330
47
102
}
330
47
100
AcDbScale
 70
     0
300
4:1
140
4.0
141
1.0
290
     0
  0
SCALE
  5
56
102
{ACAD_REACTORS
330
47
102
}
330
47
100
AcDbScale
 70
     0
300
8:1
140
8.0
141
1.0
290
     0
  0
SCALE
  5
57
102
{ACAD_REACTORS
330
47
102
}
330
47
100
AcDbScale
 70
     0
300
10:1
140
10.0
141
1.0
290
     0
  0
SCALE
  5
58
102
{ACAD_REACTORS
330
47
102
}
330
47
100
AcDbScale
 70
     0
300
100:1
140
100.0
141
1.0
290
     0
  0
SCALE
  5
59
102
{ACAD_REACTORS
330
47
102
}
330
47
100
AcDbScale
 70
     0
300
1/128" = 1'-0"
140
0.0078125
141
12.0
290
     0
  0
SCALE
  5
5A
102
{ACAD_REACTORS
330
47
102
}
330
47
100
AcDbScale
 70
     0
300
1/64" = 1'-0"
140
0.015625
141
12.0
290
     0
  0
SCALE
  5
5B
102
{ACAD_REACTORS
330
47
102
}
330
47
100
AcDbScale
 70
     0
300
1/32" = 1'-0"
140
0.03125
141
12.0
290
     0
  0
SCALE
  5
5C
102
{ACAD_REACTORS
330
47
102
}
330
47
100
AcDbScale
 70
     0
300
1/16" = 1'-0"
140
0.0625
141
12.0
290
     0
  0
SCALE
  5
5D
102
{ACAD_REACTORS
330
47
102
}
330
47
100
AcDbScale
 70
     0
300
3/32" = 1'-0"
140
0.09375
141
12.0
290
     0
  0
SCALE
  5
5E
102
{ACAD_REACTORS
330
47
102
}
330
47
100
AcDbScale
 70
     0
300
1/8" = 1'-0"
140
0.125
141
12.0
290
     0
  0
SCALE
  5
5F
102
{ACAD_REACTORS
330
47
102
}
330
47
100
AcDbScale
 70
     0
300
3/16" = 1'-0"
140
0.1875
141
12.0
290
     0
  0
SCALE
  5
60
102
{ACAD_REACTORS
330
47
102
}
330
47
100
AcDbScale
 70
     0
300
1/4" = 1'-0"
140
0.25
141
12.0
290
     0
  0
SCALE
  5
61
102
{ACAD_REACTORS
330
47
102
}
330
47
100
AcDbScale
 70
     0
300
3/8" = 1'-0"
140
0.375
141
12.0
290
     0
  0
SCALE
  5
62
102
{ACAD_REACTORS
330
47
102
}
330
47
100
AcDbScale
 70
     0
300
1/2" = 1'-0"
140
0.5
141
12.0
290
     0
  0
SCALE
  5
63
102
{ACAD_REACTORS
330
47
102
}
330
47
100
AcDbScale
 70
     0
300
3/4" = 1'-0"
140
0.75
141
12.0
290
     0
  0
SCALE
  5
64
102
{ACAD_REACTORS
330
47
102
}
330
47
100
AcDbScale
 70
     0
300
1" = 1'-0"
140
1.0
141
12.0
290
     0
  0
SCALE
  5
65
102
{ACAD_REACTORS
330
47
102
}
330
47
100
AcDbScale
 70
     0
300
1-1/2" = 1'-0"
140
1.5
141
12.0
290
     0
  0
SCALE
  5
66
102
{ACAD_REACTORS
330
47
102
}
330
47
100
AcDbScale
 70
     0
300
3" = 1'-0"
140
3.0
141
12.0
290
     0
  0
SCALE
  5
67
102
{ACAD_REACTORS
330
47
102
}
330
47
100
AcDbScale
 70
     0
300
6" = 1'-0"
140
6.0
141
12.0
290
     0
  0
SCALE
  5
68
102
{ACAD_REACTORS
330
47
102
}
330
47
100
AcDbScale
 70
     0
300
1'-0" = 1'-0"
140
12.0
141
12.0
290
     0
  0
ENDSEC
  0
EOF
