  0
SECTION
  2
HEADER
  9
$ACADVER
  1
AC1015
  9
$ACADMAINTVER
 70
     6
  9
$DWGCODEPAGE
  3
ANSI_1252
  9
$INSBASE
 10
0.0
 20
0.0
 30
0.0
  9
$EXTMIN
 10
0.0
 20
0.0
 30
0.0
  9
$EXTMAX
 10
841.0
 20
594.0
 30
0.0
  9
$LIMMIN
 10
0.0
 20
0.0
  9
$LIMMAX
 10
841.0
 20
594.0
  9
$ORTHOMODE
 70
     0
  9
$REGENMODE
 70
     1
  9
$FILLMODE
 70
     1
  9
$QTEXTMODE
 70
     0
  9
$MIRRTEXT
 70
     1
  9
$LTSCALE
 40
1.0
  9
$ATTMODE
 70
     1
  9
$TEXTSIZE
 40
3.0
  9
$TRACEWID
 40
1.0
  9
$TEXTSTYLE
  7
Standard
  9
$CLAYER
  8
0
  9
$CELTYPE
  6
ByLayer
  9
$CECOLOR
 62
   256
  9
$CELTSCALE
 40
1.0
  9
$DISPSILH
 70
     0
  9
$DIMSCALE
 40
1.0
  9
$DIMASZ
 40
3.0
  9
$DIMEXO
 40
1.0
  9
$DIMDLI
 40
3.75
  9
$DIMRND
 40
0.0
  9
$DIMDLE
 40
0.0
  9
$DIMEXE
 40
1.0
  9
$DIMTP
 40
0.0
  9
$DIMTM
 40
0.0
  9
$DIMTXT
 40
3.0
  9
$DIMCEN
 40
2.5
  9
$DIMTSZ
 40
0.0
  9
$DIMTOL
 70
     0
  9
$DIMLIM
 70
     0
  9
$DIMTIH
 70
     1
  9
$DIMTOH
 70
     1
  9
$DIMSE1
 70
     0
  9
$DIMSE2
 70
     0
  9
$DIMTAD
 70
     1
  9
$DIMZIN
 70
     0
  9
$DIMBLK
  1

  9
$DIMASO
 70
     1
  9
$DIMSHO
 70
     1
  9
$DIMPOST
  1

  9
$DIMAPOST
  1

  9
$DIMALT
 70
     0
  9
$DIMALTD
 70
     3
  9
$DIMALTF
 40
0.0393700787
  9
$DIMLFAC
 40
1.0
  9
$DIMTOFL
 70
     1
  9
$DIMTVP
 40
0.0
  9
$DIMTIX
 70
     0
  9
$DIMSOXD
 70
     0
  9
$DIMSAH
 70
     0
  9
$DIMBLK1
  1

  9
$DIMBLK2
  1

  9
$DIMSTYLE
  2
ISO-25
  9
$DIMCLRD
 70
     0
  9
$DIMCLRE
 70
     0
  9
$DIMCLRT
 70
     0
  9
$DIMTFAC
 40
1.0
  9
$DIMGAP
 40
3.0
  9
$DIMJUST
 70
     0
  9
$DIMSD1
 70
     0
  9
$DIMSD2
 70
     0
  9
$DIMTOLJ
 70
     0
  9
$DIMTZIN
 70
     0
  9
$DIMALTZ
 70
     0
  9
$DIMALTTZ
 70
     0
  9
$DIMUPT
 70
     0
  9
$DIMDEC
 70
     2
  9
$DIMTDEC
 70
     3
  9
$DIMALTU
 70
     2
  9
$DIMALTTD
 70
     3
  9
$DIMTXSTY
  7
Standard
  9
$DIMAUNIT
 70
     0
  9
$DIMADEC
 70
     2
  9
$DIMALTRND
 40
0.0
  9
$DIMAZIN
 70
     0
  9
$DIMDSEP
 70
    44
  9
$DIMATFIT
 70
     3
  9
$DIMFRAC
 70
     0
  9
$DIMLDRBLK
  1

  9
$DIMLUNIT
 70
     2
  9
$DIMLWD
 70
    -2
  9
$DIMLWE
 70
    -2
  9
$DIMTMOVE
 70
     0
  9
$LUNITS
 70
     2
  9
$LUPREC
 70
     2
  9
$SKETCHINC
 40
1.0
  9
$FILLETRAD
 40
10.0
  9
$AUNITS
 70
     0
  9
$AUPREC
 70
     2
  9
$MENU
  1
.
  9
$ELEVATION
 40
0.0
  9
$PELEVATION
 40
0.0
  9
$THICKNESS
 40
0.0
  9
$LIMCHECK
 70
     0
  9
$CHAMFERA
 40
0.0
  9
$CHAMFERB
 40
0.0
  9
$CHAMFERC
 40
0.0
  9
$CHAMFERD
 40
0.0
  9
$SKPOLY
 70
     0
  9
$TDCREATE
 40
2457877.578268449
  9
$TDUCREATE
 40
2457877.494935116
  9
$TDUPDATE
 40
2457877.578269074
  9
$TDUUPDATE
 40
2457877.494935741
  9
$TDINDWG
 40
0.0000000116
  9
$TDUSRTIMER
 40
0.0000000116
  9
$USRTIMER
 70
     1
  9
$ANGBASE
 50
0.0
  9
$ANGDIR
 70
     0
  9
$PDMODE
 70
     0
  9
$PDSIZE
 40
-1.0
  9
$PLINEWID
 40
0.0
  9
$SPLFRAME
 70
     0
  9
$SPLINETYPE
 70
     6
  9
$SPLINESEGS
 70
     8
  9
$HANDSEED
  5
203
  9
$SURFTAB1
 70
     6
  9
$SURFTAB2
 70
     6
  9
$SURFTYPE
 70
     6
  9
$SURFU
 70
     6
  9
$SURFV
 70
     6
  9
$UCSBASE
  2

  9
$UCSNAME
  2

  9
$UCSORG
 10
0.0
 20
0.0
 30
0.0
  9
$UCSXDIR
 10
1.0
 20
0.0
 30
0.0
  9
$UCSYDIR
 10
0.0
 20
1.0
 30
0.0
  9
$UCSORTHOREF
  2

  9
$UCSORTHOVIEW
 70
     0
  9
$UCSORGTOP
 10
0.0
 20
0.0
 30
0.0
  9
$UCSORGBOTTOM
 10
0.0
 20
0.0
 30
0.0
  9
$UCSORGLEFT
 10
0.0
 20
0.0
 30
0.0
  9
$UCSORGRIGHT
 10
0.0
 20
0.0
 30
0.0
  9
$UCSORGFRONT
 10
0.0
 20
0.0
 30
0.0
  9
$UCSORGBACK
 10
0.0
 20
0.0
 30
0.0
  9
$PUCSBASE
  2

  9
$PUCSNAME
  2

  9
$PUCSORG
 10
0.0
 20
0.0
 30
0.0
  9
$PUCSXDIR
 10
1.0
 20
0.0
 30
0.0
  9
$PUCSYDIR
 10
0.0
 20
1.0
 30
0.0
  9
$PUCSORTHOREF
  2

  9
$PUCSORTHOVIEW
 70
     0
  9
$PUCSORGTOP
 10
0.0
 20
0.0
 30
0.0
  9
$PUCSORGBOTTOM
 10
0.0
 20
0.0
 30
0.0
  9
$PUCSORGLEFT
 10
0.0
 20
0.0
 30
0.0
  9
$PUCSORGRIGHT
 10
0.0
 20
0.0
 30
0.0
  9
$PUCSORGFRONT
 10
0.0
 20
0.0
 30
0.0
  9
$PUCSORGBACK
 10
0.0
 20
0.0
 30
0.0
  9
$USERI1
 70
     0
  9
$USERI2
 70
     0
  9
$USERI3
 70
     0
  9
$USERI4
 70
     0
  9
$USERI5
 70
     0
  9
$USERR1
 40
0.0
  9
$USERR2
 40
0.0
  9
$USERR3
 40
0.0
  9
$USERR4
 40
0.0
  9
$USERR5
 40
0.0
  9
$WORLDVIEW
 70
     1
  9
$SHADEDGE
 70
     3
  9
$SHADEDIF
 70
    70
  9
$TILEMODE
 70
     1
  9
$MAXACTVP
 70
    64
  9
$PINSBASE
 10
0.0
 20
0.0
 30
0.0
  9
$PLIMCHECK
 70
     0
  9
$PEXTMIN
 10
1.0000000000E+20
 20
1.0000000000E+20
 30
1.0000000000E+20
  9
$PEXTMAX
 10
-1.0000000000E+20
 20
-1.0000000000E+20
 30
-1.0000000000E+20
  9
$PLIMMIN
 10
0.0
 20
0.0
  9
$PLIMMAX
 10
420.0
 20
297.0
  9
$UNITMODE
 70
     0
  9
$VISRETAIN
 70
     1
  9
$PLINEGEN
 70
     0
  9
$PSLTSCALE
 70
     1
  9
$TREEDEPTH
 70
  3020
  9
$CMLSTYLE
  2
Standard
  9
$CMLJUST
 70
     0
  9
$CMLSCALE
 40
20.0
  9
$PROXYGRAPHICS
 70
     1
  9
$MEASUREMENT
 70
     1
  9
$CELWEIGHT
370
    -1
  9
$ENDCAPS
280
     0
  9
$JOINSTYLE
280
     0
  9
$LWDISPLAY
290
     1
  9
$INSUNITS
 70
     4
  9
$HYPERLINKBASE
  1

  9
$STYLESHEET
  1

  9
$XEDIT
290
     1
  9
$CEPSNTYPE
380
     0
  9
$PSTYLEMODE
290
     1
  9
$FINGERPRINTGUID
  2
{06E9AC27-BE2E-4197-B088-ABB97208862D}
  9
$VERSIONGUID
  2
{FAEB1C32-E019-11D5-929B-00C0DF256EC4}
  9
$EXTNAMES
290
     1
  9
$PSVPSCALE
 40
0.0
  9
$OLESTARTUP
290
     0
  0
ENDSEC
  0
SECTION
  2
CLASSES
  0
CLASS
  1
ACDBDICTIONARYWDFLT
  2
AcDbDictionaryWithDefault
  3
ObjectDBX Classes
 90
        0
280
     0
281
     0
  0
CLASS
  1
VISUALSTYLE
  2
AcDbVisualStyle
  3
ObjectDBX Classes
 90
     4095
280
     0
281
     0
  0
CLASS
  1
MATERIAL
  2
AcDbMaterial
  3
ObjectDBX Classes
 90
     1153
280
     0
281
     0
  0
CLASS
  1
SCALE
  2
AcDbScale
  3
ObjectDBX Classes
 90
     1153
280
     0
281
     0
  0
CLASS
  1
TABLESTYLE
  2
AcDbTableStyle
  3
ObjectDBX Classes
 90
     4095
280
     0
281
     0
  0
CLASS
  1
MLEADERSTYLE
  2
AcDbMLeaderStyle
  3
ACDB_MLEADERSTYLE_CLASS
 90
     4095
280
     0
281
     0
  0
CLASS
  1
SUN
  2
AcDbSun
  3
SCENEOE
 90
     1153
280
     0
281
     0
  0
CLASS
  1
ACDBPLACEHOLDER
  2
AcDbPlaceHolder
  3
ObjectDBX Classes
 90
        0
280
     0
281
     0
  0
CLASS
  1
LAYOUT
  2
AcDbLayout
  3
ObjectDBX Classes
 90
        0
280
     0
281
     0
  0
ENDSEC
  0
SECTION
  2
TABLES
  0
TABLE
  2
VPORT
  5
8
330
0
100
AcDbSymbolTable
 70
     1
  0
VPORT
  5
29
330
8
100
AcDbSymbolTableRecord
100
AcDbViewportTableRecord
  2
*Active
 70
     0
 10
0.0
 20
0.0
 11
1.0
 21
1.0
 12
420.5
 22
297.0
 13
0.0
 23
0.0
 14
10.0
 24
10.0
 15
10.0
 25
10.0
 16
0.0
 26
0.0
 36
1.0
 17
0.0
 27
0.0
 37
0.0
 40
594.0
 41
1.4158249158
 42
50.0
 43
0.0
 44
0.0
 50
0.0
 51
0.0
 71
     0
 72
  2000
 73
     1
 74
     3
 75
     0
 76
     0
 77
     0
 78
     0
281
     0
 65
     1
110
0.0
120
0.0
130
0.0
111
1.0
121
0.0
131
0.0
112
0.0
122
1.0
132
0.0
 79
     0
146
0.0
  0
ENDTAB
  0
TABLE
  2
LTYPE
  5
5
330
0
100
AcDbSymbolTable
 70
     6
  0
LTYPE
  5
14
330
5
100
AcDbSymbolTableRecord
100
AcDbLinetypeTableRecord
  2
ByBlock
 70
     0
  3

 72
    65
 73
     0
 40
0.0
  0
LTYPE
  5
15
330
5
100
AcDbSymbolTableRecord
100
AcDbLinetypeTableRecord
  2
ByLayer
 70
     0
  3

 72
    65
 73
     0
 40
0.0
  0
LTYPE
  5
16
330
5
100
AcDbSymbolTableRecord
100
AcDbLinetypeTableRecord
  2
Continuous
 70
     0
  3
Solid line
 72
    65
 73
     0
 40
0.0
  0
LTYPE
  5
6E
330
5
100
AcDbSymbolTableRecord
100
AcDbLinetypeTableRecord
  2
HIDDEN
 70
     0
  3
Hidden __ __ __ __ __ __ __ __ __ __ __ __ __ __
 72
    65
 73
     2
 40
1.905
 49
1.27
 74
     0
 49
-0.635
 74
     0
  0
LTYPE
  5
6F
330
5
100
AcDbSymbolTableRecord
100
AcDbLinetypeTableRecord
  2
PHANTOM
 70
     0
  3
Phantom ______  __  __  ______  __  __  ______
 72
    65
 73
     6
 40
12.7
 49
6.35
 74
     0
 49
-1.27
 74
     0
 49
1.27
 74
     0
 49
-1.27
 74
     0
 49
1.27
 74
     0
 49
-1.27
 74
     0
  0
LTYPE
  5
70
330
5
100
AcDbSymbolTableRecord
100
AcDbLinetypeTableRecord
  2
CENTER
 70
     0
  3
Center ____ _ ____ _ ____ _ ____ _ ____ _ ____
 72
    65
 73
     4
 40
10.16
 49
6.35
 74
     0
 49
-1.27
 74
     0
 49
1.27
 74
     0
 49
-1.27
 74
     0
  0
LTYPE
  5
71
330
5
100
AcDbSymbolTableRecord
100
AcDbLinetypeTableRecord
  2
CENTERX2
 70
     0
  3
Center (2x) ________  __  ________  __  _____
 72
    65
 73
     4
 40
20.32
 49
12.7
 74
     0
 49
-2.54
 74
     0
 49
2.54
 74
     0
 49
-2.54
 74
     0
  0
LTYPE
  5
72
330
5
100
AcDbSymbolTableRecord
100
AcDbLinetypeTableRecord
  2
DOT2
 70
     0
  3
Dot (.5x) ........................................
 72
    65
 73
     2
 40
0.635
 49
0.0
 74
     0
 49
-0.635
 74
     0
  0
ENDTAB
  0
TABLE
  2
LAYER
  5
2
330
0
100
AcDbSymbolTable
 70
     1
  0
LAYER
  5
10
330
2
100
AcDbSymbolTableRecord
100
AcDbLayerTableRecord
  2
0
 70
     0
 62
     7
  6
Continuous
370
    -3
390
F
  0
ENDTAB
  0
TABLE
  2
STYLE
  5
3
330
0
100
AcDbSymbolTable
 70
     5
  0
STYLE
  5
11
330
3
100
AcDbSymbolTableRecord
100
AcDbTextStyleTableRecord
  2
Standard
 70
     0
 40
0.0
 41
1.0
 50
0.0
 71
     0
 42
3.0
  3
txt
  4

  0
STYLE
  5
DD
330
3
100
AcDbSymbolTableRecord
100
AcDbTextStyleTableRecord
  2
SLDTEXTSTYLE0
 70
     0
 40
0.0
 41
0.5316086498
 50
0.0
 71
     0
 42
3.0
  3
TXT
  4

  0
STYLE
  5
DF
330
3
100
AcDbSymbolTableRecord
100
AcDbTextStyleTableRecord
  2
SLDTEXTSTYLE1
 70
     0
 40
0.0
 41
0.8435443038
 50
0.0
 71
     0
 42
3.0
  3
ISOCP
  4

  0
STYLE
  5
11D
330
3
100
AcDbSymbolTableRecord
100
AcDbTextStyleTableRecord
  2
SLDTEXTSTYLE2
 70
     0
 40
0.0
 41
0.96
 50
0.0
 71
     0
 42
3.0
  3
ISOCP
  4

  0
STYLE
  5
133
330
3
100
AcDbSymbolTableRecord
100
AcDbTextStyleTableRecord
  2
SLDTEXTSTYLE3
 70
     0
 40
0.0
 41
1.0126582278
 50
0.0
 71
     0
 42
3.0
  3
ISOCP
  4

  0
ENDTAB
  0
TABLE
  2
VIEW
  5
6
330
0
100
AcDbSymbolTable
 70
     0
  0
ENDTAB
  0
TABLE
  2
UCS
  5
7
330
0
100
AcDbSymbolTable
 70
     0
  0
ENDTAB
  0
TABLE
  2
APPID
  5
9
330
0
100
AcDbSymbolTable
 70
     1
  0
APPID
  5
12
330
9
100
AcDbSymbolTableRecord
100
AcDbRegAppTableRecord
  2
ACAD
 70
     0
  0
ENDTAB
  0
TABLE
  2
DIMSTYLE
  5
A
330
0
100
AcDbSymbolTable
 70
     1
100
AcDbDimStyleTable
  0
DIMSTYLE
105
27
330
A
100
AcDbSymbolTableRecord
100
AcDbDimStyleTableRecord
  2
ISO-25
 70
     0
 41
2.5
 42
0.625
 43
3.75
 44
1.25
 73
     0
 74
     0
 77
     1
 78
     8
140
2.5
141
2.5
143
0.0393700787
147
0.625
171
     3
172
     1
178
     0
271
     2
272
     2
274
     3
278
    44
283
     0
284
     8
340
11
  0
ENDTAB
  0
TABLE
  2
BLOCK_RECORD
  5
1
330
0
100
AcDbSymbolTable
 70
     4
  0
BLOCK_RECORD
  5
1F
330
1
100
AcDbSymbolTableRecord
100
AcDbBlockTableRecord
  2
*Model_Space
340
22
  0
BLOCK_RECORD
  5
1B
330
1
100
AcDbSymbolTableRecord
100
AcDbBlockTableRecord
  2
*Paper_Space
340
1E
  0
BLOCK_RECORD
  5
23
330
1
100
AcDbSymbolTableRecord
100
AcDbBlockTableRecord
  2
*Paper_Space0
340
26
  0
BLOCK_RECORD
  5
73
330
1
100
AcDbSymbolTableRecord
100
AcDbBlockTableRecord
  2
A1H
340
0
  0
BLOCK_RECORD
  5
11A
330
1
100
AcDbSymbolTableRecord
100
AcDbBlockTableRecord
  2
Nota legale
340
0
  0
BLOCK_RECORD
  5
11F
330
1
100
AcDbSymbolTableRecord
100
AcDbBlockTableRecord
  2
ISO2768
340
0
  0
ENDTAB
  0
ENDSEC
  0
SECTION
  2
BLOCKS
  0
BLOCK
  5
20
330
1F
100
AcDbEntity
  8
0
100
AcDbBlockBegin
  2
*Model_Space
 70
     0
 10
0.0
 20
0.0
 30
0.0
  3
*Model_Space
  1

  0
ENDBLK
  5
21
330
1F
100
AcDbEntity
  8
0
100
AcDbBlockEnd
  0
BLOCK
  5
1C
330
1B
100
AcDbEntity
 67
     1
  8
0
100
AcDbBlockBegin
  2
*Paper_Space
 70
     0
 10
0.0
 20
0.0
 30
0.0
  3
*Paper_Space
  1

  0
ENDBLK
  5
1D
330
1B
100
AcDbEntity
 67
     1
  8
0
100
AcDbBlockEnd
  0
BLOCK
  5
24
330
23
100
AcDbEntity
  8
0
100
AcDbBlockBegin
  2
*Paper_Space0
 70
     0
 10
0.0
 20
0.0
 30
0.0
  3
*Paper_Space0
  1

  0
ENDBLK
  5
25
330
23
100
AcDbEntity
  8
0
100
AcDbBlockEnd
  0
BLOCK
  5
74
330
73
100
AcDbEntity
  8
0
100
AcDbBlockBegin
  2
A1H
 70
     0
 10
0.0
 20
0.0
 30
0.0
  3
A1H
  1

  0
LINE
  5
76
330
73
100
AcDbEntity
  8
0
  6
Continuous
 62
     7
370
     0
100
AcDbLine
 10
831.000000015
 20
297.0000020355
 30
0.0
 11
836.0
 21
294.8865984457
 31
0.0
  0
LINE
  5
77
330
73
100
AcDbEntity
  8
0
  6
Continuous
 62
     7
370
     0
100
AcDbLine
 10
831.000000015
 20
297.0000020355
 30
0.0
 11
836.0
 21
299.1134051111
 31
0.0
  0
LINE
  5
78
330
73
100
AcDbEntity
  8
0
  6
Continuous
 62
     7
370
     0
100
AcDbLine
 10
678.9375
 20
10.0
 30
0.0
 11
678.9375
 21
4.9999966063
 31
0.0
  0
LINE
  5
79
330
73
100
AcDbEntity
  8
0
  6
Continuous
 62
     7
370
     0
100
AcDbLine
 10
628.25
 20
10.0
 30
0.0
 11
628.25
 21
4.9999966063
 31
0.0
  0
LINE
  5
7A
330
73
100
AcDbEntity
  8
0
  6
Continuous
 62
     7
370
     0
100
AcDbLine
 10
577.5625
 20
10.0
 30
0.0
 11
577.5625
 21
4.9999966063
 31
0.0
  0
LINE
  5
7B
330
73
100
AcDbEntity
  8
0
  6
Continuous
 62
     7
370
     0
100
AcDbLine
 10
526.875
 20
10.0
 30
0.0
 11
526.875
 21
4.9999966063
 31
0.0
  0
LINE
  5
7C
330
73
100
AcDbEntity
  8
0
  6
Continuous
 62
     7
370
     0
100
AcDbLine
 10
476.1875
 20
10.0
 30
0.0
 11
476.1875
 21
4.9999966063
 31
0.0
  0
LINE
  5
7D
330
73
100
AcDbEntity
  8
0
  6
Continuous
 62
     7
370
     0
100
AcDbLine
 10
425.5
 20
10.0
 30
0.0
 11
425.5
 21
5.0
 31
0.0
  0
LINE
  5
7E
330
73
100
AcDbEntity
  8
0
  6
Continuous
 62
     7
370
     0
100
AcDbLine
 10
374.8125
 20
10.0
 30
0.0
 11
374.8125
 21
4.9999966063
 31
0.0
  0
LINE
  5
7F
330
73
100
AcDbEntity
  8
0
  6
Continuous
 62
     7
370
     0
100
AcDbLine
 10
324.125
 20
10.0
 30
0.0
 11
324.125
 21
4.9999966063
 31
0.0
  0
LINE
  5
80
330
73
100
AcDbEntity
  8
0
  6
Continuous
 62
     7
370
     0
100
AcDbLine
 10
273.4375
 20
10.0
 30
0.0
 11
273.4375
 21
4.9999966063
 31
0.0
  0
LINE
  5
81
330
73
100
AcDbEntity
  8
0
  6
Continuous
 62
     7
370
     0
100
AcDbLine
 10
222.75
 20
10.0
 30
0.0
 11
222.75
 21
4.9999966063
 31
0.0
  0
LINE
  5
82
330
73
100
AcDbEntity
  8
0
  6
Continuous
 62
     7
370
     0
100
AcDbLine
 10
172.0625
 20
10.0
 30
0.0
 11
172.0625
 21
4.9999966063
 31
0.0
  0
LINE
  5
83
330
73
100
AcDbEntity
  8
0
  6
Continuous
 62
     7
370
     0
100
AcDbLine
 10
121.375
 20
10.0
 30
0.0
 11
121.375
 21
4.9999966063
 31
0.0
  0
LINE
  5
84
330
73
100
AcDbEntity
  8
0
  6
Continuous
 62
     7
370
     0
100
AcDbLine
 10
70.6875
 20
10.0
 30
0.0
 11
70.6875
 21
4.9999966063
 31
0.0
  0
LINE
  5
85
330
73
100
AcDbEntity
  8
0
  6
Continuous
 62
     7
370
     0
100
AcDbLine
 10
831.0
 20
589.0
 30
0.0
 11
831.0
 21
583.9999966063
 31
0.0
  0
LINE
  5
86
330
73
100
AcDbEntity
  8
0
  6
Continuous
 62
     7
370
     0
100
AcDbLine
 10
780.3125
 20
589.0
 30
0.0
 11
780.3125
 21
583.9999966063
 31
0.0
  0
LINE
  5
87
330
73
100
AcDbEntity
  8
0
  6
Continuous
 62
     7
370
     0
100
AcDbLine
 10
729.625
 20
589.0
 30
0.0
 11
729.625
 21
583.9999966063
 31
0.0
  0
LINE
  5
88
330
73
100
AcDbEntity
  8
0
  6
Continuous
 62
     7
370
     0
100
AcDbLine
 10
678.9375
 20
589.0
 30
0.0
 11
678.9375
 21
583.9999966063
 31
0.0
  0
LINE
  5
89
330
73
100
AcDbEntity
  8
0
  6
Continuous
 62
     7
370
     0
100
AcDbLine
 10
628.25
 20
589.0
 30
0.0
 11
628.25
 21
583.9999966063
 31
0.0
  0
LINE
  5
8A
330
73
100
AcDbEntity
  8
0
  6
Continuous
 62
     7
370
     0
100
AcDbLine
 10
577.5625
 20
589.0
 30
0.0
 11
577.5625
 21
583.9999966063
 31
0.0
  0
LINE
  5
8B
330
73
100
AcDbEntity
  8
0
  6
Continuous
 62
     7
370
     0
100
AcDbLine
 10
526.875
 20
589.0
 30
0.0
 11
526.875
 21
583.9999966063
 31
0.0
  0
LINE
  5
8C
330
73
100
AcDbEntity
  8
0
  6
Continuous
 62
     7
370
     0
100
AcDbLine
 10
476.1875
 20
589.0
 30
0.0
 11
476.1875
 21
583.9999966063
 31
0.0
  0
LINE
  5
8D
330
73
100
AcDbEntity
  8
0
  6
Continuous
 62
     7
370
     0
100
AcDbLine
 10
425.5
 20
589.0
 30
0.0
 11
425.5
 21
583.9999966063
 31
0.0
  0
LINE
  5
8E
330
73
100
AcDbEntity
  8
0
  6
Continuous
 62
     7
370
     0
100
AcDbLine
 10
374.8125
 20
589.0
 30
0.0
 11
374.8125
 21
583.9999966063
 31
0.0
  0
LINE
  5
8F
330
73
100
AcDbEntity
  8
0
  6
Continuous
 62
     7
370
     0
100
AcDbLine
 10
324.125
 20
589.0
 30
0.0
 11
324.125
 21
583.9999966063
 31
0.0
  0
LINE
  5
90
330
73
100
AcDbEntity
  8
0
  6
Continuous
 62
     7
370
     0
100
AcDbLine
 10
273.4375
 20
589.0
 30
0.0
 11
273.4375
 21
583.9999966063
 31
0.0
  0
LINE
  5
91
330
73
100
AcDbEntity
  8
0
  6
Continuous
 62
     7
370
     0
100
AcDbLine
 10
222.75
 20
589.0
 30
0.0
 11
222.75
 21
583.9999966063
 31
0.0
  0
LINE
  5
92
330
73
100
AcDbEntity
  8
0
  6
Continuous
 62
     7
370
     0
100
AcDbLine
 10
172.0625
 20
589.0
 30
0.0
 11
172.0625
 21
583.9999966063
 31
0.0
  0
LINE
  5
93
330
73
100
AcDbEntity
  8
0
  6
Continuous
 62
     7
370
     0
100
AcDbLine
 10
121.375
 20
589.0
 30
0.0
 11
121.375
 21
583.9999966063
 31
0.0
  0
LINE
  5
94
330
73
100
AcDbEntity
  8
0
  6
Continuous
 62
     7
370
     0
100
AcDbLine
 10
70.6875
 20
589.0
 30
0.0
 11
70.6875
 21
583.9999966063
 31
0.0
  0
LINE
  5
95
330
73
100
AcDbEntity
  8
0
  6
Continuous
 62
     7
370
     0
100
AcDbLine
 10
211.0
 20
589.0
 30
0.0
 11
211.0
 21
583.9999966063
 31
0.0
  0
LINE
  5
96
330
73
100
AcDbEntity
  8
0
  6
Continuous
 62
     7
370
     0
100
AcDbLine
 10
286.0
 20
583.9999966063
 30
0.0
 11
288.1134033203
 21
589.0
 31
0.0
  0
LINE
  5
97
330
73
100
AcDbEntity
  8
0
  6
Continuous
 62
     7
370
     0
100
AcDbLine
 10
286.0
 20
583.9999966063
 30
0.0
 11
283.8865966797
 21
589.0
 31
0.0
  0
LINE
  5
98
330
73
100
AcDbEntity
  8
0
  6
Continuous
 62
     7
370
     0
100
AcDbLine
 10
340.5
 20
583.9999966063
 30
0.0
 11
342.6134033203
 21
589.0
 31
0.0
  0
LINE
  5
99
330
73
100
AcDbEntity
  8
0
  6
Continuous
 62
     7
370
     0
100
AcDbLine
 10
340.5
 20
583.9999966063
 30
0.0
 11
338.3865966797
 21
589.0
 31
0.0
  0
LINE
  5
9A
330
73
100
AcDbEntity
  8
0
  6
Continuous
 62
     7
370
     0
100
AcDbLine
 10
421.0
 20
589.0
 30
0.0
 11
421.0
 21
583.9999966063
 31
0.0
  0
LINE
  5
9B
330
73
100
AcDbEntity
  8
0
  6
Continuous
 62
     7
370
     0
100
AcDbLine
 10
631.0
 20
589.0
 30
0.0
 11
631.0
 21
583.9999966063
 31
0.0
  0
LINE
  5
9C
330
73
100
AcDbEntity
  8
0
  6
Continuous
 62
     7
370
     0
100
AcDbLine
 10
656.0
 20
583.9999966063
 30
0.0
 11
658.1134033203
 21
589.0
 31
0.0
  0
LINE
  5
9D
330
73
100
AcDbEntity
  8
0
  6
Continuous
 62
     7
370
     0
100
AcDbLine
 10
656.0
 20
583.9999966063
 30
0.0
 11
653.8865966797
 21
589.0
 31
0.0
  0
LINE
  5
9E
330
73
100
AcDbEntity
  8
0
  6
Continuous
 62
     7
370
     0
100
AcDbLine
 10
211.0
 20
4.9999966063
 30
0.0
 11
211.0
 21
10.0
 31
0.0
  0
LINE
  5
9F
330
73
100
AcDbEntity
  8
0
  6
Continuous
 62
     7
370
     0
100
AcDbLine
 10
285.9999985656
 20
10.0
 30
0.0
 11
288.1134023207
 21
4.9999966063
 31
0.0
  0
LINE
  5
A0
330
73
100
AcDbEntity
  8
0
  6
Continuous
 62
     7
370
     0
100
AcDbLine
 10
285.9999985656
 20
10.0
 30
0.0
 11
283.8865968971
 21
4.9999966063
 31
0.0
  0
LINE
  5
A1
330
73
100
AcDbEntity
  8
0
  6
Continuous
 62
     7
370
     0
100
AcDbLine
 10
340.5
 20
10.0
 30
0.0
 11
342.6134033203
 21
4.9999966063
 31
0.0
  0
LINE
  5
A2
330
73
100
AcDbEntity
  8
0
  6
Continuous
 62
     7
370
     0
100
AcDbLine
 10
340.5
 20
10.0
 30
0.0
 11
338.3865966797
 21
4.9999966063
 31
0.0
  0
LINE
  5
A3
330
73
100
AcDbEntity
  8
0
  6
Continuous
 62
     7
370
     0
100
AcDbLine
 10
421.0
 20
4.9999966063
 30
0.0
 11
421.0
 21
10.0
 31
0.0
  0
LINE
  5
A4
330
73
100
AcDbEntity
  8
0
  6
Continuous
 62
     7
370
     0
100
AcDbLine
 10
631.0
 20
4.9999966063
 30
0.0
 11
631.0
 21
10.0
 31
0.0
  0
LINE
  5
A5
330
73
100
AcDbEntity
  8
0
  6
Continuous
 62
     7
370
     0
100
AcDbLine
 10
656.0
 20
10.0
 30
0.0
 11
658.1134033203
 21
4.9999966063
 31
0.0
  0
LINE
  5
A6
330
73
100
AcDbEntity
  8
0
  6
Continuous
 62
     7
370
     0
100
AcDbLine
 10
656.0
 20
10.0
 30
0.0
 11
653.8865966797
 21
4.9999966063
 31
0.0
  0
LINE
  5
A7
330
73
100
AcDbEntity
  8
0
  6
Continuous
 62
     7
370
     0
100
AcDbLine
 10
836.0
 20
57.833337
 30
0.0
 11
831.0
 21
57.833337
 31
0.0
  0
LINE
  5
A8
330
73
100
AcDbEntity
  8
0
  6
Continuous
 62
     7
370
     0
100
AcDbLine
 10
836.0
 20
105.66667
 30
0.0
 11
831.0
 21
105.66667
 31
0.0
  0
LINE
  5
A9
330
73
100
AcDbEntity
  8
0
  6
Continuous
 62
     7
370
     0
100
AcDbLine
 10
836.0
 20
153.500003
 30
0.0
 11
831.0
 21
153.500003
 31
0.0
  0
LINE
  5
AA
330
73
100
AcDbEntity
  8
0
  6
Continuous
 62
     7
370
     0
100
AcDbLine
 10
836.0
 20
201.333336
 30
0.0
 11
831.0
 21
201.333336
 31
0.0
  0
LINE
  5
AB
330
73
100
AcDbEntity
  8
0
  6
Continuous
 62
     7
370
     0
100
AcDbLine
 10
836.0
 20
249.166669
 30
0.0
 11
831.0
 21
249.166669
 31
0.0
  0
LINE
  5
AC
330
73
100
AcDbEntity
  8
0
  6
Continuous
 62
     7
370
     0
100
AcDbLine
 10
836.0
 20
296.9999983032
 30
0.0
 11
831.000000015
 21
297.0000020355
 31
0.0
  0
LINE
  5
AD
330
73
100
AcDbEntity
  8
0
  6
Continuous
 62
     7
370
     0
100
AcDbLine
 10
836.0
 20
344.833335
 30
0.0
 11
831.0
 21
344.833335
 31
0.0
  0
LINE
  5
AE
330
73
100
AcDbEntity
  8
0
  6
Continuous
 62
     7
370
     0
100
AcDbLine
 10
836.0
 20
392.666668
 30
0.0
 11
831.0
 21
392.666668
 31
0.0
  0
LINE
  5
AF
330
73
100
AcDbEntity
  8
0
  6
Continuous
 62
     7
370
     0
100
AcDbLine
 10
836.0
 20
440.500001
 30
0.0
 11
831.0
 21
440.500001
 31
0.0
  0
LINE
  5
B0
330
73
100
AcDbEntity
  8
0
  6
Continuous
 62
     7
370
     0
100
AcDbLine
 10
836.0
 20
488.333334
 30
0.0
 11
831.0
 21
488.333334
 31
0.0
  0
LINE
  5
B1
330
73
100
AcDbEntity
  8
0
  6
Continuous
 62
     7
370
     0
100
AcDbLine
 10
836.0
 20
536.166667
 30
0.0
 11
831.0
 21
536.166667
 31
0.0
  0
LINE
  5
B2
330
73
100
AcDbEntity
  8
0
  6
Continuous
 62
     7
370
     0
100
AcDbLine
 10
20.0000033937
 20
10.0
 30
0.0
 11
15.0
 21
10.0
 31
0.0
  0
LINE
  5
B3
330
73
100
AcDbEntity
  8
0
  6
Continuous
 62
     7
370
     0
100
AcDbLine
 10
20.0000033937
 20
57.833337
 30
0.0
 11
15.0
 21
57.833337
 31
0.0
  0
LINE
  5
B4
330
73
100
AcDbEntity
  8
0
  6
Continuous
 62
     7
370
     0
100
AcDbLine
 10
20.0000033937
 20
105.66667
 30
0.0
 11
15.0
 21
105.66667
 31
0.0
  0
LINE
  5
B5
330
73
100
AcDbEntity
  8
0
  6
Continuous
 62
     7
370
     0
100
AcDbLine
 10
20.0000033937
 20
153.500003
 30
0.0
 11
15.0
 21
153.500003
 31
0.0
  0
LINE
  5
B6
330
73
100
AcDbEntity
  8
0
  6
Continuous
 62
     7
370
     0
100
AcDbLine
 10
20.0000033937
 20
201.333336
 30
0.0
 11
15.0
 21
201.333336
 31
0.0
  0
LINE
  5
B7
330
73
100
AcDbEntity
  8
0
  6
Continuous
 62
     7
370
     0
100
AcDbLine
 10
20.0000033937
 20
249.166669
 30
0.0
 11
15.0
 21
249.166669
 31
0.0
  0
LINE
  5
B8
330
73
100
AcDbEntity
  8
0
  6
Continuous
 62
     7
370
     0
100
AcDbLine
 10
20.0000033937
 20
297.000002
 30
0.0
 11
15.0
 21
297.000002
 31
0.0
  0
LINE
  5
B9
330
73
100
AcDbEntity
  8
0
  6
Continuous
 62
     7
370
     0
100
AcDbLine
 10
20.0000033937
 20
344.833335
 30
0.0
 11
15.0
 21
344.833335
 31
0.0
  0
LINE
  5
BA
330
73
100
AcDbEntity
  8
0
  6
Continuous
 62
     7
370
     0
100
AcDbLine
 10
20.0000033937
 20
392.666668
 30
0.0
 11
15.0
 21
392.666668
 31
0.0
  0
LINE
  5
BB
330
73
100
AcDbEntity
  8
0
  6
Continuous
 62
     7
370
     0
100
AcDbLine
 10
20.0000033937
 20
440.500001
 30
0.0
 11
15.0
 21
440.500001
 31
0.0
  0
LINE
  5
BC
330
73
100
AcDbEntity
  8
0
  6
Continuous
 62
     7
370
     0
100
AcDbLine
 10
20.0000033937
 20
488.333334
 30
0.0
 11
15.0
 21
488.333334
 31
0.0
  0
LINE
  5
BD
330
73
100
AcDbEntity
  8
0
  6
Continuous
 62
     7
370
     0
100
AcDbLine
 10
831.0
 20
589.0
 30
0.0
 11
831.0
 21
583.9999966063
 31
0.0
  0
LINE
  5
BE
330
73
100
AcDbEntity
  8
0
  6
Continuous
 62
     7
370
     0
100
AcDbLine
 10
20.0000033937
 20
536.166667
 30
0.0
 11
15.0
 21
536.166667
 31
0.0
  0
LINE
  5
BF
330
73
100
AcDbEntity
  8
0
  6
Continuous
 62
     7
370
     0
100
AcDbLine
 10
821.0
 20
10.0
 30
0.0
 11
821.0
 21
4.9999966063
 31
0.0
  0
LINE
  5
C0
330
73
100
AcDbEntity
  8
0
  6
Continuous
 62
     7
370
     0
100
AcDbLine
 10
811.0
 20
10.0
 30
0.0
 11
811.0
 21
4.9999966063
 31
0.0
  0
LINE
  5
C1
330
73
100
AcDbEntity
  8
0
  6
Continuous
 62
     7
370
     0
100
AcDbLine
 10
801.0
 20
10.0
 30
0.0
 11
801.0
 21
4.9999966063
 31
0.0
  0
LINE
  5
C2
330
73
100
AcDbEntity
  8
0
  6
Continuous
 62
     7
370
     0
100
AcDbLine
 10
791.0
 20
10.0
 30
0.0
 11
791.0
 21
4.9999966063
 31
0.0
  0
LINE
  5
C3
330
73
100
AcDbEntity
  8
0
  6
Continuous
 62
     7
370
     0
100
AcDbLine
 10
781.0
 20
10.0
 30
0.0
 11
781.0
 21
4.9999966063
 31
0.0
  0
LINE
  5
C4
330
73
100
AcDbEntity
  8
0
  6
Continuous
 62
     7
370
     0
100
AcDbLine
 10
771.0
 20
10.0
 30
0.0
 11
771.0
 21
4.9999966063
 31
0.0
  0
LINE
  5
C5
330
73
100
AcDbEntity
  8
0
  6
Continuous
 62
     7
370
     0
100
AcDbLine
 10
761.0
 20
10.0
 30
0.0
 11
761.0
 21
4.9999966063
 31
0.0
  0
LINE
  5
C6
330
73
100
AcDbEntity
  8
0
  6
Continuous
 62
     7
370
     0
100
AcDbLine
 10
751.0
 20
10.0
 30
0.0
 11
751.0
 21
4.9999966063
 31
0.0
  0
LINE
  5
C7
330
73
100
AcDbEntity
  8
0
  6
Continuous
 62
     7
370
     0
100
AcDbLine
 10
741.0
 20
10.0
 30
0.0
 11
741.0
 21
4.9999966063
 31
0.0
  0
LINE
  5
C8
330
73
100
AcDbEntity
  8
0
  6
Continuous
 62
     7
370
     0
100
AcDbLine
 10
731.0
 20
10.0
 30
0.0
 11
731.0
 21
4.9999966063
 31
0.0
  0
LINE
  5
C9
330
73
100
AcDbEntity
  8
0
  6
Continuous
 62
     7
370
     0
100
AcDbLine
 10
15.0
 20
4.9999966063
 30
0.0
 11
15.0
 21
589.0
 31
0.0
  0
LINE
  5
CA
330
73
100
AcDbEntity
  8
0
  6
Continuous
 62
     7
370
     0
100
AcDbLine
 10
836.0
 20
4.9999966063
 30
0.0
 11
15.0
 21
4.9999966063
 31
0.0
  0
LINE
  5
CB
330
73
100
AcDbEntity
  8
0
  6
Continuous
 62
     7
370
     0
100
AcDbLine
 10
836.0
 20
4.9999966063
 30
0.0
 11
836.0
 21
589.0
 31
0.0
  0
LINE
  5
CC
330
73
100
AcDbEntity
  8
0
  6
Continuous
 62
     7
370
     0
100
AcDbLine
 10
15.0
 20
589.0
 30
0.0
 11
836.0
 21
589.0
 31
0.0
  0
LINE
  5
CD
330
73
100
AcDbEntity
  8
0
  6
Continuous
 62
     7
370
     0
100
AcDbLine
 10
20.0000033937
 20
583.9999966063
 30
0.0
 11
20.0000033937
 21
589.0
 31
0.0
  0
LINE
  5
CE
330
73
100
AcDbEntity
  8
0
  6
Continuous
 62
     7
370
     0
100
AcDbLine
 10
20.0000033937
 20
10.0
 30
0.0
 11
20.0000033937
 21
583.9999966063
 31
0.0
  0
LINE
  5
CF
330
73
100
AcDbEntity
  8
0
  6
Continuous
 62
     7
370
     0
100
AcDbLine
 10
20.0000033937
 20
4.9999966063
 30
0.0
 11
20.0000033937
 21
10.0
 31
0.0
  0
LINE
  5
D0
330
73
100
AcDbEntity
  8
0
  6
Continuous
 62
     7
370
     0
100
AcDbLine
 10
831.0
 20
583.9999966063
 30
0.0
 11
831.0
 21
589.0
 31
0.0
  0
LINE
  5
D1
330
73
100
AcDbEntity
  8
0
  6
Continuous
 62
     7
370
     0
100
AcDbLine
 10
831.0
 20
10.0
 30
0.0
 11
831.0
 21
583.9999966063
 31
0.0
  0
LINE
  5
D2
330
73
100
AcDbEntity
  8
0
  6
Continuous
 62
     7
370
     0
100
AcDbLine
 10
831.0
 20
4.9999966063
 30
0.0
 11
831.0
 21
10.0
 31
0.0
  0
LINE
  5
D3
330
73
100
AcDbEntity
  8
0
  6
Continuous
 62
     7
370
     0
100
AcDbLine
 10
20.0000033937
 20
10.0
 30
0.0
 11
15.0
 21
10.0
 31
0.0
  0
LINE
  5
D4
330
73
100
AcDbEntity
  8
0
  6
Continuous
 62
     7
370
     0
100
AcDbLine
 10
831.0
 20
10.0
 30
0.0
 11
20.0000033937
 21
10.0
 31
0.0
  0
LINE
  5
D5
330
73
100
AcDbEntity
  8
0
  6
Continuous
 62
     7
370
     0
100
AcDbLine
 10
836.0
 20
10.0
 30
0.0
 11
831.0
 21
10.0
 31
0.0
  0
LINE
  5
D6
330
73
100
AcDbEntity
  8
0
  6
Continuous
 62
     7
370
     0
100
AcDbLine
 10
831.0
 20
583.9999966063
 30
0.0
 11
836.0
 21
583.9999966063
 31
0.0
  0
LINE
  5
D7
330
73
100
AcDbEntity
  8
0
  6
Continuous
 62
     7
370
     0
100
AcDbLine
 10
20.0000033937
 20
583.9999966063
 30
0.0
 11
831.0
 21
583.9999966063
 31
0.0
  0
LINE
  5
D8
330
73
100
AcDbEntity
  8
0
  6
Continuous
 62
     7
370
     0
100
AcDbLine
 10
15.0
 20
583.9999966063
 30
0.0
 11
20.0000033937
 21
583.9999966063
 31
0.0
  0
LINE
  5
D9
330
73
100
AcDbEntity
  8
0
  6
Continuous
 62
     7
370
     0
100
AcDbLine
 10
0.0
 20
594.0
 30
0.0
 11
0.0
 21
0.0
 31
0.0
  0
LINE
  5
DA
330
73
100
AcDbEntity
  8
0
  6
Continuous
 62
     7
370
     0
100
AcDbLine
 10
0.0
 20
594.0
 30
0.0
 11
841.0
 21
594.0
 31
0.0
  0
LINE
  5
DB
330
73
100
AcDbEntity
  8
0
  6
Continuous
 62
     7
370
     0
100
AcDbLine
 10
841.0
 20
0.0
 30
0.0
 11
841.0
 21
594.0
 31
0.0
  0
LINE
  5
DC
330
73
100
AcDbEntity
  8
0
  6
Continuous
 62
     7
370
     0
100
AcDbLine
 10
841.0
 20
0.0
 30
0.0
 11
0.0
 21
0.0
 31
0.0
  0
MTEXT
  5
DE
330
73
100
AcDbEntity
  8
0
  6
Continuous
 62
     7
370
     0
100
AcDbMText
 10
655.527178913
 20
7.389386302
 30
0.0
 40
1.5
 41
0.0
 71
     1
 72
     1
  1
1
  7
SLDTEXTSTYLE0
 73
     1
 44
1.0
  0
MTEXT
  5
E0
330
73
100
AcDbEntity
  8
0
  6
Continuous
 62
     7
370
     0
100
AcDbMText
 10
702.3899506522
 20
8.6449155598
 30
0.0
 40
3.0
 41
0.0
 71
     1
 72
     1
  1
13
  7
SLDTEXTSTYLE1
 73
     1
 44
1.0
  0
MTEXT
  5
E1
330
73
100
AcDbEntity
  8
0
  6
Continuous
 62
     7
370
     0
100
AcDbMText
 10
832.3587006522
 20
561.2282490598
 30
0.0
 40
3.0
 41
0.0
 71
     1
 72
     1
  1
A
  7
SLDTEXTSTYLE1
 73
     1
 44
1.0
  0
MTEXT
  5
E2
330
73
100
AcDbEntity
  8
0
  6
Continuous
 62
     7
370
     0
100
AcDbMText
 10
832.3587006522
 20
513.3949160598
 30
0.0
 40
3.0
 41
0.0
 71
     1
 72
     1
  1
B
  7
SLDTEXTSTYLE1
 73
     1
 44
1.0
  0
MTEXT
  5
E3
330
73
100
AcDbEntity
  8
0
  6
Continuous
 62
     7
370
     0
100
AcDbMText
 10
832.2934832609
 20
465.5615830598
 30
0.0
 40
3.0
 41
0.0
 71
     1
 72
     1
  1
C
  7
SLDTEXTSTYLE1
 73
     1
 44
1.0
  0
MTEXT
  5
E4
330
73
100
AcDbEntity
  8
0
  6
Continuous
 62
     7
370
     0
100
AcDbMText
 10
832.2934832609
 20
417.7282500598
 30
0.0
 40
3.0
 41
0.0
 71
     1
 72
     1
  1
D
  7
SLDTEXTSTYLE1
 73
     1
 44
1.0
  0
MTEXT
  5
E5
330
73
100
AcDbEntity
  8
0
  6
Continuous
 62
     7
370
     0
100
AcDbMText
 10
832.3587006522
 20
369.8949170598
 30
0.0
 40
3.0
 41
0.0
 71
     1
 72
     1
  1
E
  7
SLDTEXTSTYLE1
 73
     1
 44
1.0
  0
MTEXT
  5
E6
330
73
100
AcDbEntity
  8
0
  6
Continuous
 62
     7
370
     0
100
AcDbMText
 10
832.4565267391
 20
322.0615840598
 30
0.0
 40
3.0
 41
0.0
 71
     1
 72
     1
  1
F
  7
SLDTEXTSTYLE1
 73
     1
 44
1.0
  0
MTEXT
  5
E7
330
73
100
AcDbEntity
  8
0
  6
Continuous
 62
     7
370
     0
100
AcDbMText
 10
832.1956571739
 20
274.2282510598
 30
0.0
 40
3.0
 41
0.0
 71
     1
 72
     1
  1
G
  7
SLDTEXTSTYLE1
 73
     1
 44
1.0
  0
MTEXT
  5
E8
330
73
100
AcDbEntity
  8
0
  6
Continuous
 62
     7
370
     0
100
AcDbMText
 10
832.2934832609
 20
226.3949180598
 30
0.0
 40
3.0
 41
0.0
 71
     1
 72
     1
  1
H
  7
SLDTEXTSTYLE1
 73
     1
 44
1.0
  0
MTEXT
  5
E9
330
73
100
AcDbEntity
  8
0
  6
Continuous
 62
     7
370
     0
100
AcDbMText
 10
833.0434832609
 20
178.5615850598
 30
0.0
 40
3.0
 41
0.0
 71
     1
 72
     1
  1
I
  7
SLDTEXTSTYLE1
 73
     1
 44
1.0
  0
MTEXT
  5
EA
330
73
100
AcDbEntity
  8
0
  6
Continuous
 62
     7
370
     0
100
AcDbMText
 10
832.652178913
 20
130.7282520598
 30
0.0
 40
3.0
 41
0.0
 71
     1
 72
     1
  1
J
  7
SLDTEXTSTYLE1
 73
     1
 44
1.0
  0
MTEXT
  5
EB
330
73
100
AcDbEntity
  8
0
  6
Continuous
 62
     7
370
     0
100
AcDbMText
 10
832.3587006522
 20
82.8949190598
 30
0.0
 40
3.0
 41
0.0
 71
     1
 72
     1
  1
K
  7
SLDTEXTSTYLE1
 73
     1
 44
1.0
  0
MTEXT
  5
EC
330
73
100
AcDbEntity
  8
0
  6
Continuous
 62
     7
370
     0
100
AcDbMText
 10
832.5543528261
 20
39.0877190249
 30
0.0
 40
3.0
 41
0.0
 71
     1
 72
     1
  1
L
  7
SLDTEXTSTYLE1
 73
     1
 44
1.0
  0
MTEXT
  5
ED
330
73
100
AcDbEntity
  8
0
  6
Continuous
 62
     7
370
     0
100
AcDbMText
 10
655.527178913
 20
588.1028068642
 30
0.0
 40
1.5
 41
0.0
 71
     1
 72
     1
  1
1
  7
SLDTEXTSTYLE0
 73
     1
 44
1.0
  0
MTEXT
  5
EE
330
73
100
AcDbEntity
  8
0
  6
Continuous
 62
     7
370
     0
100
AcDbMText
 10
340.027178913
 20
588.1028068642
 30
0.0
 40
1.5
 41
0.0
 71
     1
 72
     1
  1
3
  7
SLDTEXTSTYLE0
 73
     1
 44
1.0
  0
MTEXT
  5
EF
330
73
100
AcDbEntity
  8
0
  6
Continuous
 62
     7
370
     0
100
AcDbMText
 10
285.527178913
 20
588.1028068642
 30
0.0
 40
1.5
 41
0.0
 71
     1
 72
     1
  1
2
  7
SLDTEXTSTYLE0
 73
     1
 44
1.0
  0
MTEXT
  5
F0
330
73
100
AcDbEntity
  8
0
  6
Continuous
 62
     7
370
     0
100
AcDbMText
 10
44.3981028261
 20
587.6449155598
 30
0.0
 40
3.0
 41
0.0
 71
     1
 72
     1
  1
1
  7
SLDTEXTSTYLE1
 73
     1
 44
1.0
  0
MTEXT
  5
F1
330
73
100
AcDbEntity
  8
0
  6
Continuous
 62
     7
370
     0
100
AcDbMText
 10
95.0856028261
 20
587.6449155598
 30
0.0
 40
3.0
 41
0.0
 71
     1
 72
     1
  1
2
  7
SLDTEXTSTYLE1
 73
     1
 44
1.0
  0
MTEXT
  5
F2
330
73
100
AcDbEntity
  8
0
  6
Continuous
 62
     7
370
     0
100
AcDbMText
 10
145.7731028261
 20
587.6449155598
 30
0.0
 40
3.0
 41
0.0
 71
     1
 72
     1
  1
3
  7
SLDTEXTSTYLE1
 73
     1
 44
1.0
  0
MTEXT
  5
F3
330
73
100
AcDbEntity
  8
0
  6
Continuous
 62
     7
370
     0
100
AcDbMText
 10
196.4606028261
 20
587.6449155598
 30
0.0
 40
3.0
 41
0.0
 71
     1
 72
     1
  1
4
  7
SLDTEXTSTYLE1
 73
     1
 44
1.0
  0
MTEXT
  5
F4
330
73
100
AcDbEntity
  8
0
  6
Continuous
 62
     7
370
     0
100
AcDbMText
 10
247.1481028261
 20
587.6449155598
 30
0.0
 40
3.0
 41
0.0
 71
     1
 72
     1
  1
5
  7
SLDTEXTSTYLE1
 73
     1
 44
1.0
  0
MTEXT
  5
F5
330
73
100
AcDbEntity
  8
0
  6
Continuous
 62
     7
370
     0
100
AcDbMText
 10
297.8356028261
 20
587.6449155598
 30
0.0
 40
3.0
 41
0.0
 71
     1
 72
     1
  1
6
  7
SLDTEXTSTYLE1
 73
     1
 44
1.0
  0
MTEXT
  5
F6
330
73
100
AcDbEntity
  8
0
  6
Continuous
 62
     7
370
     0
100
AcDbMText
 10
348.5231028261
 20
587.6449155598
 30
0.0
 40
3.0
 41
0.0
 71
     1
 72
     1
  1
7
  7
SLDTEXTSTYLE1
 73
     1
 44
1.0
  0
MTEXT
  5
F7
330
73
100
AcDbEntity
  8
0
  6
Continuous
 62
     7
370
     0
100
AcDbMText
 10
399.2106028261
 20
587.6449155598
 30
0.0
 40
3.0
 41
0.0
 71
     1
 72
     1
  1
8
  7
SLDTEXTSTYLE1
 73
     1
 44
1.0
  0
MTEXT
  5
F8
330
73
100
AcDbEntity
  8
0
  6
Continuous
 62
     7
370
     0
100
AcDbMText
 10
449.8981028261
 20
587.6449155598
 30
0.0
 40
3.0
 41
0.0
 71
     1
 72
     1
  1
9
  7
SLDTEXTSTYLE1
 73
     1
 44
1.0
  0
MTEXT
  5
F9
330
73
100
AcDbEntity
  8
0
  6
Continuous
 62
     7
370
     0
100
AcDbMText
 10
499.6399506522
 20
587.6449155598
 30
0.0
 40
3.0
 41
0.0
 71
     1
 72
     1
  1
10
  7
SLDTEXTSTYLE1
 73
     1
 44
1.0
  0
MTEXT
  5
FA
330
73
100
AcDbEntity
  8
0
  6
Continuous
 62
     7
370
     0
100
AcDbMText
 10
550.3274506522
 20
587.6449155598
 30
0.0
 40
3.0
 41
0.0
 71
     1
 72
     1
  1
11
  7
SLDTEXTSTYLE1
 73
     1
 44
1.0
  0
MTEXT
  5
FB
330
73
100
AcDbEntity
  8
0
  6
Continuous
 62
     7
370
     0
100
AcDbMText
 10
601.0149506522
 20
587.6449155598
 30
0.0
 40
3.0
 41
0.0
 71
     1
 72
     1
  1
12
  7
SLDTEXTSTYLE1
 73
     1
 44
1.0
  0
MTEXT
  5
FC
330
73
100
AcDbEntity
  8
0
  6
Continuous
 62
     7
370
     0
100
AcDbMText
 10
647.7024506522
 20
587.6449155598
 30
0.0
 40
3.0
 41
0.0
 71
     1
 72
     1
  1
13
  7
SLDTEXTSTYLE1
 73
     1
 44
1.0
  0
MTEXT
  5
FD
330
73
100
AcDbEntity
  8
0
  6
Continuous
 62
     7
370
     0
100
AcDbMText
 10
702.3899506522
 20
587.6449155598
 30
0.0
 40
3.0
 41
0.0
 71
     1
 72
     1
  1
14
  7
SLDTEXTSTYLE1
 73
     1
 44
1.0
  0
MTEXT
  5
FE
330
73
100
AcDbEntity
  8
0
  6
Continuous
 62
     7
370
     0
100
AcDbMText
 10
753.0774506522
 20
587.6449155598
 30
0.0
 40
3.0
 41
0.0
 71
     1
 72
     1
  1
15
  7
SLDTEXTSTYLE1
 73
     1
 44
1.0
  0
MTEXT
  5
FF
330
73
100
AcDbEntity
  8
0
  6
Continuous
 62
     7
370
     0
100
AcDbMText
 10
803.7649506522
 20
587.6449155598
 30
0.0
 40
3.0
 41
0.0
 71
     1
 72
     1
  1
16
  7
SLDTEXTSTYLE1
 73
     1
 44
1.0
  0
MTEXT
  5
100
330
73
100
AcDbEntity
  8
0
  6
Continuous
 62
     7
370
     0
100
AcDbMText
 10
340.027178913
 20
7.389386302
 30
0.0
 40
1.5
 41
0.0
 71
     1
 72
     1
  1
3
  7
SLDTEXTSTYLE0
 73
     1
 44
1.0
  0
MTEXT
  5
101
330
73
100
AcDbEntity
  8
0
  6
Continuous
 62
     7
370
     0
100
AcDbMText
 10
285.527178913
 20
7.389386302
 30
0.0
 40
1.5
 41
0.0
 71
     1
 72
     1
  1
2
  7
SLDTEXTSTYLE0
 73
     1
 44
1.0
  0
MTEXT
  5
102
330
73
100
AcDbEntity
  8
0
  6
Continuous
 62
     7
370
     0
100
AcDbMText
 10
44.3981028261
 20
8.6449155598
 30
0.0
 40
3.0
 41
0.0
 71
     1
 72
     1
  1
1
  7
SLDTEXTSTYLE1
 73
     1
 44
1.0
  0
MTEXT
  5
103
330
73
100
AcDbEntity
  8
0
  6
Continuous
 62
     7
370
     0
100
AcDbMText
 10
95.0856028261
 20
8.6449155598
 30
0.0
 40
3.0
 41
0.0
 71
     1
 72
     1
  1
2
  7
SLDTEXTSTYLE1
 73
     1
 44
1.0
  0
MTEXT
  5
104
330
73
100
AcDbEntity
  8
0
  6
Continuous
 62
     7
370
     0
100
AcDbMText
 10
145.7731028261
 20
8.6449155598
 30
0.0
 40
3.0
 41
0.0
 71
     1
 72
     1
  1
3
  7
SLDTEXTSTYLE1
 73
     1
 44
1.0
  0
MTEXT
  5
105
330
73
100
AcDbEntity
  8
0
  6
Continuous
 62
     7
370
     0
100
AcDbMText
 10
196.4606028261
 20
8.6449155598
 30
0.0
 40
3.0
 41
0.0
 71
     1
 72
     1
  1
4
  7
SLDTEXTSTYLE1
 73
     1
 44
1.0
  0
MTEXT
  5
106
330
73
100
AcDbEntity
  8
0
  6
Continuous
 62
     7
370
     0
100
AcDbMText
 10
247.1481028261
 20
8.6449155598
 30
0.0
 40
3.0
 41
0.0
 71
     1
 72
     1
  1
5
  7
SLDTEXTSTYLE1
 73
     1
 44
1.0
  0
MTEXT
  5
107
330
73
100
AcDbEntity
  8
0
  6
Continuous
 62
     7
370
     0
100
AcDbMText
 10
297.8356028261
 20
8.6449155598
 30
0.0
 40
3.0
 41
0.0
 71
     1
 72
     1
  1
6
  7
SLDTEXTSTYLE1
 73
     1
 44
1.0
  0
MTEXT
  5
108
330
73
100
AcDbEntity
  8
0
  6
Continuous
 62
     7
370
     0
100
AcDbMText
 10
348.5231028261
 20
8.6449155598
 30
0.0
 40
3.0
 41
0.0
 71
     1
 72
     1
  1
7
  7
SLDTEXTSTYLE1
 73
     1
 44
1.0
  0
MTEXT
  5
109
330
73
100
AcDbEntity
  8
0
  6
Continuous
 62
     7
370
     0
100
AcDbMText
 10
399.2106028261
 20
8.6449155598
 30
0.0
 40
3.0
 41
0.0
 71
     1
 72
     1
  1
8
  7
SLDTEXTSTYLE1
 73
     1
 44
1.0
  0
MTEXT
  5
10A
330
73
100
AcDbEntity
  8
0
  6
Continuous
 62
     7
370
     0
100
AcDbMText
 10
449.8981028261
 20
8.6449155598
 30
0.0
 40
3.0
 41
0.0
 71
     1
 72
     1
  1
9
  7
SLDTEXTSTYLE1
 73
     1
 44
1.0
  0
MTEXT
  5
10B
330
73
100
AcDbEntity
  8
0
  6
Continuous
 62
     7
370
     0
100
AcDbMText
 10
499.6399506522
 20
8.6449155598
 30
0.0
 40
3.0
 41
0.0
 71
     1
 72
     1
  1
10
  7
SLDTEXTSTYLE1
 73
     1
 44
1.0
  0
MTEXT
  5
10C
330
73
100
AcDbEntity
  8
0
  6
Continuous
 62
     7
370
     0
100
AcDbMText
 10
550.3274506522
 20
8.6449155598
 30
0.0
 40
3.0
 41
0.0
 71
     1
 72
     1
  1
11
  7
SLDTEXTSTYLE1
 73
     1
 44
1.0
  0
MTEXT
  5
10D
330
73
100
AcDbEntity
  8
0
  6
Continuous
 62
     7
370
     0
100
AcDbMText
 10
601.0149506522
 20
8.6449155598
 30
0.0
 40
3.0
 41
0.0
 71
     1
 72
     1
  1
12
  7
SLDTEXTSTYLE1
 73
     1
 44
1.0
  0
MTEXT
  5
10E
330
73
100
AcDbEntity
  8
0
  6
Continuous
 62
     7
370
     0
100
AcDbMText
 10
16.3587006522
 20
561.2282490598
 30
0.0
 40
3.0
 41
0.0
 71
     1
 72
     1
  1
A
  7
SLDTEXTSTYLE1
 73
     1
 44
1.0
  0
MTEXT
  5
10F
330
73
100
AcDbEntity
  8
0
  6
Continuous
 62
     7
370
     0
100
AcDbMText
 10
16.3587006522
 20
513.3949160598
 30
0.0
 40
3.0
 41
0.0
 71
     1
 72
     1
  1
B
  7
SLDTEXTSTYLE1
 73
     1
 44
1.0
  0
MTEXT
  5
110
330
73
100
AcDbEntity
  8
0
  6
Continuous
 62
     7
370
     0
100
AcDbMText
 10
16.2934832609
 20
465.5615830598
 30
0.0
 40
3.0
 41
0.0
 71
     1
 72
     1
  1
C
  7
SLDTEXTSTYLE1
 73
     1
 44
1.0
  0
MTEXT
  5
111
330
73
100
AcDbEntity
  8
0
  6
Continuous
 62
     7
370
     0
100
AcDbMText
 10
16.2934832609
 20
417.7282500598
 30
0.0
 40
3.0
 41
0.0
 71
     1
 72
     1
  1
D
  7
SLDTEXTSTYLE1
 73
     1
 44
1.0
  0
MTEXT
  5
112
330
73
100
AcDbEntity
  8
0
  6
Continuous
 62
     7
370
     0
100
AcDbMText
 10
16.3587006522
 20
369.8949170598
 30
0.0
 40
3.0
 41
0.0
 71
     1
 72
     1
  1
E
  7
SLDTEXTSTYLE1
 73
     1
 44
1.0
  0
MTEXT
  5
113
330
73
100
AcDbEntity
  8
0
  6
Continuous
 62
     7
370
     0
100
AcDbMText
 10
16.4565267391
 20
322.0615840598
 30
0.0
 40
3.0
 41
0.0
 71
     1
 72
     1
  1
F
  7
SLDTEXTSTYLE1
 73
     1
 44
1.0
  0
MTEXT
  5
114
330
73
100
AcDbEntity
  8
0
  6
Continuous
 62
     7
370
     0
100
AcDbMText
 10
16.1956571739
 20
274.2282510598
 30
0.0
 40
3.0
 41
0.0
 71
     1
 72
     1
  1
G
  7
SLDTEXTSTYLE1
 73
     1
 44
1.0
  0
MTEXT
  5
115
330
73
100
AcDbEntity
  8
0
  6
Continuous
 62
     7
370
     0
100
AcDbMText
 10
16.2934832609
 20
226.3949180598
 30
0.0
 40
3.0
 41
0.0
 71
     1
 72
     1
  1
H
  7
SLDTEXTSTYLE1
 73
     1
 44
1.0
  0
MTEXT
  5
116
330
73
100
AcDbEntity
  8
0
  6
Continuous
 62
     7
370
     0
100
AcDbMText
 10
17.0434832609
 20
178.5615850598
 30
0.0
 40
3.0
 41
0.0
 71
     1
 72
     1
  1
I
  7
SLDTEXTSTYLE1
 73
     1
 44
1.0
  0
MTEXT
  5
117
330
73
100
AcDbEntity
  8
0
  6
Continuous
 62
     7
370
     0
100
AcDbMText
 10
16.652178913
 20
130.7282520598
 30
0.0
 40
3.0
 41
0.0
 71
     1
 72
     1
  1
J
  7
SLDTEXTSTYLE1
 73
     1
 44
1.0
  0
MTEXT
  5
118
330
73
100
AcDbEntity
  8
0
  6
Continuous
 62
     7
370
     0
100
AcDbMText
 10
16.3587006522
 20
82.8949190598
 30
0.0
 40
3.0
 41
0.0
 71
     1
 72
     1
  1
K
  7
SLDTEXTSTYLE1
 73
     1
 44
1.0
  0
MTEXT
  5
119
330
73
100
AcDbEntity
  8
0
  6
Continuous
 62
     7
370
     0
100
AcDbMText
 10
16.5543528261
 20
35.0615860598
 30
0.0
 40
3.0
 41
0.0
 71
     1
 72
     1
  1
L
  7
SLDTEXTSTYLE1
 73
     1
 44
1.0
  0
ENDBLK
  5
75
330
73
100
AcDbEntity
  8
0
100
AcDbBlockEnd
  0
BLOCK
  5
11B
330
11A
100
AcDbEntity
  8
0
100
AcDbBlockBegin
  2
Nota legale
 70
     0
 10
0.0
 20
0.0
 30
0.0
  3
Nota legale
  1

  0
MTEXT
  5
11E
330
11A
100
AcDbEntity
  8
0
  6
Continuous
 62
     7
370
     0
100
AcDbMText
 10
2.8916698098
 20
-1.0663983927
 30
0.0
 40
1.5
 41
0.0
 71
     3
 72
     1
  1
BY TERM LAWS WE RESERVE THE PROPERTY OF THIS DRAWING WITH PROHIBITION OF USE AND REPRODUCTION
  7
SLDTEXTSTYLE2
 73
     1
 44
1.0
  0
ENDBLK
  5
11C
330
11A
100
AcDbEntity
  8
0
100
AcDbBlockEnd
  0
BLOCK
  5
120
330
11F
100
AcDbEntity
  8
0
100
AcDbBlockBegin
  2
ISO2768
 70
     0
 10
0.0
 20
0.0
 30
0.0
  3
ISO2768
  1

  0
LINE
  5
122
330
11F
100
AcDbEntity
  8
0
  6
Continuous
 62
     7
370
     0
100
AcDbLine
 10
-25.0
 20
0.0
 30
0.0
 11
-25.0
 21
-20.0
 31
0.0
  0
LINE
  5
123
330
11F
100
AcDbEntity
  8
0
  6
Continuous
 62
     7
370
     0
100
AcDbLine
 10
-50.0
 20
0.0
 30
0.0
 11
-50.0
 21
-20.0
 31
0.0
  0
LINE
  5
124
330
11F
100
AcDbEntity
  8
0
  6
Continuous
 62
     7
370
     0
100
AcDbLine
 10
-75.0
 20
0.0
 30
0.0
 11
-75.0
 21
-20.0
 31
0.0
  0
LINE
  5
125
330
11F
100
AcDbEntity
  8
0
  6
Continuous
 62
     7
370
     0
100
AcDbLine
 10
-95.0
 20
0.0
 30
0.0
 11
-95.0
 21
-20.0
 31
0.0
  0
LINE
  5
126
330
11F
100
AcDbEntity
  8
0
  6
Continuous
 62
     7
370
     0
100
AcDbLine
 10
-115.0
 20
0.0
 30
0.0
 11
-115.0
 21
-20.0
 31
0.0
  0
LINE
  5
127
330
11F
100
AcDbEntity
  8
0
  6
Continuous
 62
     7
370
     0
100
AcDbLine
 10
-130.0
 20
0.0
 30
0.0
 11
-130.0
 21
-20.0
 31
0.0
  0
LINE
  5
128
330
11F
100
AcDbEntity
  8
0
  6
Continuous
 62
     7
370
     0
100
AcDbLine
 10
-145.0
 20
0.0
 30
0.0
 11
-145.0
 21
-20.0
 31
0.0
  0
LINE
  5
129
330
11F
100
AcDbEntity
  8
0
  6
Continuous
 62
     7
370
     0
100
AcDbLine
 10
-155.0
 20
-4.0
 30
0.0
 11
-155.0
 21
-20.0
 31
0.0
  0
LINE
  5
12A
330
11F
100
AcDbEntity
  8
0
  6
Continuous
 62
     7
370
     0
100
AcDbLine
 10
-175.0
 20
-16.0
 30
0.0
 11
0.0
 21
-16.0
 31
0.0
  0
LINE
  5
12B
330
11F
100
AcDbEntity
  8
0
  6
Continuous
 62
     7
370
     0
100
AcDbLine
 10
-175.0
 20
-12.0
 30
0.0
 11
0.0
 21
-12.0
 31
0.0
  0
LINE
  5
12C
330
11F
100
AcDbEntity
  8
0
  6
Continuous
 62
     7
370
     0
100
AcDbLine
 10
-175.0
 20
-8.0
 30
0.0
 11
0.0
 21
-8.0
 31
0.0
  0
LINE
  5
12D
330
11F
100
AcDbEntity
  8
0
  6
Continuous
 62
     7
370
     0
100
AcDbLine
 10
-175.0
 20
-4.0
 30
0.0
 11
0.0
 21
-4.0
 31
0.0
  0
LINE
  5
12E
330
11F
100
AcDbEntity
  8
0
  6
Continuous
 62
     7
370
     0
100
AcDbLine
 10
-175.0
 20
0.0
 30
0.0
 11
-175.0
 21
-20.0
 31
0.0
  0
LINE
  5
12F
330
11F
100
AcDbEntity
  8
0
  6
Continuous
 62
     7
370
     0
100
AcDbLine
 10
-180.0
 20
-20.0
 30
0.0
 11
-180.0
 21
0.0
 31
0.0
  0
LINE
  5
130
330
11F
100
AcDbEntity
  8
0
  6
Continuous
 62
     7
370
     0
100
AcDbLine
 10
0.0
 20
-20.0
 30
0.0
 11
-180.0
 21
-20.0
 31
0.0
  0
LINE
  5
131
330
11F
100
AcDbEntity
  8
0
  6
Continuous
 62
     7
370
     0
100
AcDbLine
 10
0.0
 20
0.0
 30
0.0
 11
0.0
 21
-20.0
 31
0.0
  0
LINE
  5
132
330
11F
100
AcDbEntity
  8
0
  6
Continuous
 62
     7
370
     0
100
AcDbLine
 10
-180.0
 20
0.0
 30
0.0
 11
0.0
 21
0.0
 31
0.0
  0
MTEXT
  5
134
330
11F
100
AcDbEntity
  8
0
  6
Continuous
 62
   179
370
     0
100
AcDbMText
 10
-152.1594291518
 20
-12.9932672184
 30
0.0
 40
2.5
 41
0.0
 71
     1
 72
     1
  1
(c)
  7
SLDTEXTSTYLE3
 73
     1
 44
1.0
  0
MTEXT
  5
135
330
11F
100
AcDbEntity
  8
0
  6
Continuous
 62
   179
370
     0
100
AcDbMText
 10
-14.4385313988
 20
-13.1021223902
 30
0.0
 40
2.5
 41
0.0
 71
     1
 72
     1
  1
±4
  7
SLDTEXTSTYLE3
 73
     1
 44
1.0
  0
MTEXT
  5
136
330
11F
100
AcDbEntity
  8
0
  6
Continuous
 62
   179
370
     0
100
AcDbMText
 10
-14.4385313988
 20
-17.1021223902
 30
0.0
 40
2.5
 41
0.0
 71
     1
 72
     1
  1
±8
  7
SLDTEXTSTYLE3
 73
     1
 44
1.0
  0
MTEXT
  5
137
330
11F
100
AcDbEntity
  8
0
  6
Continuous
 62
   179
370
     0
100
AcDbMText
 10
-23.8407053118
 20
-1.1021223902
 30
0.0
 40
2.5
 41
0.0
 71
     1
 72
     1
  1
>2000 <=4000
  7
SLDTEXTSTYLE3
 73
     1
 44
1.0
  0
MTEXT
  5
138
330
11F
100
AcDbEntity
  8
0
  6
Continuous
 62
   179
370
     0
100
AcDbMText
 10
-13.0798357466
 20
-5.1021223902
 30
0.0
 40
2.5
 41
0.0
 71
     1
 72
     1
  1
-
  7
SLDTEXTSTYLE3
 73
     1
 44
1.0
  0
MTEXT
  5
139
330
11F
100
AcDbEntity
  8
0
  6
Continuous
 62
   179
370
     0
100
AcDbMText
 10
-14.4385313988
 20
-9.1021223902
 30
0.0
 40
2.5
 41
0.0
 71
     1
 72
     1
  1
±2
  7
SLDTEXTSTYLE3
 73
     1
 44
1.0
  0
MTEXT
  5
13A
330
11F
100
AcDbEntity
  8
0
  6
Continuous
 62
   179
370
     0
100
AcDbMText
 10
-39.4385313988
 20
-17.1021223902
 30
0.0
 40
2.5
 41
0.0
 71
     1
 72
     1
  1
±6
  7
SLDTEXTSTYLE3
 73
     1
 44
1.0
  0
MTEXT
  5
13B
330
11F
100
AcDbEntity
  8
0
  6
Continuous
 62
   179
370
     0
100
AcDbMText
 10
-39.4385313988
 20
-13.1021223902
 30
0.0
 40
2.5
 41
0.0
 71
     1
 72
     1
  1
±3
  7
SLDTEXTSTYLE3
 73
     1
 44
1.0
  0
MTEXT
  5
13C
330
11F
100
AcDbEntity
  8
0
  6
Continuous
 62
   179
370
     0
100
AcDbMText
 10
-72.8624444423
 20
-1.1021223902
 30
0.0
 40
2.5
 41
0.0
 71
     1
 72
     1
  1
>400 <=1000
  7
SLDTEXTSTYLE3
 73
     1
 44
1.0
  0
MTEXT
  5
13D
330
11F
100
AcDbEntity
  8
0
  6
Continuous
 62
   179
370
     0
100
AcDbMText
 10
-40.9059227031
 20
-9.1021223902
 30
0.0
 40
2.5
 41
0.0
 71
     1
 72
     1
  1
±1.2
  7
SLDTEXTSTYLE3
 73
     1
 44
1.0
  0
MTEXT
  5
13E
330
11F
100
AcDbEntity
  8
0
  6
Continuous
 62
   179
370
     0
100
AcDbMText
 10
-40.9059227031
 20
-5.1021223902
 30
0.0
 40
2.5
 41
0.0
 71
     1
 72
     1
  1
±0.5
  7
SLDTEXTSTYLE3
 73
     1
 44
1.0
  0
MTEXT
  5
13F
330
11F
100
AcDbEntity
  8
0
  6
Continuous
 62
   179
370
     0
100
AcDbMText
 10
-64.4385313988
 20
-17.1021223902
 30
0.0
 40
2.5
 41
0.0
 71
     1
 72
     1
  1
±4
  7
SLDTEXTSTYLE3
 73
     1
 44
1.0
  0
MTEXT
  5
140
330
11F
100
AcDbEntity
  8
0
  6
Continuous
 62
   179
370
     0
100
AcDbMText
 10
-48.8407053118
 20
-1.1021223902
 30
0.0
 40
2.5
 41
0.0
 71
     1
 72
     1
  1
>1000 <=2000
  7
SLDTEXTSTYLE3
 73
     1
 44
1.0
  0
MTEXT
  5
141
330
11F
100
AcDbEntity
  8
0
  6
Continuous
 62
   179
370
     0
100
AcDbMText
 10
-64.4385313988
 20
-13.1021223902
 30
0.0
 40
2.5
 41
0.0
 71
     1
 72
     1
  1
±2
  7
SLDTEXTSTYLE3
 73
     1
 44
1.0
  0
MTEXT
  5
142
330
11F
100
AcDbEntity
  8
0
  6
Continuous
 62
   179
370
     0
100
AcDbMText
 10
-65.9059227031
 20
-9.1021223902
 30
0.0
 40
2.5
 41
0.0
 71
     1
 72
     1
  1
±0.8
  7
SLDTEXTSTYLE3
 73
     1
 44
1.0
  0
MTEXT
  5
143
330
11F
100
AcDbEntity
  8
0
  6
Continuous
 62
   179
370
     0
100
AcDbMText
 10
-88.4059227031
 20
-9.1021223902
 30
0.0
 40
2.5
 41
0.0
 71
     1
 72
     1
  1
±0.5
  7
SLDTEXTSTYLE3
 73
     1
 44
1.0
  0
MTEXT
  5
144
330
11F
100
AcDbEntity
  8
0
  6
Continuous
 62
   179
370
     0
100
AcDbMText
 10
-108.4059227031
 20
-9.1021223902
 30
0.0
 40
2.5
 41
0.0
 71
     1
 72
     1
  1
±0.3
  7
SLDTEXTSTYLE3
 73
     1
 44
1.0
  0
MTEXT
  5
145
330
11F
100
AcDbEntity
  8
0
  6
Continuous
 62
   179
370
     0
100
AcDbMText
 10
-88.4059227031
 20
-5.1021223902
 30
0.0
 40
2.5
 41
0.0
 71
     1
 72
     1
  1
±0.2
  7
SLDTEXTSTYLE3
 73
     1
 44
1.0
  0
MTEXT
  5
146
330
11F
100
AcDbEntity
  8
0
  6
Continuous
 62
   179
370
     0
100
AcDbMText
 10
-108.4059227031
 20
-17.1021223902
 30
0.0
 40
2.5
 41
0.0
 71
     1
 72
     1
  1
±1.5
  7
SLDTEXTSTYLE3
 73
     1
 44
1.0
  0
MTEXT
  5
147
330
11F
100
AcDbEntity
  8
0
  6
Continuous
 62
   179
370
     0
100
AcDbMText
 10
-65.9059227031
 20
-5.1021223902
 30
0.0
 40
2.5
 41
0.0
 71
     1
 72
     1
  1
±0.3
  7
SLDTEXTSTYLE3
 73
     1
 44
1.0
  0
MTEXT
  5
148
330
11F
100
AcDbEntity
  8
0
  6
Continuous
 62
   179
370
     0
100
AcDbMText
 10
-88.4059227031
 20
-17.1021223902
 30
0.0
 40
2.5
 41
0.0
 71
     1
 72
     1
  1
±2.5
  7
SLDTEXTSTYLE3
 73
     1
 44
1.0
  0
MTEXT
  5
149
330
11F
100
AcDbEntity
  8
0
  6
Continuous
 62
   179
370
     0
100
AcDbMText
 10
-94.3841835727
 20
-1.1021223902
 30
0.0
 40
2.5
 41
0.0
 71
     1
 72
     1
  1
>120 <=400
  7
SLDTEXTSTYLE3
 73
     1
 44
1.0
  0
MTEXT
  5
14A
330
11F
100
AcDbEntity
  8
0
  6
Continuous
 62
   179
370
     0
100
AcDbMText
 10
-88.4059227031
 20
-13.1021223902
 30
0.0
 40
2.5
 41
0.0
 71
     1
 72
     1
  1
±1.2
  7
SLDTEXTSTYLE3
 73
     1
 44
1.0
  0
MTEXT
  5
14B
330
11F
100
AcDbEntity
  8
0
  6
Continuous
 62
   179
370
     0
100
AcDbMText
 10
-109.3841835727
 20
-5.1021223902
 30
0.0
 40
2.5
 41
0.0
 71
     1
 72
     1
  1
±0.15
  7
SLDTEXTSTYLE3
 73
     1
 44
1.0
  0
MTEXT
  5
14C
330
11F
100
AcDbEntity
  8
0
  6
Continuous
 62
   179
370
     0
100
AcDbMText
 10
-113.4059227031
 20
-1.1021223902
 30
0.0
 40
2.5
 41
0.0
 71
     1
 72
     1
  1
>30 <=120
  7
SLDTEXTSTYLE3
 73
     1
 44
1.0
  0
MTEXT
  5
14D
330
11F
100
AcDbEntity
  8
0
  6
Continuous
 62
   179
370
     0
100
AcDbMText
 10
-124.4385313988
 20
-17.1021223902
 30
0.0
 40
2.5
 41
0.0
 71
     1
 72
     1
  1
±1
  7
SLDTEXTSTYLE3
 73
     1
 44
1.0
  0
MTEXT
  5
14E
330
11F
100
AcDbEntity
  8
0
  6
Continuous
 62
   179
370
     0
100
AcDbMText
 10
-125.9059227031
 20
-9.1021223902
 30
0.0
 40
2.5
 41
0.0
 71
     1
 72
     1
  1
±0.2
  7
SLDTEXTSTYLE3
 73
     1
 44
1.0
  0
MTEXT
  5
14F
330
11F
100
AcDbEntity
  8
0
  6
Continuous
 62
   179
370
     0
100
AcDbMText
 10
-108.4059227031
 20
-13.1021223902
 30
0.0
 40
2.5
 41
0.0
 71
     1
 72
     1
  1
±0.8
  7
SLDTEXTSTYLE3
 73
     1
 44
1.0
  0
MTEXT
  5
150
330
11F
100
AcDbEntity
  8
0
  6
Continuous
 62
   179
370
     0
100
AcDbMText
 10
-125.9059227031
 20
-5.1021223902
 30
0.0
 40
2.5
 41
0.0
 71
     1
 72
     1
  1
±0.1
  7
SLDTEXTSTYLE3
 73
     1
 44
1.0
  0
MTEXT
  5
151
330
11F
100
AcDbEntity
  8
0
  6
Continuous
 62
   179
370
     0
100
AcDbMText
 10
-128.949400964
 20
-1.1021223902
 30
0.0
 40
2.5
 41
0.0
 71
     1
 72
     1
  1
>6 <=30
  7
SLDTEXTSTYLE3
 73
     1
 44
1.0
  0
MTEXT
  5
152
330
11F
100
AcDbEntity
  8
0
  6
Continuous
 62
   179
370
     0
100
AcDbMText
 10
-140.4983140075
 20
-1.1021223902
 30
0.0
 40
2.5
 41
0.0
 71
     1
 72
     1
  1
<=6
  7
SLDTEXTSTYLE3
 73
     1
 44
1.0
  0
MTEXT
  5
153
330
11F
100
AcDbEntity
  8
0
  6
Continuous
 62
   179
370
     0
100
AcDbMText
 10
-125.9059227031
 20
-13.1021223902
 30
0.0
 40
2.5
 41
0.0
 71
     1
 72
     1
  1
±0.5
  7
SLDTEXTSTYLE3
 73
     1
 44
1.0
  0
MTEXT
  5
154
330
11F
100
AcDbEntity
  8
0
  6
Continuous
 62
   179
370
     0
100
AcDbMText
 10
-140.9059227031
 20
-9.1021223902
 30
0.0
 40
2.5
 41
0.0
 71
     1
 72
     1
  1
±0.1
  7
SLDTEXTSTYLE3
 73
     1
 44
1.0
  0
MTEXT
  5
155
330
11F
100
AcDbEntity
  8
0
  6
Continuous
 62
   179
370
     0
100
AcDbMText
 10
-140.9059227031
 20
-17.1021223902
 30
0.0
 40
2.5
 41
0.0
 71
     1
 72
     1
  1
±0.5
  7
SLDTEXTSTYLE3
 73
     1
 44
1.0
  0
MTEXT
  5
156
330
11F
100
AcDbEntity
  8
0
  6
Continuous
 62
   179
370
     0
100
AcDbMText
 10
-140.9059227031
 20
-13.1021223902
 30
0.0
 40
2.5
 41
0.0
 71
     1
 72
     1
  1
±0.3
  7
SLDTEXTSTYLE3
 73
     1
 44
1.0
  0
MTEXT
  5
157
330
11F
100
AcDbEntity
  8
0
  6
Continuous
 62
   179
370
     0
100
AcDbMText
 10
-141.8841835727
 20
-5.1021223902
 30
0.0
 40
2.5
 41
0.0
 71
     1
 72
     1
  1
±0.05
  7
SLDTEXTSTYLE3
 73
     1
 44
1.0
  0
MTEXT
  5
158
330
11F
100
AcDbEntity
  8
0
  6
Continuous
 62
   179
370
     0
100
AcDbMText
 10
-174.7485158139
 20
-8.9932672184
 30
0.0
 40
2.5
 41
0.0
 71
     1
 72
     1
  1
Medium
  7
SLDTEXTSTYLE3
 73
     1
 44
1.0
  0
MTEXT
  5
159
330
11F
100
AcDbEntity
  8
0
  6
Continuous
 62
   179
370
     0
100
AcDbMText
 10
-174.7485158139
 20
-12.9932672184
 30
0.0
 40
2.5
 41
0.0
 71
     1
 72
     1
  1
Coarse
  7
SLDTEXTSTYLE3
 73
     1
 44
1.0
  0
MTEXT
  5
15A
330
11F
100
AcDbEntity
  8
0
  6
Continuous
 62
   179
370
     0
100
AcDbMText
 10
-151.7789943692
 20
-4.9932672184
 30
0.0
 40
2.5
 41
0.0
 71
     1
 72
     1
  1
(f)
  7
SLDTEXTSTYLE3
 73
     1
 44
1.0
  0
MTEXT
  5
15B
330
11F
100
AcDbEntity
  8
0
  6
Continuous
 62
   179
370
     0
100
AcDbMText
 10
-152.7844291518
 20
-8.9932672184
 30
0.0
 40
2.5
 41
0.0
 71
     1
 72
     1
  1
(m)
  7
SLDTEXTSTYLE3
 73
     1
 44
1.0
  0
MTEXT
  5
15C
330
11F
100
AcDbEntity
  8
0
  6
Continuous
 62
   179
370
     0
100
AcDbMText
 10
-152.1866030649
 20
-16.9932672184
 30
0.0
 40
2.5
 41
0.0
 71
     1
 72
     1
  1
(v)
  7
SLDTEXTSTYLE3
 73
     1
 44
1.0
  0
MTEXT
  5
15D
330
11F
100
AcDbEntity
  8
0
  6
Continuous
 62
   179
370
     0
100
AcDbMText
 10
-174.7485158139
 20
-16.9932672184
 30
0.0
 40
2.5
 41
0.0
 71
     1
 72
     1
  1
Very Coarse
  7
SLDTEXTSTYLE3
 73
     1
 44
1.0
  0
MTEXT
  5
15E
330
11F
100
AcDbEntity
  8
0
  6
Continuous
 62
   179
370
     0
100
AcDbMText
 10
-178.6122169322
 20
-18.8727771349
 30
0.0
 40
2.5
 41
0.0
 71
     1
 72
     1
  1
ISO 2768
  7
SLDTEXTSTYLE3
 11
6.123233995736766E-17
 21
1.0
 31
0.0
 73
     1
 44
1.0
  0
MTEXT
  5
15F
330
11F
100
AcDbEntity
  8
0
  6
Continuous
 62
   179
370
     0
100
AcDbMText
 10
-174.565631434
 20
-0.9932672184
 30
0.0
 40
2.5
 41
0.0
 71
     1
 72
     1
  1
Tolerance Class
  7
SLDTEXTSTYLE3
 73
     1
 44
1.0
  0
MTEXT
  5
160
330
11F
100
AcDbEntity
  8
0
  6
Continuous
 62
   179
370
     0
100
AcDbMText
 10
-174.7485158139
 20
-4.9932672184
 30
0.0
 40
2.5
 41
0.0
 71
     1
 72
     1
  1
Fine
  7
SLDTEXTSTYLE3
 73
     1
 44
1.0
  0
ENDBLK
  5
121
330
11F
100
AcDbEntity
  8
0
100
AcDbBlockEnd
  0
ENDSEC
  0
SECTION
  2
ENTITIES
  0
LINE
  5
161
330
1F
100
AcDbEntity
  8
0
  6
Continuous
 62
     7
370
    15
100
AcDbLine
 10
207.5430542466
 20
535.8269019284
 30
0.0
 11
189.5430542466
 21
535.8269019284
 31
0.0
  0
LINE
  5
162
330
1F
100
AcDbEntity
  8
0
  6
Continuous
 62
     7
370
    15
100
AcDbLine
 10
189.5430542466
 20
350.8269019284
 30
0.0
 11
207.5430542466
 21
350.8269019284
 31
0.0
  0
LINE
  5
163
330
1F
100
AcDbEntity
  8
0
  6
Continuous
 62
     7
370
    15
100
AcDbLine
 10
333.8287685323
 20
535.8269019284
 30
0.0
 11
315.8287685323
 21
535.8269019284
 31
0.0
  0
LINE
  5
164
330
1F
100
AcDbEntity
  8
0
  6
Continuous
 62
     7
370
    15
100
AcDbLine
 10
315.8287685323
 20
350.8269019284
 30
0.0
 11
333.8287685323
 21
350.8269019284
 31
0.0
  0
LINE
  5
165
330
1F
100
AcDbEntity
  8
0
  6
Continuous
 62
     7
370
    15
100
AcDbLine
 10
189.5430542466
 20
517.8269019284
 30
0.0
 11
186.6859113894
 21
517.8269019284
 31
0.0
  0
LINE
  5
166
330
1F
100
AcDbEntity
  8
0
  6
Continuous
 62
     7
370
    15
100
AcDbLine
 10
186.6859113894
 20
368.8269019284
 30
0.0
 11
189.5430542466
 21
368.8269019284
 31
0.0
  0
LINE
  5
167
330
1F
100
AcDbEntity
  8
0
  6
Continuous
 62
     7
370
    15
100
AcDbLine
 10
336.6859113894
 20
517.8269019284
 30
0.0
 11
333.8287685323
 21
517.8269019284
 31
0.0
  0
LINE
  5
168
330
1F
100
AcDbEntity
  8
0
  6
Continuous
 62
     7
370
    15
100
AcDbLine
 10
333.8287685323
 20
368.8269019284
 30
0.0
 11
336.6859113894
 21
368.8269019284
 31
0.0
  0
ARC
  5
169
330
1F
100
AcDbEntity
  8
0
  6
Continuous
 62
     7
370
    15
100
AcDbCircle
 10
255.1524420017
 20
498.3269019284
 30
0.0
 40
4.696734693877573
100
AcDbArc
 50
0.0
 51
180.0
  0
ARC
  5
16A
330
1F
100
AcDbEntity
  8
0
  6
Continuous
 62
     7
370
    15
100
AcDbCircle
 10
255.1524420017
 20
388.3269019284
 30
0.0
 40
4.69673469387763
100
AcDbArc
 50
180.0
 51
0.0
  0
ARC
  5
16B
330
1F
100
AcDbEntity
  8
0
  6
Continuous
 62
     7
370
    15
100
AcDbCircle
 10
268.2193807772
 20
498.3269019284
 30
0.0
 40
4.696734693877545
100
AcDbArc
 50
0.0
 51
180.0
  0
ARC
  5
16C
330
1F
100
AcDbEntity
  8
0
  6
Continuous
 62
     7
370
    15
100
AcDbCircle
 10
268.2193807772
 20
388.3269019284
 30
0.0
 40
4.696734693877602
100
AcDbArc
 50
180.0
 51
0.0
  0
ARC
  5
16D
330
1F
100
AcDbEntity
  8
0
  6
Continuous
 62
     7
370
    15
100
AcDbCircle
 10
307.4201971037
 20
498.3269019284
 30
0.0
 40
4.696734693877545
100
AcDbArc
 50
0.0
 51
180.0
  0
ARC
  5
16E
330
1F
100
AcDbEntity
  8
0
  6
Continuous
 62
     7
370
    15
100
AcDbCircle
 10
307.4201971037
 20
388.3269019284
 30
0.0
 40
4.696734693877545
100
AcDbArc
 50
180.0
 51
0.0
  0
ARC
  5
16F
330
1F
100
AcDbEntity
  8
0
  6
Continuous
 62
     7
370
    15
100
AcDbCircle
 10
215.9516256751
 20
498.3269019284
 30
0.0
 40
4.696734693877517
100
AcDbArc
 50
0.0
 51
180.0
  0
ARC
  5
170
330
1F
100
AcDbEntity
  8
0
  6
Continuous
 62
     7
370
    15
100
AcDbCircle
 10
215.9516256751
 20
388.3269019284
 30
0.0
 40
4.696734693877545
100
AcDbArc
 50
180.0
 51
0.0
  0
ARC
  5
171
330
1F
100
AcDbEntity
  8
0
  6
Continuous
 62
     7
370
    15
100
AcDbCircle
 10
242.0855032261
 20
498.3269019284
 30
0.0
 40
4.696734693877545
100
AcDbArc
 50
0.0
 51
180.0
  0
ARC
  5
172
330
1F
100
AcDbEntity
  8
0
  6
Continuous
 62
     7
370
    15
100
AcDbCircle
 10
242.0855032261
 20
388.3269019284
 30
0.0
 40
4.696734693877545
100
AcDbArc
 50
180.0
 51
0.0
  0
ARC
  5
173
330
1F
100
AcDbEntity
  8
0
  6
Continuous
 62
     7
370
    15
100
AcDbCircle
 10
281.2863195527
 20
498.3269019284
 30
0.0
 40
4.696734693877545
100
AcDbArc
 50
0.0
 51
180.0
  0
ARC
  5
174
330
1F
100
AcDbEntity
  8
0
  6
Continuous
 62
     7
370
    15
100
AcDbCircle
 10
281.2863195527
 20
388.3269019284
 30
0.0
 40
4.696734693877545
100
AcDbArc
 50
180.0
 51
0.0
  0
ARC
  5
175
330
1F
100
AcDbEntity
  8
0
  6
Continuous
 62
     7
370
    15
100
AcDbCircle
 10
229.0185644506
 20
498.3269019284
 30
0.0
 40
4.696734693877573
100
AcDbArc
 50
0.0
 51
180.0
  0
ARC
  5
176
330
1F
100
AcDbEntity
  8
0
  6
Continuous
 62
     7
370
    15
100
AcDbCircle
 10
229.0185644506
 20
388.3269019284
 30
0.0
 40
4.696734693877545
100
AcDbArc
 50
180.0
 51
0.0
  0
ARC
  5
177
330
1F
100
AcDbEntity
  8
0
  6
Continuous
 62
     7
370
    15
100
AcDbCircle
 10
294.3532583282
 20
498.3269019284
 30
0.0
 40
4.696734693877545
100
AcDbArc
 50
0.0
 51
180.0
  0
ARC
  5
178
330
1F
100
AcDbEntity
  8
0
  6
Continuous
 62
     7
370
    15
100
AcDbCircle
 10
294.3532583282
 20
388.3269019284
 30
0.0
 40
4.696734693877545
100
AcDbArc
 50
180.0
 51
0.0
  0
LINE
  5
179
330
1F
100
AcDbEntity
  8
0
  6
Continuous
 62
     7
370
    15
100
AcDbLine
 10
207.5814215935
 20
482.3240447855
 30
0.0
 11
207.5430542466
 21
482.9011853334
 31
0.0
  0
LINE
  5
17A
330
1F
100
AcDbEntity
  8
0
  6
Continuous
 62
     7
370
    15
100
AcDbLine
 10
207.5430542466
 20
403.7526185234
 30
0.0
 11
207.5814215935
 21
404.3297590712
 31
0.0
  0
LINE
  5
17B
330
1F
100
AcDbEntity
  8
0
  6
Continuous
 62
     7
370
    15
100
AcDbLine
 10
315.8287685323
 20
482.9011853334
 30
0.0
 11
315.7904011853
 21
482.3240447855
 31
0.0
  0
LINE
  5
17C
330
1F
100
AcDbEntity
  8
0
  6
Continuous
 62
     7
370
    15
100
AcDbLine
 10
315.7904011853
 20
404.3297590712
 30
0.0
 11
315.8287685323
 21
403.7526185234
 31
0.0
  0
ARC
  5
17D
330
1F
100
AcDbEntity
  8
0
  6
Continuous
 62
     7
370
    15
100
AcDbCircle
 10
222.4850950629
 20
475.0411876427
 30
0.0
 40
1.836734693877588
100
AcDbArc
 50
180.0
 51
0.0
  0
ARC
  5
17E
330
1F
100
AcDbEntity
  8
0
  6
Continuous
 62
     7
370
    15
100
AcDbCircle
 10
222.4850950629
 20
411.6126162141
 30
0.0
 40
1.836734693877588
100
AcDbArc
 50
0.0
 51
180.0
  0
ARC
  5
17F
330
1F
100
AcDbEntity
  8
0
  6
Continuous
 62
     7
370
    15
100
AcDbCircle
 10
209.4181562874
 20
475.0411876427
 30
0.0
 40
1.83673469387756
100
AcDbArc
 50
180.0
 51
0.0
  0
ARC
  5
180
330
1F
100
AcDbEntity
  8
0
  6
Continuous
 62
     7
370
    15
100
AcDbCircle
 10
209.4181562874
 20
411.6126162141
 30
0.0
 40
1.836734693877588
100
AcDbArc
 50
0.0
 51
180.0
  0
ARC
  5
181
330
1F
100
AcDbEntity
  8
0
  6
Continuous
 62
     7
370
    15
100
AcDbCircle
 10
235.5520338384
 20
475.0411876427
 30
0.0
 40
1.83673469387756
100
AcDbArc
 50
180.0
 51
0.0
  0
ARC
  5
182
330
1F
100
AcDbEntity
  8
0
  6
Continuous
 62
     7
370
    15
100
AcDbCircle
 10
235.5520338384
 20
411.6126162141
 30
0.0
 40
1.836734693877588
100
AcDbArc
 50
0.0
 51
180.0
  0
ARC
  5
183
330
1F
100
AcDbEntity
  8
0
  6
Continuous
 62
     7
370
    15
100
AcDbCircle
 10
287.8197889404
 20
475.0411876427
 30
0.0
 40
1.836734693877588
100
AcDbArc
 50
180.0
 51
0.0
  0
ARC
  5
184
330
1F
100
AcDbEntity
  8
0
  6
Continuous
 62
     7
370
    15
100
AcDbCircle
 10
287.8197889404
 20
411.6126162141
 30
0.0
 40
1.836734693877588
100
AcDbArc
 50
0.0
 51
180.0
  0
ARC
  5
185
330
1F
100
AcDbEntity
  8
0
  6
Continuous
 62
     7
370
    15
100
AcDbCircle
 10
300.8867277159
 20
475.0411876427
 30
0.0
 40
1.836734693877588
100
AcDbArc
 50
180.0
 51
0.0
  0
ARC
  5
186
330
1F
100
AcDbEntity
  8
0
  6
Continuous
 62
     7
370
    15
100
AcDbCircle
 10
300.8867277159
 20
411.6126162141
 30
0.0
 40
1.836734693877588
100
AcDbArc
 50
0.0
 51
180.0
  0
ARC
  5
187
330
1F
100
AcDbEntity
  8
0
  6
Continuous
 62
     7
370
    15
100
AcDbCircle
 10
313.9536664915
 20
475.0411876427
 30
0.0
 40
1.836734693877588
100
AcDbArc
 50
180.0
 51
0.0
  0
ARC
  5
188
330
1F
100
AcDbEntity
  8
0
  6
Continuous
 62
     7
370
    15
100
AcDbCircle
 10
313.9536664915
 20
411.6126162141
 30
0.0
 40
1.836734693877588
100
AcDbArc
 50
0.0
 51
180.0
  0
ARC
  5
189
330
1F
100
AcDbEntity
  8
0
  6
Continuous
 62
     7
370
    15
100
AcDbCircle
 10
274.7528501649
 20
475.0411876427
 30
0.0
 40
1.836734693877588
100
AcDbArc
 50
180.0
 51
0.0
  0
ARC
  5
18A
330
1F
100
AcDbEntity
  8
0
  6
Continuous
 62
     7
370
    15
100
AcDbCircle
 10
274.7528501649
 20
411.6126162141
 30
0.0
 40
1.836734693877588
100
AcDbArc
 50
0.0
 51
180.0
  0
ARC
  5
18B
330
1F
100
AcDbEntity
  8
0
  6
Continuous
 62
     7
370
    15
100
AcDbCircle
 10
248.6189726139
 20
475.0411876427
 30
0.0
 40
1.836734693877588
100
AcDbArc
 50
180.0
 51
0.0
  0
ARC
  5
18C
330
1F
100
AcDbEntity
  8
0
  6
Continuous
 62
     7
370
    15
100
AcDbCircle
 10
248.6189726139
 20
411.6126162141
 30
0.0
 40
1.83673469387756
100
AcDbArc
 50
0.0
 51
180.0
  0
ARC
  5
18D
330
1F
100
AcDbEntity
  8
0
  6
Continuous
 62
     7
370
    15
100
AcDbCircle
 10
261.6859113894
 20
475.0411876427
 30
0.0
 40
1.836734693877588
100
AcDbArc
 50
180.0
 51
0.0
  0
ARC
  5
18E
330
1F
100
AcDbEntity
  8
0
  6
Continuous
 62
     7
370
    15
100
AcDbCircle
 10
261.6859113894
 20
411.6126162141
 30
0.0
 40
1.836734693877588
100
AcDbArc
 50
0.0
 51
180.0
  0
LINE
  5
18F
330
1F
100
AcDbEntity
  8
0
  6
Continuous
 62
     7
370
    15
100
AcDbLine
 10
189.5430542466
 20
535.8269019284
 30
0.0
 11
189.5430542466
 21
350.8269019284
 31
0.0
  0
LINE
  5
190
330
1F
100
AcDbEntity
  8
0
  6
Continuous
 62
     7
370
    15
100
AcDbLine
 10
207.5430542466
 20
535.8269019284
 30
0.0
 11
207.5430542466
 21
350.8269019284
 31
0.0
  0
LINE
  5
191
330
1F
100
AcDbEntity
  8
0
  6
Continuous
 62
     7
370
    15
100
AcDbLine
 10
333.8287685323
 20
535.8269019284
 30
0.0
 11
333.8287685323
 21
350.8269019284
 31
0.0
  0
LINE
  5
192
330
1F
100
AcDbEntity
  8
0
  6
Continuous
 62
     7
370
    15
100
AcDbLine
 10
315.8287685323
 20
535.8269019284
 30
0.0
 11
315.8287685323
 21
350.8269019284
 31
0.0
  0
LINE
  5
193
330
1F
100
AcDbEntity
  8
0
  6
Continuous
 62
     7
370
    15
100
AcDbLine
 10
186.6859113894
 20
517.8269019284
 30
0.0
 11
186.6859113894
 21
368.8269019284
 31
0.0
  0
LINE
  5
194
330
1F
100
AcDbEntity
  8
0
  6
Continuous
 62
     7
370
    15
100
AcDbLine
 10
336.6859113894
 20
517.8269019284
 30
0.0
 11
336.6859113894
 21
368.8269019284
 31
0.0
  0
LINE
  5
195
330
1F
100
AcDbEntity
  8
0
  6
Continuous
 62
     7
370
    15
100
AcDbLine
 10
259.8491766955
 20
498.3269019284
 30
0.0
 11
259.8491766955
 21
388.3269019284
 31
0.0
  0
LINE
  5
196
330
1F
100
AcDbEntity
  8
0
  6
Continuous
 62
     7
370
    15
100
AcDbLine
 10
250.4557073078
 20
498.3269019284
 30
0.0
 11
250.4557073078
 21
388.3269019284
 31
0.0
  0
LINE
  5
197
330
1F
100
AcDbEntity
  8
0
  6
Continuous
 62
     7
370
    15
100
AcDbLine
 10
272.916115471
 20
498.3269019284
 30
0.0
 11
272.916115471
 21
388.3269019284
 31
0.0
  0
LINE
  5
198
330
1F
100
AcDbEntity
  8
0
  6
Continuous
 62
     7
370
    15
100
AcDbLine
 10
263.5226460833
 20
498.3269019284
 30
0.0
 11
263.5226460833
 21
388.3269019284
 31
0.0
  0
LINE
  5
199
330
1F
100
AcDbEntity
  8
0
  6
Continuous
 62
     7
370
    15
100
AcDbLine
 10
312.1169317976
 20
498.3269019284
 30
0.0
 11
312.1169317976
 21
388.3269019284
 31
0.0
  0
LINE
  5
19A
330
1F
100
AcDbEntity
  8
0
  6
Continuous
 62
     7
370
    15
100
AcDbLine
 10
302.7234624098
 20
498.3269019284
 30
0.0
 11
302.7234624098
 21
388.3269019284
 31
0.0
  0
LINE
  5
19B
330
1F
100
AcDbEntity
  8
0
  6
Continuous
 62
     7
370
    15
100
AcDbLine
 10
220.648360369
 20
498.3269019284
 30
0.0
 11
220.648360369
 21
388.3269019284
 31
0.0
  0
LINE
  5
19C
330
1F
100
AcDbEntity
  8
0
  6
Continuous
 62
     7
370
    15
100
AcDbLine
 10
211.2548909812
 20
498.3269019284
 30
0.0
 11
211.2548909812
 21
388.3269019284
 31
0.0
  0
LINE
  5
19D
330
1F
100
AcDbEntity
  8
0
  6
Continuous
 62
     7
370
    15
100
AcDbLine
 10
246.78223792
 20
498.3269019284
 30
0.0
 11
246.78223792
 21
388.3269019284
 31
0.0
  0
LINE
  5
19E
330
1F
100
AcDbEntity
  8
0
  6
Continuous
 62
     7
370
    15
100
AcDbLine
 10
237.3887685323
 20
498.3269019284
 30
0.0
 11
237.3887685323
 21
388.3269019284
 31
0.0
  0
LINE
  5
19F
330
1F
100
AcDbEntity
  8
0
  6
Continuous
 62
     7
370
    15
100
AcDbLine
 10
285.9830542466
 20
498.3269019284
 30
0.0
 11
285.9830542466
 21
388.3269019284
 31
0.0
  0
LINE
  5
1A0
330
1F
100
AcDbEntity
  8
0
  6
Continuous
 62
     7
370
    15
100
AcDbLine
 10
276.5895848588
 20
498.3269019284
 30
0.0
 11
276.5895848588
 21
388.3269019284
 31
0.0
  0
LINE
  5
1A1
330
1F
100
AcDbEntity
  8
0
  6
Continuous
 62
     7
370
    15
100
AcDbLine
 10
233.7152991445
 20
498.3269019284
 30
0.0
 11
233.7152991445
 21
388.3269019284
 31
0.0
  0
LINE
  5
1A2
330
1F
100
AcDbEntity
  8
0
  6
Continuous
 62
     7
370
    15
100
AcDbLine
 10
224.3218297568
 20
498.3269019284
 30
0.0
 11
224.3218297568
 21
388.3269019284
 31
0.0
  0
LINE
  5
1A3
330
1F
100
AcDbEntity
  8
0
  6
Continuous
 62
     7
370
    15
100
AcDbLine
 10
299.0499930221
 20
498.3269019284
 30
0.0
 11
299.0499930221
 21
388.3269019284
 31
0.0
  0
LINE
  5
1A4
330
1F
100
AcDbEntity
  8
0
  6
Continuous
 62
     7
370
    15
100
AcDbLine
 10
289.6565236343
 20
498.3269019284
 30
0.0
 11
289.6565236343
 21
388.3269019284
 31
0.0
  0
LINE
  5
1A5
330
1F
100
AcDbEntity
  8
0
  6
Continuous
 62
     7
370
    15
100
AcDbLine
 10
207.5814215935
 20
482.3240447855
 30
0.0
 11
207.5814215935
 21
404.3297590712
 31
0.0
  0
LINE
  5
1A6
330
1F
100
AcDbEntity
  8
0
  6
Continuous
 62
     7
370
    15
100
AcDbLine
 10
315.7904011853
 20
482.3240447855
 30
0.0
 11
315.7904011853
 21
404.3297590712
 31
0.0
  0
CIRCLE
  5
1A7
330
1F
100
AcDbEntity
  8
0
  6
Continuous
 62
     7
370
    15
100
AcDbCircle
 10
608.9472985043
 20
443.3269019284
 30
0.0
 40
27.01755102040818
  0
CIRCLE
  5
1A8
330
1F
100
AcDbEntity
  8
0
  6
Continuous
 62
     7
370
    15
100
AcDbCircle
 10
608.9472985043
 20
443.3269019284
 30
0.0
 40
74.5
  0
CIRCLE
  5
1A9
330
1F
100
AcDbEntity
  8
0
  6
Continuous
 62
     7
370
    15
100
AcDbCircle
 10
608.9472985043
 20
443.3269019284
 30
0.0
 40
52.03669367140253
  0
CIRCLE
  5
1AA
330
1F
100
AcDbEntity
  8
0
  6
Continuous
 62
     7
370
    15
100
AcDbCircle
 10
608.9472985043
 20
443.3269019284
 30
0.0
 40
48.9537081054292
  0
CIRCLE
  5
1AB
330
1F
100
AcDbEntity
  8
0
  6
Continuous
 62
     7
370
    15
100
AcDbCircle
 10
608.9472985043
 20
443.3269019284
 30
0.0
 40
41.77701443402674
  0
CIRCLE
  5
1AC
330
1F
100
AcDbEntity
  8
0
  6
Continuous
 62
     7
370
    15
100
AcDbCircle
 10
608.9472985043
 20
443.3269019284
 30
0.0
 40
92.5
  0
CIRCLE
  5
1AD
330
1F
100
AcDbEntity
  8
0
  6
Continuous
 62
     7
370
    15
100
AcDbCircle
 10
608.9472985043
 20
525.8269019284
 30
0.0
 40
6.5
  0
CIRCLE
  5
1AE
330
1F
100
AcDbEntity
  8
0
  6
Continuous
 62
     7
370
    15
100
AcDbCircle
 10
691.4472985043
 20
443.3269019284
 30
0.0
 40
6.500000000000114
  0
CIRCLE
  5
1AF
330
1F
100
AcDbEntity
  8
0
  6
Continuous
 62
     7
370
    15
100
AcDbCircle
 10
526.4472985043
 20
443.3269019284
 30
0.0
 40
6.500000000000114
  0
CIRCLE
  5
1B0
330
1F
100
AcDbEntity
  8
0
  6
Continuous
 62
     7
370
    15
100
AcDbCircle
 10
608.9472985043
 20
360.8269019284
 30
0.0
 40
6.5
  0
CIRCLE
  5
1B1
330
1F
100
AcDbEntity
  8
0
  6
Continuous
 62
     7
370
    15
100
AcDbCircle
 10
608.9472985043
 20
443.3269019284
 30
0.0
 40
40.50000000000011
  0
CIRCLE
  5
1B2
330
1F
100
AcDbEntity
  8
0
  6
Continuous
 62
     7
370
    15
100
AcDbCircle
 10
608.9472985043
 20
443.3269019284
 30
0.0
 40
39.00000000000011
  0
CIRCLE
  5
1B3
330
1F
100
AcDbEntity
  8
0
  6
Continuous
 62
     7
370
    15
100
AcDbCircle
 10
608.9472985043
 20
443.3269019284
 30
0.0
 40
31.71428571428578
  0
LINE
  5
1B4
330
1F
100
AcDbEntity
  8
0
  6
Continuous
 62
     7
370
    15
100
AcDbLine
 10
718.2991755496
 20
203.1708489326
 30
0.0
 11
705.5712534883
 21
210.518521939
 31
0.0
  0
LINE
  5
1B5
330
1F
100
AcDbEntity
  8
0
  6
Continuous
 62
     7
370
    15
100
AcDbLine
 10
613.0787707194
 20
50.2994823986
 30
0.0
 11
625.8066927808
 21
42.9518093922
 31
0.0
  0
LINE
  5
1B6
330
1F
100
AcDbEntity
  8
0
  6
Continuous
 62
     7
370
    15
100
AcDbLine
 10
711.320212045
 20
186.4156721071
 30
0.0
 11
709.2999069559
 21
187.5819694097
 31
0.0
  0
LINE
  5
1B7
330
1F
100
AcDbEntity
  8
0
  6
Continuous
 62
     7
370
    15
100
AcDbLine
 10
634.8059613745
 20
58.540688915
 30
0.0
 11
636.8262664636
 21
57.3743916124
 31
0.0
  0
SPLINE
  5
1B8
330
1F
100
AcDbEntity
  8
0
  6
Continuous
 62
     7
370
    15
100
AcDbSpline
210
0.0
220
0.0
230
1.0
 70
     8
 71
     3
 72
    35
 73
    31
 74
     0
 42
0.000000001
 43
0.00000001
 40
0.0
 40
0.0
 40
0.0
 40
0.0
 40
0.0012261518625283
 40
0.0385228688209277
 40
0.0758416240788683
 40
0.1131995189300789
 40
0.1506059691063267
 40
0.188064940497305
 40
0.2255765995331063
 40
0.26313851122329
 40
0.3007464959723832
 40
0.3383952323686696
 40
0.3760786730608268
 40
0.4137903246798503
 40
0.451523430143464
 40
0.4892710820727299
 40
0.5270262889373906
 40
0.5647820104750547
 40
0.6025288974623492
 40
0.6402597902104831
 40
0.6779676078844872
 40
0.7156453122896757
 40
0.7532859781725975
 40
0.7908829130592417
 40
0.8284298489417008
 40
0.8659212353996785
 40
0.9033526733311732
 40
0.9407215406792105
 40
0.978027876441685
 40
1.0
 40
1.0
 40
1.0
 40
1.0
 10
638.5719499579125
 20
101.2752076695574
 30
0.0
 10
638.570652971987
 20
101.2997243270908
 30
0.0
 10
638.5299046599765
 20
102.0699812674821
 30
0.0
 10
638.5602105540735
 20
103.6726930125136
 30
0.0
 10
638.6746914582451
 20
106.0785521590401
 30
0.0
 10
638.9263217663336
 20
108.568579293466
 30
0.0
 10
639.2976921292766
 20
111.1187953291754
 30
0.0
 10
639.7933267503204
 20
113.7226904644495
 30
0.0
 10
640.4110281646103
 20
116.3685997505439
 30
0.0
 10
641.1495709853284
 20
119.0458994014839
 30
0.0
 10
642.0066523110562
 20
121.7434519526415
 30
0.0
 10
642.9794666512255
 20
124.4501196341778
 30
0.0
 10
644.0645810064331
 20
127.1547116292505
 30
0.0
 10
645.2580002646682
 20
129.8460745961129
 30
0.0
 10
646.5551824247563
 20
132.5131379115367
 30
0.0
 10
647.9510673204255
 20
135.1449659200226
 30
0.0
 10
649.4401012871036
 20
137.7308045800353
 30
0.0
 10
651.0162306392258
 20
140.2600762779267
 30
0.0
 10
652.6729493925745
 20
142.7224795923293
 30
0.0
 10
654.4033264149459
 20
145.108038258057
 30
0.0
 10
656.2000697600859
 20
147.4071920904499
 30
0.0
 10
658.0555213696794
 20
149.6107917390501
 30
0.0
 10
659.9616831497539
 20
151.710150889047
 30
0.0
 10
661.9102429812058
 20
153.6970730891526
 30
0.0
 10
663.8926162259796
 20
155.5639907520086
 30
0.0
 10
665.8999468780671
 20
157.3037002148379
 30
0.0
 10
667.9232847749382
 20
158.91061633778
 30
0.0
 10
669.953144392524
 20
160.3763846665476
 30
0.0
 10
671.7045926004588
 20
161.5249718671633
 30
0.0
 10
672.7737742131495
 20
162.1552821231886
 30
0.0
 10
673.1700765254818
 20
162.3889126018505
 30
0.0
  0
SPLINE
  5
1B9
330
1F
100
AcDbEntity
  8
0
  6
Continuous
 62
     7
370
    15
100
AcDbSpline
210
0.0
220
0.0
230
1.0
 70
     8
 71
     3
 72
    19
 73
    15
 74
     0
 42
0.000000001
 43
0.00000001
 40
0.0
 40
0.0
 40
0.0
 40
0.0
 40
0.0279739240415124
 40
0.1205773021447207
 40
0.21312361237743
 40
0.3056257073466602
 40
0.3980970162888998
 40
0.4905513267601647
 40
0.5830026500798905
 40
0.6754632077428268
 40
0.7679444459552948
 40
0.8604606398236919
 40
0.9530260270116006
 40
1.0
 40
1.0
 40
1.0
 40
1.0
 10
622.805553045096
 20
171.9048979855941
 30
0.0
 10
622.5919150033875
 20
171.6601946829409
 30
0.0
 10
621.6710610443052
 20
170.6054386888927
 30
0.0
 10
620.1096428321208
 20
168.6396288776951
 30
0.0
 10
618.1307094209747
 20
166.015963717488
 30
0.0
 10
616.2362415566513
 20
163.3036966739703
 30
0.0
 10
614.425687586139
 20
160.5205131576367
 30
0.0
 10
612.7059487740413
 20
157.6722054738837
 30
0.0
 10
611.0815126232712
 20
154.7679643222689
 30
0.0
 10
609.5579259744646
 20
151.8162335065141
 30
0.0
 10
608.13767831451
 20
148.8259084589481
 30
0.0
 10
606.8330401350062
 20
145.8054133058551
 30
0.0
 10
605.8183201930851
 20
143.2647601408154
 30
0.0
 10
605.285698234562
 20
141.7316654905842
 30
0.0
 10
605.1063985053596
 20
141.2155706296244
 30
0.0
  0
SPLINE
  5
1BA
330
1F
100
AcDbEntity
  8
0
  6
Continuous
 62
     7
370
    15
100
AcDbSpline
210
0.0
220
0.0
230
1.0
 70
     8
 71
     3
 72
    18
 73
    14
 74
     0
 42
0.000000001
 43
0.00000001
 40
0.0
 40
0.0
 40
0.0
 40
0.0
 40
0.0719110219572228
 40
0.1803491989460594
 40
0.2869127985919053
 40
0.3903773647054392
 40
0.4907897538886285
 40
0.5887865341108653
 40
0.6850768575910864
 40
0.7802514818255963
 40
0.8747525948220883
 40
0.9688940639323536
 40
0.9999999999999999
 40
0.9999999999999999
 40
0.9999999999999999
 40
0.9999999999999999
 10
645.6661228411941
 20
91.55325099318158
 30
0.0
 10
645.3981103355208
 20
91.70828430157177
 30
0.0
 10
644.7259485529434
 20
92.09709998263335
 30
0.0
 10
643.7564292464627
 20
92.90028885674687
 30
0.0
 10
642.7477261691103
 20
93.93912502520838
 30
0.0
 10
641.847365576924
 20
95.12843723654561
 30
0.0
 10
641.0535888254904
 20
96.44963067786526
 30
0.0
 10
640.3665450630432
 20
97.89812443837405
 30
0.0
 10
639.7862464574254
 20
99.47053065566975
 30
0.0
 10
639.3109317422983
 20
101.1612468632131
 30
0.0
 10
638.953308338702
 20
102.975268094783
 30
0.0
 10
638.7389139723407
 20
104.450730644728
 30
0.0
 10
638.6842393005032
 20
105.3528218256698
 30
0.0
 10
638.6706605214116
 20
105.5768615218353
 30
0.0
  0
SPLINE
  5
1BB
330
1F
100
AcDbEntity
  8
0
  6
Continuous
 62
     7
370
    15
100
AcDbSpline
210
0.0
220
0.0
230
1.0
 70
     8
 71
     3
 72
    19
 73
    15
 74
     0
 42
0.000000001
 43
0.00000001
 40
0.0
 40
0.0
 40
0.0
 40
0.0
 40
0.0169624045424174
 40
0.1104297392196702
 40
0.2038844831058989
 40
0.29744585045844
 40
0.3913210897472936
 40
0.4858071063548208
 40
0.5813116878801325
 40
0.6783657619359633
 40
0.7776020331105192
 40
0.8796420155527167
 40
0.9847884445931295
 40
1.0
 40
1.0
 40
1.0
 40
1.0
 10
670.5407957867134
 20
160.7377400463166
 30
0.0
 10
670.650553663534
 20
160.793265146458
 30
0.0
 10
671.3651064667229
 20
161.1547482317968
 30
0.0
 10
672.6541876368498
 20
161.6758663995761
 30
0.0
 10
674.3928495312566
 20
162.2907758005105
 30
0.0
 10
676.0756713255853
 20
162.7401094089573
 30
0.0
 10
677.6988317588321
 20
163.0430082875269
 30
0.0
 10
679.2561560111392
 20
163.1973424512657
 30
0.0
 10
680.74520227371
 20
163.2072697756212
 30
0.0
 10
682.1650966971176
 20
163.0727562993973
 30
0.0
 10
683.5209035874377
 20
162.7975776400346
 30
0.0
 10
684.8061334685648
 20
162.3587882073948
 30
0.0
 10
685.6928836376328
 20
161.9770303191624
 30
0.0
 10
686.1278255737584
 20
161.6916191019366
 30
0.0
 10
686.1827961134406
 20
161.6555471407409
 30
0.0
  0
SPLINE
  5
1BC
330
1F
100
AcDbEntity
  8
0
  6
Continuous
 62
     7
370
    15
100
AcDbSpline
210
0.0
220
0.0
230
1.0
 70
     8
 71
     3
 72
    42
 73
    38
 74
     0
 42
0.000000001
 43
0.00000001
 40
0.0
 40
0.0
 40
0.0
 40
0.0
 40
0.0156421772334868
 40
0.0450654460745768
 40
0.0744678134042946
 40
0.1038481789811167
 40
0.1332013847288177
 40
0.1625252914191815
 40
0.1918199373819532
 40
0.2210868891339801
 40
0.2503287585982154
 40
0.2795488557076108
 40
0.3087509456043932
 40
0.3379390838039612
 40
0.3671175077715358
 40
0.3962905680365877
 40
0.4254626857349667
 40
0.4546377172407131
 40
0.4838192742931284
 40
0.5130118612634782
 40
0.5422199707083064
 40
0.5714480447754662
 40
0.6007004123789491
 40
0.6299811889930005
 40
0.6592941222998868
 40
0.6886423619580283
 40
0.718028125960579
 40
0.7474522303795612
 40
0.776913445974539
 40
0.8064076486878218
 40
0.835926749437313
 40
0.8654555610379473
 40
0.8949678767476353
 40
0.9244335024674207
 40
0.9538141898685942
 40
0.983064954868528
 40
1.0
 40
1.0
 40
1.0
 40
1.0
 10
632.5516356902717
 20
193.4867163356013
 30
0.0
 10
632.1199793996516
 20
193.2329284525369
 30
0.0
 10
630.8763684241891
 20
192.5017601510978
 30
0.0
 10
628.8331721574369
 20
191.1763997948422
 30
0.0
 10
626.4349307331227
 20
189.4681316416051
 30
0.0
 10
624.0674520791587
 20
187.6185122693299
 30
0.0
 10
621.7371203367355
 20
185.6366308348888
 30
0.0
 10
619.4505472561625
 20
183.5285326650702
 30
0.0
 10
617.2140988600506
 20
181.3013854662799
 30
0.0
 10
615.0339984264534
 20
178.9623221288523
 30
0.0
 10
612.9163176000703
 20
176.5187512237045
 30
0.0
 10
610.8669841265661
 20
173.9782721939025
 30
0.0
 10
608.8917752961585
 20
171.348691857062
 30
0.0
 10
606.9963084830317
 20
168.6380086918718
 30
0.0
 10
605.1860283242098
 20
165.8544007091191
 30
0.0
 10
603.4661927230025
 20
163.006207801375
 30
0.0
 10
601.8418699933591
 20
160.1019318886658
 30
0.0
 10
600.3179263838678
 20
157.1502253534496
 30
0.0
 10
598.898993605361
 20
154.1598379268738
 30
0.0
 10
597.5894501035809
 20
151.1395681333782
 30
0.0
 10
596.3934144606662
 20
148.0982263254009
 30
0.0
 10
595.3147564454677
 20
145.0446398582422
 30
0.0
 10
594.3570957763762
 20
141.9876305359221
 30
0.0
 10
593.5238039133217
 20
138.9359954025415
 30
0.0
 10
592.8180086311519
 20
135.8984926865373
 30
0.0
 10
592.2426004372365
 20
132.8838349200233
 30
0.0
 10
591.8002398683424
 20
129.9006922272742
 30
0.0
 10
591.4933608692534
 20
126.9577068412011
 30
0.0
 10
591.3241740015164
 20
124.063527963288
 30
0.0
 10
591.2946332963318
 20
121.2268445415379
 30
0.0
 10
591.4064674585707
 20
118.4565641074903
 30
0.0
 10
591.6608227925051
 20
115.7618048274588
 30
0.0
 10
592.0590815449347
 20
113.1526069750728
 30
0.0
 10
592.5990816432655
 20
110.6369827952282
 30
0.0
 10
593.288396952722
 20
108.2316159122822
 30
0.0
 10
593.9826912473711
 20
106.2411989210204
 30
0.0
 10
594.5047684803824
 20
105.1017158432985
 30
0.0
 10
594.6961996034482
 20
104.6838992608273
 30
0.0
  0
SPLINE
  5
1BD
330
1F
100
AcDbEntity
  8
0
  6
Continuous
 62
     7
370
    15
100
AcDbSpline
210
0.0
220
0.0
230
1.0
 70
     8
 71
     3
 72
    15
 73
    11
 74
     0
 42
0.000000001
 43
0.00000001
 40
0.0
 40
0.0
 40
0.0
 40
0.0
 40
0.1154380568622194
 40
0.256559988409726
 40
0.3987250189298272
 40
0.5417304999730067
 40
0.6853628177220011
 40
0.8294211297720472
 40
0.9665391424079642
 40
0.9999999999999999
 40
0.9999999999999999
 40
0.9999999999999999
 40
0.9999999999999999
 10
649.4112505183791
 20
199.2627330027447
 30
0.0
 10
648.7748350549788
 20
199.1953563662574
 30
0.0
 10
647.3604077131479
 20
199.0456124295856
 30
0.0
 10
645.1332238333404
 20
198.6038736703468
 30
0.0
 10
642.7381836221576
 20
197.9790443818897
 30
0.0
 10
640.3170622744863
 20
197.1759266081304
 30
0.0
 10
637.879880454121
 20
196.2042863450712
 30
0.0
 10
635.4762243844467
 20
195.0837861174317
 30
0.0
 10
633.699804756585
 20
194.1439825402506
 30
0.0
 10
632.739926088568
 20
193.5945026530445
 30
0.0
 10
632.5516356902717
 20
193.4867163356013
 30
0.0
  0
LINE
  5
1BE
330
1F
100
AcDbEntity
  8
0
  6
Continuous
 62
     7
370
    15
100
AcDbLine
 10
629.0016906112
 20
254.7211897077
 30
0.0
 11
616.2737685498
 21
262.0688627141
 31
0.0
  0
LINE
  5
1BF
330
1F
100
AcDbEntity
  8
0
  6
Continuous
 62
     7
370
    15
100
AcDbLine
 10
523.781285781
 20
101.8498231736
 30
0.0
 11
536.5092078424
 21
94.5021501672
 31
0.0
  0
SPLINE
  5
1C0
330
1F
100
AcDbEntity
  8
0
  6
Continuous
 62
     7
370
    15
100
AcDbSpline
210
0.0
220
0.0
230
1.0
 70
     8
 71
     3
 72
    48
 73
    44
 74
     0
 42
0.000000001
 43
0.00000001
 40
0.0
 40
0.0
 40
0.0
 40
0.0
 40
0.0132441022168874
 40
0.038156540828829
 40
0.063051282303794
 40
0.0879273950763772
 40
0.1127805118460571
 40
0.1376088213459801
 40
0.1624123560296218
 40
0.1871924422538568
 40
0.2119512915122652
 40
0.2366917062977291
 40
0.2614168745250621
 40
0.2861302299656421
 40
0.3108353604462604
 40
0.3355359495242708
 40
0.3602357405388662
 40
0.3849379986500849
 40
0.4096457818877494
 40
0.4343629040657906
 40
0.4590931689947162
 40
0.4838403378044092
 40
0.5086080757505755
 40
0.5333998673712548
 40
0.5582188857980559
 40
0.5830677978207389
 40
0.6079484813957816
 40
0.6328616274846204
 40
0.657806195299536
 40
0.6827786930349575
 40
0.7077722717319115
 40
0.7327740725262902
 40
0.7577619063861067
 40
0.7827102082172555
 40
0.8075865934758585
 40
0.8323529745108426
 40
0.8569683887565738
 40
0.8813936342968156
 40
0.9055971569287817
 40
0.9295609562962865
 40
0.9532850057701314
 40
0.9767890583458229
 40
1.0
 40
1.0
 40
1.0
 40
1.0
 10
623.3119146727589
 20
198.8206937421099
 30
0.0
 10
622.8802583821389
 20
198.5669058590456
 30
0.0
 10
621.6366474066764
 20
197.8357375576065
 30
0.0
 10
619.5934511399242
 20
196.510377201351
 30
0.0
 10
617.19520971561
 20
194.8021090481138
 30
0.0
 10
614.827731061646
 20
192.9524896758387
 30
0.0
 10
612.4973993192228
 20
190.9706082413975
 30
0.0
 10
610.2108262386498
 20
188.862510071579
 30
0.0
 10
607.9743778425379
 20
186.6353628727885
 30
0.0
 10
605.7942774089407
 20
184.296299535361
 30
0.0
 10
603.6765965825576
 20
181.8527286302132
 30
0.0
 10
601.6272631090534
 20
179.3122496004112
 30
0.0
 10
599.6520542786458
 20
176.6826692635707
 30
0.0
 10
597.756587465519
 20
173.9719860983805
 30
0.0
 10
595.946307306697
 20
171.1883781156277
 30
0.0
 10
594.2264717054898
 20
168.3401852078837
 30
0.0
 10
592.6021489758461
 20
165.4359092951743
 30
0.0
 10
591.0782053663557
 20
162.4842027599589
 30
0.0
 10
589.6592725878454
 20
159.4938153333802
 30
0.0
 10
588.3497290860788
 20
156.4735455398956
 30
0.0
 10
587.1536934431135
 20
153.4322037318775
 30
0.0
 10
586.0750354281038
 20
150.3786172648713
 30
0.0
 10
585.1173747583066
 20
147.3216079419809
 30
0.0
 10
584.2840828978905
 20
144.2699728107317
 30
0.0
 10
583.5782876058577
 20
141.2324700867598
 30
0.0
 10
583.0028794488182
 20
138.2178123500355
 30
0.0
 10
582.5605187420376
 20
135.234669545897
 30
0.0
 10
582.2536402585462
 20
132.2916845763407
 30
0.0
 10
582.0844514630041
 20
129.3975041410829
 30
0.0
 10
582.054917964113
 20
126.5608265408146
 30
0.0
 10
582.1667252012196
 20
123.7905243557567
 30
0.0
 10
582.4211810509947
 20
121.0958462757381
 30
0.0
 10
582.8190650509355
 20
118.4863456859253
 30
0.0
 10
583.3604600955249
 20
115.9718483897008
 30
0.0
 10
584.0445932455872
 20
113.5622951873875
 30
0.0
 10
584.8696113909209
 20
111.2676953646338
 30
0.0
 10
585.8324415568411
 20
109.0978856609021
 30
0.0
 10
586.9286478866031
 20
107.0620267039735
 30
0.0
 10
588.1528409525722
 20
105.1686815368053
 30
0.0
 10
589.4977796726457
 20
103.4237165544988
 30
0.0
 10
590.9590033165863
 20
101.8366337755311
 30
0.0
 10
592.5171396546499
 20
100.3989599046461
 30
0.0
 10
593.64351217176
 20
99.57440335488538
 30
0.0
 10
594.2031647459821
 20
99.16471189965597
 30
0.0
  0
SPLINE
  5
1C1
330
1F
100
AcDbEntity
  8
0
  6
Continuous
 62
     7
370
    15
100
AcDbSpline
210
0.0
220
0.0
230
1.0
 70
     8
 71
     3
 72
    22
 73
    18
 74
     0
 42
0.000000001
 43
0.00000001
 40
0.0
 40
0.0
 40
0.0
 40
0.0
 40
0.0204689107976949
 40
0.0918474692005134
 40
0.1634073437395601
 40
0.2353386360926547
 40
0.3077970171582833
 40
0.3808915292909015
 40
0.4546771599823844
 40
0.5291537566694829
 40
0.6042719909957139
 40
0.6799454597365329
 40
0.7560662945149341
 40
0.8325207901640118
 40
0.9092020396519647
 40
0.9821890154578022
 40
1.0
 40
1.0
 40
1.0
 40
1.0
 10
653.7695670087372
 20
202.4290675953863
 30
0.0
 10
653.5929263879663
 20
202.5181145126548
 30
0.0
 10
652.8003100081221
 20
202.9176831107135
 30
0.0
 10
651.306893197905
 20
203.4616260297025
 30
0.0
 10
649.2968279592333
 20
204.0536558254854
 30
0.0
 10
647.2096981945881
 20
204.4640202782897
 30
0.0
 10
645.0580534229317
 20
204.7071783802133
 30
0.0
 10
642.8444248811509
 20
204.77719198267
 30
0.0
 10
640.574860153305
 20
204.673644007736
 30
0.0
 10
638.255580481817
 20
204.3950373160407
 30
0.0
 10
635.8940008061006
 20
203.9410150024148
 30
0.0
 10
633.4983278900423
 20
203.3121658942178
 30
0.0
 10
631.077377627786
 20
202.510135092529
 30
0.0
 10
628.6401495985857
 20
201.5382012467992
 30
0.0
 10
626.236505961388
 20
200.4177800075115
 30
0.0
 10
624.4600836157696
 20
199.4779591633671
 30
0.0
 10
623.5002050508348
 20
198.9284799310832
 30
0.0
 10
623.3119146727589
 20
198.8206937421099
 30
0.0
  0
SPLINE
  5
1C2
330
1F
100
AcDbEntity
  8
0
  6
Continuous
 62
     7
370
    15
100
AcDbSpline
210
0.0
220
0.0
230
1.0
 70
     8
 71
     3
 72
    64
 73
    60
 74
     0
 42
0.000000001
 43
0.00000001
 40
0.0
 40
0.0
 40
0.0
 40
0.0
 40
0.003582008556558
 40
0.0206664236029407
 40
0.0377486549649116
 40
0.0548818493689302
 40
0.0721655412310883
 40
0.0897547988767502
 40
0.1078838607055755
 40
0.1268896559022133
 40
0.1471856001857199
 40
0.1689547925347052
 40
0.188351709359711
 40
0.206499977046182
 40
0.2238069992324239
 40
0.2421748663296609
 40
0.2599472343963874
 40
0.2773800286758527
 40
0.2946490878682132
 40
0.3118596759344998
 40
0.3290664186878408
 40
0.3463012694295642
 40
0.3635864514450833
 40
0.3809314056561699
 40
0.3983375333997879
 40
0.4158012655838781
 40
0.4333160394025657
 40
0.4508735553117818
 40
0.4684645560367839
 40
0.4860792893654666
 40
0.503707765148433
 40
0.521339883421837
 40
0.5389630747783711
 40
0.5565661967541505
 40
0.5741390948174236
 40
0.591671740473225
 40
0.6091544452033105
 40
0.6265782564791366
 40
0.6439356324937392
 40
0.6612215331723872
 40
0.6784351214902825
 40
0.6955823474362709
 40
0.7126797970593223
 40
0.7297603500227798
 40
0.7468605918429695
 40
0.7640602589986373
 40
0.7814865332331786
 40
0.7993342931706828
 40
0.8178916685438975
 40
0.8375491809359755
 40
0.8586702337611387
 40
0.8809469369379838
 40
0.8995175782485643
 40
0.9171013945404948
 40
0.9357733121590157
 40
0.9537213683441066
 40
0.971245868474089
 40
0.9885562151408617
 40
1.0
 40
1.0
 40
1.0
 40
1.0
 10
662.2228664880722
 20
153.9662429172916
 30
0.0
 10
662.3218121526886
 20
154.0150348908511
 30
0.0
 10
662.8926798617823
 20
154.2965405260511
 30
0.0
 10
663.8907629561945
 20
154.6668568923469
 30
0.0
 10
665.1970306939403
 20
155.0708998525542
 30
0.0
 10
666.4257740219404
 20
155.3207675049244
 30
0.0
 10
667.5747739622186
 20
155.4392064529748
 30
0.0
 10
668.640812334945
 20
155.4292227111546
 30
0.0
 10
669.6288808037594
 20
155.2973727421034
 30
0.0
 10
670.5513840386537
 20
155.0421239088624
 30
0.0
 10
671.4256467451405
 20
154.6499203569801
 30
0.0
 10
672.2223478699923
 20
154.1203123153294
 30
0.0
 10
672.9365844330855
 20
153.4594377352098
 30
0.0
 10
673.5553947396008
 20
152.7001160777043
 30
0.0
 10
674.1170396531055
 20
151.802666702175
 30
0.0
 10
674.6164006428244
 20
150.7515681310076
 30
0.0
 10
675.0411716432818
 20
149.5359249709783
 30
0.0
 10
675.3704506699331
 20
148.1973205295783
 30
0.0
 10
675.5999268472281
 20
146.7394908462666
 30
0.0
 10
675.7243695006957
 20
145.1688328766224
 30
0.0
 10
675.7387594498216
 20
143.4945374764764
 30
0.0
 10
675.6390230836745
 20
141.7277510982593
 30
0.0
 10
675.422281234526
 20
139.8808098919595
 30
0.0
 10
675.0869242581683
 20
137.9669872108721
 30
0.0
 10
674.6326924759162
 20
136.0004793248301
 30
0.0
 10
674.0606803543336
 20
133.9961105484772
 30
0.0
 10
673.3732965875372
 20
131.9690875071763
 30
0.0
 10
672.5742017476888
 20
129.9347941021207
 30
0.0
 10
671.6682366654414
 20
127.9086186029714
 30
0.0
 10
670.6613492373806
 20
125.9058050136784
 30
0.0
 10
669.5605238591736
 20
123.9413217191728
 30
0.0
 10
668.373769445569
 20
122.0298283612715
 30
0.0
 10
667.1100431192712
 20
120.1854940780729
 30
0.0
 10
665.7791694230004
 20
118.4218347929362
 30
0.0
 10
664.3917096574723
 20
116.7515163737573
 30
0.0
 10
662.9589289174721
 20
115.186288094888
 30
0.0
 10
661.4927561794005
 20
113.7368783175645
 30
0.0
 10
660.0057097855628
 20
112.4128404840202
 30
0.0
 10
658.5108023434477
 20
111.2223803797232
 30
0.0
 10
657.0214122453139
 20
110.1721641333023
 30
0.0
 10
655.5511039124033
 20
109.2671106394595
 30
0.0
 10
654.1133721397306
 20
108.5101799350053
 30
0.0
 10
652.7212777319535
 20
107.9021827964673
 30
0.0
 10
651.3874720111974
 20
107.4418473124522
 30
0.0
 10
650.1231495670984
 20
107.1254926784277
 30
0.0
 10
648.9369820104836
 20
106.9472227008885
 30
0.0
 10
647.8333217111514
 20
106.8997448103889
 30
0.0
 10
646.8107555723933
 20
106.9763546880922
 30
0.0
 10
645.860397272077
 20
107.1745402027858
 30
0.0
 10
644.9661621876298
 20
107.5016618309
 30
0.0
 10
644.1133402060857
 20
107.9788298804292
 30
0.0
 10
643.3452024636609
 20
108.599485942273
 30
0.0
 10
642.6690715643259
 20
109.3470862230205
 30
0.0
 10
642.0781910736055
 20
110.2016690415297
 30
0.0
 10
641.5489868774744
 20
111.2097513745972
 30
0.0
 10
641.0910169857792
 20
112.3824349553279
 30
0.0
 10
640.7319976306122
 20
113.683092332569
 30
0.0
 10
640.4862620959769
 20
114.9314360627284
 30
0.0
 10
640.4072333555752
 20
115.793642960259
 30
0.0
 10
640.3757809049237
 20
116.1367905260449
 30
0.0
  0
SPLINE
  5
1C3
330
1F
100
AcDbEntity
  8
0
  6
Continuous
 62
     7
370
    15
100
AcDbSpline
210
0.0
220
0.0
230
1.0
 70
     8
 71
     3
 72
    52
 73
    48
 74
     0
 42
0.000000001
 43
0.00000001
 40
0.0
 40
0.0
 40
0.0
 40
0.0
 40
0.0122481793243542
 40
0.0352872657440404
 40
0.058309985806562
 40
0.0813154779978685
 40
0.104299703427358
 40
0.1272609870308536
 40
0.1501993588214089
 40
0.1731160454172263
 40
0.1960130920131798
 40
0.2188930903617937
 40
0.2417589886547759
 40
0.2646139624526055
 40
0.2874613297865973
 40
0.310304497219939
 40
0.3331469266022107
 40
0.3559916375616958
 40
0.378841458172135
 40
0.4016999154583235
 40
0.4245705271938657
 40
0.4474567716812182
 40
0.4703620385581573
 40
0.4932895503342982
 40
0.5162422415298025
 40
0.5392225783986047
 40
0.5622322976796188
 40
0.585272038375735
 40
0.6083408379638285
 40
0.6314354672132503
 40
0.6545495921893716
 40
0.6776713209820481
 40
0.7007801331182109
 40
0.7238523859339899
 40
0.7468581301210571
 40
0.7697621421230911
 40
0.7925265396554921
 40
0.8151150686866855
 40
0.8374985478098994
 40
0.8596603302500709
 40
0.8816003913804504
 40
0.9033369988213867
 40
0.9249056927401101
 40
0.9463560402794026
 40
0.9677469826830422
 40
0.9891293047225782
 40
1.0
 40
1.0
 40
1.0
 40
1.0
 10
614.0721936552462
 20
204.1546711486186
 30
0.0
 10
613.6405373646261
 20
203.9008832655542
 30
0.0
 10
612.3969263891637
 20
203.1697149641151
 30
0.0
 10
610.3537301224114
 20
201.8443546078596
 30
0.0
 10
607.9554886980972
 20
200.1360864546224
 30
0.0
 10
605.5880100441332
 20
198.2864670823472
 30
0.0
 10
603.25767830171
 20
196.3045856479061
 30
0.0
 10
600.971105221137
 20
194.1964874780875
 30
0.0
 10
598.7346568250251
 20
191.9693402792971
 30
0.0
 10
596.5545563914279
 20
189.6302769418696
 30
0.0
 10
594.4368755650448
 20
187.1867060367218
 30
0.0
 10
592.3875420915407
 20
184.6462270069198
 30
0.0
 10
590.412333261133
 20
182.0166466700793
 30
0.0
 10
588.5168664480062
 20
179.3059635048891
 30
0.0
 10
586.7065862891844
 20
176.5223555221364
 30
0.0
 10
584.9867506879771
 20
173.6741626143924
 30
0.0
 10
583.3624279583336
 20
170.7698867016831
 30
0.0
 10
581.8384843488432
 20
167.8181801664678
 30
0.0
 10
580.4195515703327
 20
164.827792739889
 30
0.0
 10
579.1100080685662
 20
161.8075229464044
 30
0.0
 10
577.9139724256008
 20
158.7661811383862
 30
0.0
 10
576.8353144105912
 20
155.7125946713801
 30
0.0
 10
575.8776537407938
 20
152.6555853484896
 30
0.0
 10
575.044361880378
 20
149.6039502172409
 30
0.0
 10
574.3385665883441
 20
146.5664474932672
 30
0.0
 10
573.7631584313092
 20
143.5517897565498
 30
0.0
 10
573.3207977245114
 20
140.5686469523854
 30
0.0
 10
573.0139192410838
 20
137.6256619829259
 30
0.0
 10
572.8447304453035
 20
134.7314815473063
 30
0.0
 10
572.8151969473024
 20
131.8948039483906
 30
0.0
 10
572.9270041810837
 20
129.1245017582787
 30
0.0
 10
573.181460043273
 20
126.429823697127
 30
0.0
 10
573.5793439969298
 20
123.8203230369728
 30
0.0
 10
574.1207392138032
 20
121.3058260025807
 30
0.0
 10
574.8048717238388
 20
118.8962718275724
 30
0.0
 10
575.6298922413441
 20
116.6016756099807
 30
0.0
 10
576.5927136369155
 20
114.4318525773117
 30
0.0
 10
577.6889523153293
 20
112.3960427829836
 30
0.0
 10
578.913026295262
 20
110.5025166320985
 30
0.0
 10
580.2584029232639
 20
108.7582171703418
 30
0.0
 10
581.718016302626
 20
107.1686871550994
 30
0.0
 10
583.2845484627187
 20
105.7377465150157
 30
0.0
 10
584.9513208551659
 20
104.4690297078026
 30
0.0
 10
586.7106583443576
 20
103.3614619666583
 30
0.0
 10
588.5607191689502
 20
102.4278385708473
 30
0.0
 10
590.1638096329677
 20
101.7594413028044
 30
0.0
 10
591.1729226248992
 20
101.4680208937268
 30
0.0
 10
591.5130383954012
 20
101.3697993092601
 30
0.0
  0
SPLINE
  5
1C4
330
1F
100
AcDbEntity
  8
0
  6
Continuous
 62
     7
370
    15
100
AcDbSpline
210
0.0
220
0.0
230
1.0
 70
     8
 71
     3
 72
    25
 73
    21
 74
     0
 42
0.000000001
 43
0.00000001
 40
0.0
 40
0.0
 40
0.0
 40
0.0
 40
0.0467750836149249
 40
0.1041761789786837
 40
0.1612832697946508
 40
0.2182558036194751
 40
0.2752216053102113
 40
0.3323321117875265
 40
0.3897390394032463
 40
0.447566625991961
 40
0.5059018960786669
 40
0.5647887340822679
 40
0.6242270182450773
 40
0.68417738059111
 40
0.7445708644327482
 40
0.8053213821729438
 40
0.8663381879892209
 40
0.9275359615149507
 40
0.9857854090072704
 40
0.9999999999999999
 40
0.9999999999999999
 40
0.9999999999999999
 40
0.9999999999999999
 10
650.5785261392277
 20
203.6494015963257
 30
0.0
 10
650.1585596579288
 20
204.0361384144981
 30
0.0
 10
649.223221868241
 20
204.8974680129497
 30
0.0
 10
647.641271031651
 20
206.051581783203
 30
0.0
 10
645.8709986458819
 20
207.1371419785476
 30
0.0
 10
644.0109357532926
 20
208.0530689911901
 30
0.0
 10
642.0712031991291
 20
208.8034203154851
 30
0.0
 10
640.05601971495
 20
209.385524901331
 30
0.0
 10
637.9702714254884
 20
209.7985682860466
 30
0.0
 10
635.8182525723287
 20
210.0410009758249
 30
0.0
 10
633.6047255526877
 20
210.1112114481952
 30
0.0
 10
631.3351332420793
 20
210.007609985263
 30
0.0
 10
629.0158610645295
 20
209.7290178256782
 30
0.0
 10
626.6542793548024
 20
209.274991567735
 30
0.0
 10
624.2586069898753
 20
208.6461435282817
 30
0.0
 10
621.8376565785911
 20
207.8441124376011
 30
0.0
 10
619.4004285896422
 20
206.8721786699257
 30
0.0
 10
616.9967849416149
 20
205.7517574096375
 30
0.0
 10
615.220362598364
 20
204.8119365700838
 30
0.0
 10
614.2604840333395
 20
204.262457337626
 30
0.0
 10
614.0721936552462
 20
204.1546711486186
 30
0.0
  0
SPLINE
  5
1C5
330
1F
100
AcDbEntity
  8
0
  6
Continuous
 62
     7
370
    15
100
AcDbSpline
210
0.0
220
0.0
230
1.0
 70
     8
 71
     3
 72
    36
 73
    32
 74
     0
 42
0.000000001
 43
0.00000001
 40
0.0
 40
0.0
 40
0.0
 40
0.0
 40
0.0093494441422625
 40
0.0449885486293583
 40
0.0802929178018528
 40
0.1154777502817073
 40
0.1506547215140959
 40
0.1858891559115292
 40
0.221226486121135
 40
0.2566860128925244
 40
0.2922706010787831
 40
0.3279729541305016
 40
0.363779655235634
 40
0.3996737370443934
 40
0.4356362742498841
 40
0.4716473297094642
 40
0.5076864798483158
 40
0.5437330765901193
 40
0.5797614233991816
 40
0.6157487409420084
 40
0.6516742695852182
 40
0.6875175073614113
 40
0.7232586473418502
 40
0.7588793872340245
 40
0.7943643087841459
 40
0.8297031082080345
 40
0.8648940743162009
 40
0.8999493710951447
 40
0.9349029065875333
 40
0.9698218990338033
 40
1.0
 40
1.0
 40
1.0
 40
1.0
 10
665.6811614241433
 20
155.1479337282687
 30
0.0
 10
665.717880176383
 20
155.0454558816756
 30
0.0
 10
665.8945669767546
 20
154.552343188051
 30
0.0
 10
666.1267626941763
 20
153.5239173633898
 30
0.0
 10
666.3612605423249
 20
152.0754305580505
 30
0.0
 10
666.4843663667011
 20
150.5022854020825
 30
0.0
 10
666.4991141474995
 20
148.8286557519919
 30
0.0
 10
666.399281700857
 20
147.0616906148779
 30
0.0
 10
666.1825657009504
 20
145.2147975013979
 30
0.0
 10
665.8472017634908
 20
143.3009618690982
 30
0.0
 10
665.3929718562168
 20
141.3344574714752
 30
0.0
 10
664.82095922974
 20
139.3300877557605
 30
0.0
 10
664.1335755988291
 20
137.3030649672762
 30
0.0
 10
663.3344807224304
 20
135.268771494219
 30
0.0
 10
662.4285156500217
 20
133.242596013372
 30
0.0
 10
661.4216282192576
 20
131.2397824190607
 30
0.0
 10
660.3208028420057
 20
129.2752991262898
 30
0.0
 10
659.1340484272879
 20
127.363805766474
 30
0.0
 10
657.8703221044843
 20
125.5194714891931
 30
0.0
 10
656.5394483953708
 20
123.755812182337
 30
0.0
 10
655.1519886775989
 20
122.0854938439133
 30
0.0
 10
653.7192077600081
 20
120.5202652647426
 30
0.0
 10
652.2530356818365
 20
119.0708566032937
 30
0.0
 10
650.7659868377701
 20
117.7468146264738
 30
0.0
 10
649.2710884876407
 20
116.5563698964973
 30
0.0
 10
647.7816646658686
 20
115.5060966242471
 30
0.0
 10
646.3114814175913
 20
114.6012546453926
 30
0.0
 10
644.8732854024045
 20
113.843538918451
 30
0.0
 10
643.4829168105874
 20
113.2384600915634
 30
0.0
 10
642.2038029322453
 20
112.7887367997448
 30
0.0
 10
641.4308312738942
 20
112.6095826936893
 30
0.0
 10
641.0724924368294
 20
112.5265293587762
 30
0.0
  0
SPLINE
  5
1C6
330
1F
100
AcDbEntity
  8
0
  6
Continuous
 62
     7
370
    15
100
AcDbSpline
210
0.0
220
0.0
230
1.0
 70
     8
 71
     3
 72
    52
 73
    48
 74
     0
 42
0.000000001
 43
0.00000001
 40
0.0
 40
0.0
 40
0.0
 40
0.0
 40
0.0122481793243542
 40
0.0352872657440405
 40
0.0583099858065622
 40
0.0813154779978671
 40
0.1042997034273576
 40
0.1272609870308514
 40
0.1501993588214078
 40
0.1731160454172253
 40
0.1960130920131787
 40
0.2188930903617918
 40
0.2417589886547749
 40
0.2646139624526044
 40
0.2874613297865972
 40
0.3103044972199386
 40
0.3331469266022096
 40
0.3559916375616952
 40
0.3788414581721331
 40
0.4016999154583225
 40
0.4245705271938648
 40
0.4474567716812172
 40
0.4703620385581562
 40
0.4932895503342969
 40
0.516242241529802
 40
0.5392225783986041
 40
0.5622322976796182
 40
0.5852720383757342
 40
0.6083408379638275
 40
0.6314354672132491
 40
0.6545495921893703
 40
0.6776713209820465
 40
0.7007801331182101
 40
0.7238523859339882
 40
0.746858130121056
 40
0.7697621421230909
 40
0.7925265396554917
 40
0.8151150686866859
 40
0.8374985478098981
 40
0.8596603302500698
 40
0.8816003913804495
 40
0.9033369988213849
 40
0.9249056927401088
 40
0.946356040279401
 40
0.9677469826830405
 40
0.9891293047225773
 40
1.0
 40
1.0
 40
1.0
 40
1.0
 10
604.8324726377335
 20
209.4886485551272
 30
0.0
 10
604.4008163471134
 20
209.2348606720628
 30
0.0
 10
603.157205371651
 20
208.5036923706237
 30
0.0
 10
601.1140091048987
 20
207.1783320143682
 30
0.0
 10
598.7157676805846
 20
205.470063861131
 30
0.0
 10
596.3482890266206
 20
203.6204444888559
 30
0.0
 10
594.0179572841975
 20
201.6385630544148
 30
0.0
 10
591.7313842036244
 20
199.5304648845962
 30
0.0
 10
589.4949358075125
 20
197.3033176858058
 30
0.0
 10
587.3148353739153
 20
194.9642543483783
 30
0.0
 10
585.1971545475323
 20
192.5206834432306
 30
0.0
 10
583.1478210740281
 20
189.9802044134286
 30
0.0
 10
581.1726122436205
 20
187.3506240765881
 30
0.0
 10
579.2771454304936
 20
184.6399409113978
 30
0.0
 10
577.4668652716717
 20
181.8563329286451
 30
0.0
 10
575.7470296704645
 20
179.0081400209012
 30
0.0
 10
574.1227069408209
 20
176.1038641081919
 30
0.0
 10
572.5987633313306
 20
173.1521575729766
 30
0.0
 10
571.1798305528201
 20
170.1617701463979
 30
0.0
 10
569.8702870510537
 20
167.1415003529133
 30
0.0
 10
568.6742514080883
 20
164.1001585448951
 30
0.0
 10
567.5955933930786
 20
161.046572077889
 30
0.0
 10
566.6379327232812
 20
157.9895627549985
 30
0.0
 10
565.8046408628654
 20
154.9379276237498
 30
0.0
 10
565.0988455708314
 20
151.9004248997761
 30
0.0
 10
564.5234374137965
 20
148.8857671630587
 30
0.0
 10
564.0810767069988
 20
145.9026243588943
 30
0.0
 10
563.7741982235711
 20
142.9596393894348
 30
0.0
 10
563.605009427791
 20
140.0654589538152
 30
0.0
 10
563.5754759297897
 20
137.2287813548995
 30
0.0
 10
563.687283163571
 20
134.4584791647877
 30
0.0
 10
563.9417390257603
 20
131.7638011036359
 30
0.0
 10
564.3396229794171
 20
129.1543004434817
 30
0.0
 10
564.8810181962904
 20
126.6398034090896
 30
0.0
 10
565.5651507063261
 20
124.2302492340813
 30
0.0
 10
566.3901712238313
 20
121.9356530164896
 30
0.0
 10
567.3529926194027
 20
119.7658299838205
 30
0.0
 10
568.4492312978166
 20
117.7300201894924
 30
0.0
 10
569.6733052777491
 20
115.8364940386073
 30
0.0
 10
571.0186819057511
 20
114.0921945768507
 30
0.0
 10
572.4782952851131
 20
112.5026645616083
 30
0.0
 10
574.0448274452058
 20
111.0717239215246
 30
0.0
 10
575.711599837653
 20
109.8030071143114
 30
0.0
 10
577.4709373268447
 20
108.6954393731672
 30
0.0
 10
579.3209981514372
 20
107.7618159773561
 30
0.0
 10
580.9240886154549
 20
107.0934187093132
 30
0.0
 10
581.9332016073863
 20
106.8019983002356
 30
0.0
 10
582.2733173778884
 20
106.7037767157688
 30
0.0
  0
SPLINE
  5
1C7
330
1F
100
AcDbEntity
  8
0
  6
Continuous
 62
     7
370
    15
100
AcDbSpline
210
0.0
220
0.0
230
1.0
 70
     8
 71
     3
 72
    25
 73
    21
 74
     0
 42
0.000000001
 43
0.00000001
 40
0.0
 40
0.0
 40
0.0
 40
0.0
 40
0.0467750836149047
 40
0.1041761789786668
 40
0.1612832697946323
 40
0.2182558036194598
 40
0.2752216053101984
 40
0.3323321117875139
 40
0.3897390394032322
 40
0.4475666259919472
 40
0.5059018960786508
 40
0.5647887340822549
 40
0.6242270182450629
 40
0.684177380591094
 40
0.7445708644327327
 40
0.8053213821729276
 40
0.866338187989206
 40
0.927535961514937
 40
0.9857854090072592
 40
1.0
 40
1.0
 40
1.0
 40
1.0
 10
641.3388051217148
 20
208.9833790028344
 30
0.0
 10
640.9188386404161
 20
209.3701158210067
 30
0.0
 10
639.9835008507284
 20
210.2314454194581
 30
0.0
 10
638.4015500141386
 20
211.3855591897114
 30
0.0
 10
636.6312776283695
 20
212.471119385056
 30
0.0
 10
634.7712147357803
 20
213.3870463976984
 30
0.0
 10
632.8314821816166
 20
214.1373977219936
 30
0.0
 10
630.8162986974376
 20
214.7195023078395
 30
0.0
 10
628.730550407976
 20
215.1325456925552
 30
0.0
 10
626.5785315548164
 20
215.3749783823335
 30
0.0
 10
624.3650045351753
 20
215.4451888547037
 30
0.0
 10
622.0954122245671
 20
215.3415873917716
 30
0.0
 10
619.7761400470173
 20
215.0629952321868
 30
0.0
 10
617.4145583372901
 20
214.6089689742437
 30
0.0
 10
615.0188859723631
 20
213.9801209347904
 30
0.0
 10
612.597935561079
 20
213.1780898441099
 30
0.0
 10
610.16070757213
 20
212.2061560764345
 30
0.0
 10
607.7570639241028
 20
211.0857348161463
 30
0.0
 10
605.9806415808515
 20
210.1459139765926
 30
0.0
 10
605.020763015827
 20
209.5964347441347
 30
0.0
 10
604.8324726377335
 20
209.4886485551272
 30
0.0
  0
SPLINE
  5
1C8
330
1F
100
AcDbEntity
  8
0
  6
Continuous
 62
     7
370
    15
100
AcDbSpline
210
0.0
220
0.0
230
1.0
 70
     8
 71
     3
 72
    21
 73
    17
 74
     0
 42
0.000000001
 43
0.00000001
 40
0.0
 40
0.0
 40
0.0
 40
0.0
 40
0.035506129759688
 40
0.1152813320926951
 40
0.1952896951661736
 40
0.2754933062475869
 40
0.3558498776427682
 40
0.4363148607589138
 40
0.5168426200937614
 40
0.5973870185071668
 40
0.6778906383176923
 40
0.7583025801928529
 40
0.8385764577235757
 40
0.9186664602431254
 40
0.9985283301154381
 40
0.9999999999999999
 40
0.9999999999999999
 40
0.9999999999999999
 40
0.9999999999999999
 10
656.3371488180068
 20
147.5424811569821
 30
0.0
 10
656.2719044179383
 20
147.2508030236981
 30
0.0
 10
656.0600688446901
 20
146.3037822141964
 30
0.0
 10
655.5770212471568
 20
144.6626794783207
 30
0.0
 10
654.8949889157416
 20
142.6374150482067
 30
0.0
 10
654.0944547758394
 20
140.602648962585
 30
0.0
 10
653.188876675274
 20
138.5765993984785
 30
0.0
 10
652.1818846230764
 20
136.5737560730544
 30
0.0
 10
651.0810899842224
 20
134.6092655167286
 30
0.0
 10
649.8943173636112
 20
132.6978309903893
 30
0.0
 10
648.6306330805853
 20
130.853268832677
 30
0.0
 10
647.2996096715144
 20
129.0904607447945
 30
0.0
 10
645.9127053094699
 20
127.4169734436587
 30
0.0
 10
644.4778595445183
 20
125.863530245012
 30
0.0
 10
643.4950110707333
 20
124.8572968150887
 30
0.0
 10
642.9890426932371
 20
124.4070870511684
 30
0.0
 10
642.979887571919
 20
124.398940840475
 30
0.0
  0
SPLINE
  5
1C9
330
1F
100
AcDbEntity
  8
0
  6
Continuous
 62
     7
370
    15
100
AcDbSpline
210
0.0
220
0.0
230
1.0
 70
     8
 71
     3
 72
    52
 73
    48
 74
     0
 42
0.000000001
 43
0.00000001
 40
0.0
 40
0.0
 40
0.0
 40
0.0
 40
0.0122481793243542
 40
0.0352872657440408
 40
0.0583099858065626
 40
0.0813154779978686
 40
0.1042997034273592
 40
0.1272609870308542
 40
0.1501993588214098
 40
0.1731160454172272
 40
0.1960130920131817
 40
0.2188930903617944
 40
0.241758988654778
 40
0.2646139624526072
 40
0.2874613297865995
 40
0.3103044972199424
 40
0.333146926602213
 40
0.3559916375616975
 40
0.3788414581721374
 40
0.4016999154583246
 40
0.4245705271938667
 40
0.4474567716812202
 40
0.4703620385581593
 40
0.4932895503343001
 40
0.5162422415298055
 40
0.5392225783986067
 40
0.5622322976796216
 40
0.5852720383757376
 40
0.6083408379638311
 40
0.6314354672132528
 40
0.6545495921893743
 40
0.6776713209820497
 40
0.7007801331182126
 40
0.7238523859339918
 40
0.746858130121059
 40
0.769762142123094
 40
0.7925265396554944
 40
0.8151150686866879
 40
0.8374985478099004
 40
0.8596603302500718
 40
0.8816003913804518
 40
0.9033369988213875
 40
0.9249056927401103
 40
0.9463560402794033
 40
0.9677469826830423
 40
0.9891293047225787
 40
1.0
 40
1.0
 40
1.0
 40
1.0
 10
595.5927516202208
 20
214.8226259616358
 30
0.0
 10
595.1610953296007
 20
214.5688380785714
 30
0.0
 10
593.9174843541382
 20
213.8376697771322
 30
0.0
 10
591.8742880873859
 20
212.5123094208767
 30
0.0
 10
589.4760466630718
 20
210.8040412676396
 30
0.0
 10
587.1085680091077
 20
208.9544218953643
 30
0.0
 10
584.7782362666845
 20
206.9725404609232
 30
0.0
 10
582.4916631861115
 20
204.8644422911046
 30
0.0
 10
580.2552147899996
 20
202.6372950923142
 30
0.0
 10
578.0751143564024
 20
200.2982317548866
 30
0.0
 10
575.9574335300193
 20
197.8546608497389
 30
0.0
 10
573.9081000565152
 20
195.3141818199369
 30
0.0
 10
571.9328912261075
 20
192.6846014830964
 30
0.0
 10
570.0374244129807
 20
189.9739183179061
 30
0.0
 10
568.2271442541589
 20
187.1903103351534
 30
0.0
 10
566.5073086529517
 20
184.3421174274094
 30
0.0
 10
564.882985923308
 20
181.4378415147001
 30
0.0
 10
563.3590423138177
 20
178.4861349794848
 30
0.0
 10
561.9401095353073
 20
175.4957475529062
 30
0.0
 10
560.6305660335407
 20
172.4754777594215
 30
0.0
 10
559.4345303905754
 20
169.4341359514034
 30
0.0
 10
558.3558723755657
 20
166.3805494843972
 30
0.0
 10
557.3982117057684
 20
163.3235401615067
 30
0.0
 10
556.5649198453526
 20
160.271905030258
 30
0.0
 10
555.8591245533187
 20
157.2344023062843
 30
0.0
 10
555.2837163962838
 20
154.2197445695669
 30
0.0
 10
554.841355689486
 20
151.2366017654025
 30
0.0
 10
554.5344772060585
 20
148.293616795943
 30
0.0
 10
554.3652884102783
 20
145.3994363603234
 30
0.0
 10
554.3357549122771
 20
142.5627587614077
 30
0.0
 10
554.4475621460583
 20
139.7924565712959
 30
0.0
 10
554.7020180082477
 20
137.0977785101442
 30
0.0
 10
555.0999019619044
 20
134.48827784999
 30
0.0
 10
555.6412971787778
 20
131.973780815598
 30
0.0
 10
556.3254296888135
 20
129.5642266405897
 30
0.0
 10
557.1504502063187
 20
127.269630422998
 30
0.0
 10
558.1132716018901
 20
125.0998073903289
 30
0.0
 10
559.209510280304
 20
123.0639975960009
 30
0.0
 10
560.4335842602366
 20
121.1704714451158
 30
0.0
 10
561.7789608882385
 20
119.4261719833592
 30
0.0
 10
563.2385742676006
 20
117.8366419681168
 30
0.0
 10
564.8051064276933
 20
116.4057013280331
 30
0.0
 10
566.4718788201405
 20
115.13698452082
 30
0.0
 10
568.2312163093321
 20
114.0294167796758
 30
0.0
 10
570.0812771339247
 20
113.0957933838647
 30
0.0
 10
571.6843675979422
 20
112.4273961158218
 30
0.0
 10
572.6934805898736
 20
112.1359757067442
 30
0.0
 10
573.0335963603757
 20
112.0377541222775
 30
0.0
  0
SPLINE
  5
1CA
330
1F
100
AcDbEntity
  8
0
  6
Continuous
 62
     7
370
    15
100
AcDbSpline
210
0.0
220
0.0
230
1.0
 70
     8
 71
     3
 72
    25
 73
    21
 74
     0
 42
0.000000001
 43
0.00000001
 40
0.0
 40
0.0
 40
0.0
 40
0.0
 40
0.0467750836149156
 40
0.1041761789786755
 40
0.1612832697946389
 40
0.2182558036194665
 40
0.2752216053102031
 40
0.3323321117875196
 40
0.3897390394032377
 40
0.4475666259919566
 40
0.505901896078661
 40
0.564788734082261
 40
0.6242270182450671
 40
0.6841773805911029
 40
0.7445708644327396
 40
0.8053213821729344
 40
0.8663381879892156
 40
0.9275359615149454
 40
0.9857854090072637
 40
1.0
 40
1.0
 40
1.0
 40
1.0
 10
632.0990841042021
 20
214.3173564093429
 30
0.0
 10
631.6791176229032
 20
214.7040932275153
 30
0.0
 10
630.7437798332155
 20
215.5654228259668
 30
0.0
 10
629.1618289966257
 20
216.7195365962201
 30
0.0
 10
627.3915566108566
 20
217.8050967915647
 30
0.0
 10
625.5314937182674
 20
218.7210238042071
 30
0.0
 10
623.5917611641037
 20
219.4713751285022
 30
0.0
 10
621.5765776799246
 20
220.0534797143482
 30
0.0
 10
619.4908293904631
 20
220.4665230990638
 30
0.0
 10
617.3388105373034
 20
220.7089557888421
 30
0.0
 10
615.1252835176623
 20
220.7791662612123
 30
0.0
 10
612.8556912070541
 20
220.6755647982802
 30
0.0
 10
610.5364190295043
 20
220.3969726386954
 30
0.0
 10
608.1748373197772
 20
219.9429463807522
 30
0.0
 10
605.7791649548501
 20
219.3140983412989
 30
0.0
 10
603.358214543566
 20
218.5120672506184
 30
0.0
 10
600.920986554617
 20
217.5401334829429
 30
0.0
 10
598.5173429065898
 20
216.4197122226548
 30
0.0
 10
596.7409205633387
 20
215.4798913831011
 30
0.0
 10
595.7810419983142
 20
214.9304121506432
 30
0.0
 10
595.5927516202208
 20
214.8226259616358
 30
0.0
  0
SPLINE
  5
1CB
330
1F
100
AcDbEntity
  8
0
  6
Continuous
 62
     7
370
    15
100
AcDbSpline
210
0.0
220
0.0
230
1.0
 70
     8
 71
     3
 72
    52
 73
    48
 74
     0
 42
0.000000001
 43
0.00000001
 40
0.0
 40
0.0
 40
0.0
 40
0.0
 40
0.0122481793243542
 40
0.0352872657440404
 40
0.058309985806562
 40
0.0813154779978667
 40
0.1042997034273571
 40
0.127260987030851
 40
0.1501993588214072
 40
0.1731160454172254
 40
0.196013092013179
 40
0.2188930903617937
 40
0.2417589886547746
 40
0.2646139624526049
 40
0.2874613297865959
 40
0.3103044972199394
 40
0.333146926602211
 40
0.3559916375616973
 40
0.3788414581721359
 40
0.401699915458325
 40
0.4245705271938677
 40
0.4474567716812196
 40
0.4703620385581591
 40
0.4932895503342994
 40
0.5162422415298049
 40
0.5392225783986064
 40
0.5622322976796199
 40
0.5852720383757363
 40
0.6083408379638292
 40
0.6314354672132503
 40
0.6545495921893713
 40
0.6776713209820462
 40
0.7007801331182093
 40
0.7238523859339877
 40
0.7468581301210561
 40
0.7697621421230897
 40
0.7925265396554901
 40
0.8151150686866839
 40
0.8374985478098964
 40
0.8596603302500678
 40
0.8816003913804468
 40
0.9033369988213836
 40
0.9249056927401063
 40
0.9463560402793979
 40
0.9677469826830366
 40
0.989129304722573
 40
1.0
 40
1.0
 40
1.0
 40
1.0
 10
586.3530306027081
 20
220.1566033681445
 30
0.0
 10
585.921374312088
 20
219.9028154850801
 30
0.0
 10
584.6777633366255
 20
219.171647183641
 30
0.0
 10
582.6345670698732
 20
217.8462868273855
 30
0.0
 10
580.2363256455591
 20
216.1380186741484
 30
0.0
 10
577.8688469915951
 20
214.2883993018732
 30
0.0
 10
575.538515249172
 20
212.3065178674321
 30
0.0
 10
573.2519421685989
 20
210.1984196976136
 30
0.0
 10
571.0154937724872
 20
207.9712724988231
 30
0.0
 10
568.8353933388898
 20
205.6322091613955
 30
0.0
 10
566.7177125125066
 20
203.1886382562477
 30
0.0
 10
564.6683790390025
 20
200.6481592264458
 30
0.0
 10
562.6931702085949
 20
198.0185788896052
 30
0.0
 10
560.7977033954681
 20
195.3078957244151
 30
0.0
 10
558.9874232366462
 20
192.5242877416623
 30
0.0
 10
557.267587635439
 20
189.6760948339182
 30
0.0
 10
555.6432649057953
 20
186.7718189212088
 30
0.0
 10
554.119321296305
 20
183.8201123859934
 30
0.0
 10
552.7003885177945
 20
180.8297249594146
 30
0.0
 10
551.3908450160279
 20
177.8094551659299
 30
0.0
 10
550.1948093730626
 20
174.7681133579118
 30
0.0
 10
549.1161513580529
 20
171.7145268909057
 30
0.0
 10
548.1584906882556
 20
168.6575175680152
 30
0.0
 10
547.3251988278398
 20
165.6058824367665
 30
0.0
 10
546.6194035358058
 20
162.5683797127927
 30
0.0
 10
546.043995378771
 20
159.5537219760754
 30
0.0
 10
545.6016346719732
 20
156.5705791719109
 30
0.0
 10
545.2947561885456
 20
153.6275942024515
 30
0.0
 10
545.1255673927654
 20
150.7334137668319
 30
0.0
 10
545.0960338947643
 20
147.8967361679163
 30
0.0
 10
545.2078411285455
 20
145.1264339778046
 30
0.0
 10
545.4622969907348
 20
142.4317559166529
 30
0.0
 10
545.8601809443916
 20
139.8222552564987
 30
0.0
 10
546.401576161265
 20
137.3077582221066
 30
0.0
 10
547.0857086713006
 20
134.8982040470983
 30
0.0
 10
547.9107291888059
 20
132.6036078295066
 30
0.0
 10
548.8735505843773
 20
130.4337847968376
 30
0.0
 10
549.9697892627912
 20
128.3979750025096
 30
0.0
 10
551.1938632427238
 20
126.5044488516244
 30
0.0
 10
552.5392398707256
 20
124.7601493898678
 30
0.0
 10
553.9988532500878
 20
123.1706193746254
 30
0.0
 10
555.5653854101805
 20
121.7396787345418
 30
0.0
 10
557.2321578026276
 20
120.4709619273286
 30
0.0
 10
558.9914952918192
 20
119.3633941861844
 30
0.0
 10
560.8415561164118
 20
118.4297707903733
 30
0.0
 10
562.4446465804295
 20
117.7613735223304
 30
0.0
 10
563.453759572361
 20
117.4699531132527
 30
0.0
 10
563.7938753428633
 20
117.371731528786
 30
0.0
  0
SPLINE
  5
1CC
330
1F
100
AcDbEntity
  8
0
  6
Continuous
 62
     7
370
    15
100
AcDbSpline
210
0.0
220
0.0
230
1.0
 70
     8
 71
     3
 72
    25
 73
    21
 74
     0
 42
0.000000001
 43
0.00000001
 40
0.0
 40
0.0
 40
0.0
 40
0.0
 40
0.0467750836149179
 40
0.1041761789786773
 40
0.1612832697946421
 40
0.218255803619471
 40
0.2752216053102089
 40
0.332332111787524
 40
0.3897390394032416
 40
0.4475666259919561
 40
0.5059018960786618
 40
0.5647887340822604
 40
0.6242270182450677
 40
0.6841773805911001
 40
0.744570864432739
 40
0.8053213821729296
 40
0.8663381879892084
 40
0.9275359615149368
 40
0.9857854090072574
 40
1.0
 40
1.0
 40
1.0
 40
1.0
 10
622.8593630866897
 20
219.6513338158514
 30
0.0
 10
622.4393966053908
 20
220.0380706340239
 30
0.0
 10
621.504058815703
 20
220.8994002324753
 30
0.0
 10
619.9221079791131
 20
222.0535140027287
 30
0.0
 10
618.151835593344
 20
223.1390741980734
 30
0.0
 10
616.2917727007548
 20
224.0550012107158
 30
0.0
 10
614.3520401465911
 20
224.8053525350109
 30
0.0
 10
612.3368566624121
 20
225.3874571208569
 30
0.0
 10
610.2511083729505
 20
225.8005005055725
 30
0.0
 10
608.0990895197908
 20
226.0429331953508
 30
0.0
 10
605.8855625001498
 20
226.1131436677211
 30
0.0
 10
603.6159701895416
 20
226.0095422047889
 30
0.0
 10
601.2966980119918
 20
225.7309500452042
 30
0.0
 10
598.9351163022646
 20
225.276923787261
 30
0.0
 10
596.5394439373375
 20
224.6480757478077
 30
0.0
 10
594.1184935260535
 20
223.8460446571272
 30
0.0
 10
591.6812655371047
 20
222.8741108894518
 30
0.0
 10
589.2776218890774
 20
221.7536896291637
 30
0.0
 10
587.5011995458261
 20
220.81386878961
 30
0.0
 10
586.5413209808015
 20
220.2643895571519
 30
0.0
 10
586.3530306027081
 20
220.1566033681445
 30
0.0
  0
LWPOLYLINE
  5
1CD
330
1F
100
AcDbEntity
  8
0
  6
Continuous
 62
     7
370
    15
100
AcDbPolyline
 90
      134
 70
   128
 43
0.0
 10
672.0529341652
 20
198.5913542618
 10
668.964108432
 20
196.7239446113
 10
665.8821750768
 20
194.6921648619
 10
662.814011098
 20
192.5005487088
 10
659.7664627692
 20
190.1539865045
 10
656.7463303624
 20
187.657714347
 10
653.7603529739
 20
185.0173023955
 10
650.8151934869
 20
182.2386424414
 10
647.9174237038
 20
179.3279347618
 10
645.073509682
 20
176.2916742836
 10
642.2897973058
 20
173.1366360911
 10
639.572498126
 20
169.8698603082
 10
636.9276754997
 20
166.4986363892
 10
634.3612310601
 20
163.0304868528
 10
631.8788915486
 20
159.4731504967
 10
629.486196035
 20
155.8345651293
 10
627.1884835589
 20
152.1228498575
 10
624.990881215
 20
148.3462869692
 10
622.8982927136
 20
144.5133034531
 10
620.9153874379
 20
140.6324521941
 10
619.0465900248
 20
136.7123928889
 10
617.2960704923
 20
132.7618727227
 10
615.6677349337
 20
128.7897068507
 10
614.1652168026
 20
124.8047587281
 10
612.7918688043
 20
120.8159203324
 10
611.5507554153
 20
116.8320923218
 10
610.4446460448
 20
112.8621641744
 10
609.4760088553
 20
108.9149943522
 10
608.6470052552
 20
104.9993905345
 10
607.9594850757
 20
101.1240899645
 10
607.4149824431
 20
97.2977399532
 10
607.0147123557
 20
93.5288785835
 10
606.7595679725
 20
89.8259156589
 10
606.6501186206
 20
86.1971139376
 10
606.6866085241
 20
82.6505706952
 10
606.8689562599
 20
79.1941996566
 10
607.1967549388
 20
75.8357133368
 10
607.6692731138
 20
72.5826058323
 10
608.2854564121
 20
69.4421360979
 10
609.0439298877
 20
66.4213117495
 10
609.9430010899
 20
63.5268734276
 10
610.9806638392
 20
60.7652797557
 10
612.1546027043
 20
58.1426929292
 10
613.4621981684
 20
55.6649649648
 10
614.9005324749
 20
53.3376246424
 10
616.4663961374
 20
51.1658651684
 10
618.1562951019
 20
49.1545325873
 10
619.9664585429
 20
47.3081149687
 10
621.892847278
 20
45.6307323921
 10
623.9311627808
 20
44.1261277541
 10
626.0768567722
 20
42.7976584158
 10
628.32514137
 20
41.648288712
 10
630.670999772
 20
40.6805833357
 10
633.109197451
 20
39.8967016161
 10
635.6342938345
 20
39.2983926999
 10
638.240654445
 20
38.8869916481
 10
640.922463473
 20
38.6634164574
 10
643.6737367539
 20
38.6281660115
 10
646.488335121
 20
38.7813189678
 10
649.359978105
 20
39.1225335823
 10
652.2822579475
 20
39.6510484717
 10
655.2486538993
 20
40.3656843127
 10
658.2525467713
 20
41.2648464732
 10
661.2872337038
 20
42.3465285709
 10
664.3459431237
 20
43.60831695
 10
667.4218498542
 20
45.0473960673
 10
670.5080903447
 20
46.6605547746
 10
673.5977779858
 20
48.444193484
 10
676.6840184762
 20
50.3943322001
 10
679.7599252067
 20
52.5066194009
 10
682.8186346266
 20
54.7763417476
 10
685.8533215591
 20
57.1984346023
 10
688.8572144311
 20
59.7674933286
 10
691.823610383
 20
62.477785352
 10
694.7458902254
 20
65.3232629512
 10
697.6175332094
 20
68.297576753
 10
700.4321315765
 20
71.3940899003
 10
703.1834048574
 20
74.6058928615
 10
705.8652138854
 20
77.9258188482
 10
708.4715744959
 20
81.3464598075
 10
710.9966708794
 20
84.8601829518
 10
713.4348685584
 20
88.4591477907
 10
715.7807269604
 20
92.1353236266
 10
718.0290115582
 20
95.8805074736
 10
720.1747055496
 20
99.6863423621
 10
722.2130210524
 20
103.5443359863
 10
724.1394097875
 20
107.4458796539
 10
725.9495732286
 20
111.3822674953
 10
727.639472193
 20
115.3447158901
 10
729.2053358556
 20
119.3243830665
 10
730.643670162
 20
123.3123888308
 10
731.9512656262
 20
127.2998343828
 10
733.1252044912
 20
131.2778221724
 10
734.1628672405
 20
135.2374757532
 10
735.0619384427
 20
139.1699595898
 10
735.8204119183
 20
143.0664987731
 10
736.4365952166
 20
146.9183986005
 10
736.9091133916
 20
150.7170639773
 10
737.2369120705
 20
154.4540185957
 10
737.4192598063
 20
158.1209238488
 10
737.4557497098
 20
161.709597437
 10
737.3463003579
 20
165.2120316263
 10
737.0911559747
 20
168.6204111165
 10
736.6908858873
 20
171.9271304803
 10
736.1463832547
 20
175.1248111337
 10
735.4588630752
 20
178.2063178008
 10
734.6298594751
 20
181.1647744353
 10
733.6612222856
 20
183.9935795636
 10
732.5551129151
 20
186.6864210153
 10
731.3139995261
 20
189.2372900083
 10
729.9406515278
 20
191.6404945563
 10
728.4381333967
 20
193.8906721703
 10
726.8097978381
 20
195.9828018242
 10
725.0592783056
 20
197.9122151586
 10
723.1904808925
 20
199.6746068979
 10
721.2075756168
 20
201.266044457
 10
719.1149871154
 20
202.6829767166
 10
716.9173847716
 20
203.9222419465
 10
714.6196722954
 20
204.9810748615
 10
712.2269767818
 20
205.8571127914
 10
709.7446372703
 20
206.548400953
 10
707.1781928307
 20
207.0533968121
 10
704.5333702044
 20
207.3709735254
 10
701.8160710246
 20
207.5004224552
 10
699.0323586484
 20
207.4414547502
 10
696.1884446267
 20
207.1942019904
 10
693.2906748435
 20
206.7592158935
 10
690.3455153565
 20
206.1374670836
 10
687.359537968
 20
205.3303429252
 10
684.3394055612
 20
204.3396444281
 10
681.2918572324
 20
203.167582228
 10
678.2236932536
 20
201.8167716539
 10
675.1417598984
 20
200.2902268924
 10
672.0529341652
 20
198.5913542618
  0
LWPOLYLINE
  5
1CE
330
1F
100
AcDbEntity
  8
0
  6
Continuous
 62
     7
370
    15
100
AcDbPolyline
 90
       16
 70
   128
 43
0.0
 10
672.0529341652
 20
183.8936196479
 10
674.8331106999
 20
185.4138061466
 10
677.605538384
 20
186.7602051087
 10
680.3624899643
 20
187.9290638787
 10
683.0962813221
 20
188.9171246376
 10
685.7992928907
 20
189.7216334828
 10
688.4639908921
 20
190.3403481038
 10
691.0829483349
 20
190.7715440321
 10
693.6488657151
 20
191.0140194473
 10
696.1545913606
 20
191.0670985268
 10
698.5931413648
 20
190.9306333299
 10
700.9577190513
 20
190.6050042093
 10
703.241733918
 20
190.091118752
 10
705.4388200059
 20
189.3904092489
 10
707.542853642
 20
188.504828703
 10
709.2999069559
 20
187.5819694097
  0
LWPOLYLINE
  5
1CF
330
1F
100
AcDbEntity
  8
0
  6
Continuous
 62
     7
370
    15
100
AcDbPolyline
 90
       46
 70
   128
 43
0.0
 10
634.8059613745
 20
58.540688915
 10
633.5941908245
 20
59.2872950713
 10
631.7478373419
 20
60.6231446638
 10
630.0138213931
 20
62.1330206752
 10
628.3969759917
 20
63.8127148103
 10
626.9018075757
 20
65.6575454603
 10
625.5324834477
 20
67.6623707512
 10
624.2928201596
 20
69.8216028753
 10
623.1862728753
 20
72.1292236656
 10
622.2159257406
 20
74.5788013689
 10
621.384483287
 20
77.1635085728
 10
620.6942628938
 20
79.8761412348
 10
620.1471883289
 20
82.7091387611
 10
619.7447843873
 20
85.6546050795
 10
619.4881726409
 20
88.7043306471
 10
619.3780683128
 20
91.8498153317
 10
619.4147782835
 20
95.0822921034
 10
619.5982002356
 20
98.3927514696
 10
619.9278229392
 20
101.7719665862
 10
620.4027276769
 20
105.2105189748
 10
621.0215908038
 20
108.6988247731
 10
621.7826874376
 20
112.2271614471
 10
622.6838962653
 20
115.7856948897
 10
623.7227054563
 20
119.3645068299
 10
624.896219663
 20
122.953622477
 10
626.201168091
 20
126.543038322
 10
627.6339136148
 20
130.1227500191
 10
629.1904629158
 20
133.6827802698
 10
630.8664776118
 20
137.2132066312
 10
632.6572863494
 20
140.7041891718
 10
634.5578978232
 20
144.1459978972
 10
636.5630146884
 20
147.5290398692
 10
638.6670483245
 20
150.843885943
 10
640.8641344124
 20
154.081297048
 10
643.1481492791
 20
157.2322499389
 10
645.5127269657
 20
160.2879623449
 10
647.9512769698
 20
163.2399174472
 10
650.4570026153
 20
166.0798876177
 10
653.0229199955
 20
168.7999573502
 10
655.6418774383
 20
171.3925453223
 10
658.3065754397
 20
173.8504255264
 10
661.0095870083
 20
176.1667474096
 10
663.7433783661
 20
178.3350549673
 10
666.5003299464
 20
180.3493047375
 10
669.2727576305
 20
182.2038826448
 10
672.0529341652
 20
183.8936196479
  0
LWPOLYLINE
  5
1D0
330
1F
100
AcDbEntity
  8
0
  6
Continuous
 62
     7
370
    15
100
AcDbPolyline
 90
       36
 70
   128
 43
0.0
 10
672.0529341652
 20
195.7334614202
 10
671.2322520228
 20
195.1743977498
 10
670.4379472797
 20
194.4627149378
 10
669.6955495439
 20
193.6212870552
 10
669.0289200895
 20
192.6771582866
 10
668.4594849357
 20
191.6606737073
 10
668.0055461968
 20
190.6045039682
 10
667.6816938374
 20
189.5425952337
 10
667.4983367389
 20
188.5090781243
 10
667.4613681491
 20
187.5371707301
 10
667.571976269
 20
186.6581109546
 10
667.8266060627
 20
185.9001525023
 10
668.217073519
 20
185.2876567814
 10
668.7308286927
 20
184.8403099084
 10
669.3513590697
 20
184.5724899798
 10
670.0587202931
 20
184.4928049486
 10
670.8301771912
 20
184.6038159571
 10
671.6409345045
 20
184.9019550203
 10
672.4649338259
 20
185.3776397033
 10
673.2756911393
 20
186.0155811091
 10
674.0471480374
 20
186.7952752759
 10
674.7545092608
 20
187.6916621917
 10
675.3750396377
 20
188.6759312434
 10
675.8887948114
 20
189.716447214
 10
676.2792622677
 20
190.7797670639
 10
676.5338920614
 20
191.8317148183
 10
676.6445001813
 20
192.8384800108
 10
676.6075315916
 20
193.7677043797
 10
676.424174493
 20
194.5895218893
 10
676.1003221336
 20
195.2775186486
 10
675.6463833947
 20
195.8095818757
 10
675.0769482409
 20
196.1686106207
 10
674.4103187865
 20
196.3430654042
 10
673.6679210507
 20
196.3273391061
 10
672.8736163076
 20
196.1219371825
 10
672.0529341652
 20
195.7334614202
  0
LWPOLYLINE
  5
1D1
330
1F
100
AcDbEntity
  8
0
  6
Continuous
 62
     7
370
    15
100
AcDbPolyline
 90
       36
 70
   128
 43
0.0
 10
613.7166247173
 20
94.6920098269
 10
612.8959425749
 20
94.1329461566
 10
612.1016378318
 20
93.4212633445
 10
611.359240096
 20
92.5798354619
 10
610.6926106417
 20
91.6357066933
 10
610.1231754878
 20
90.6192221141
 10
609.6692367489
 20
89.563052375
 10
609.3453843895
 20
88.5011436405
 10
609.162027291
 20
87.467626531
 10
609.1250587012
 20
86.4957191368
 10
609.2356668211
 20
85.6166593614
 10
609.4902966148
 20
84.858700909
 10
609.8807640711
 20
84.2462051881
 10
610.3945192448
 20
83.7988583151
 10
611.0150496218
 20
83.5310383865
 10
611.7224108452
 20
83.4513533553
 10
612.4938677433
 20
83.5623643638
 10
613.3046250566
 20
83.860503427
 10
614.128624378
 20
84.3361881101
 10
614.9393816914
 20
84.9741295158
 10
615.7108385895
 20
85.7538236826
 10
616.4181998129
 20
86.6502105984
 10
617.0387301898
 20
87.6344796502
 10
617.5524853635
 20
88.6749956207
 10
617.9429528198
 20
89.7383154706
 10
618.1975826135
 20
90.790263225
 10
618.3081907334
 20
91.7970284175
 10
618.2712221437
 20
92.7262527864
 10
618.0878650451
 20
93.548070296
 10
617.7640126857
 20
94.2360670554
 10
617.3100739468
 20
94.7681302824
 10
616.740638793
 20
95.1271590274
 10
616.0740093386
 20
95.301613811
 10
615.3316116028
 20
95.2858875129
 10
614.5373068597
 20
95.0804855892
 10
613.7166247173
 20
94.6920098269
  0
ARC
  5
1D2
330
1F
100
AcDbEntity
  8
0
  6
Continuous
 62
     7
370
    15
100
AcDbCircle
 10
735.7057380506
 20
153.7116069809
 30
0.0
 40
9.88543728902722
100
AcDbArc
 50
122.5347310713
 51
157.76488084
  0
LWPOLYLINE
  5
1D3
330
1F
100
AcDbEntity
  8
0
  6
Continuous
 62
     7
370
    15
100
AcDbPolyline
 90
       25
 70
   128
 43
0.0
 10
726.7468712474
 20
151.3983952543
 10
727.0671381406
 20
151.1525275405
 10
727.6876685175
 20
150.8847076119
 10
728.3950297409
 20
150.8050225807
 10
729.166486639
 20
150.9160335892
 10
729.9772439524
 20
151.2141726524
 10
730.8012432738
 20
151.6898573354
 10
731.6120005871
 20
152.3277987412
 10
732.3834574852
 20
153.107492908
 10
733.0908187086
 20
154.0038798238
 10
733.7113490856
 20
154.9881488756
 10
734.2251042593
 20
156.0286648461
 10
734.6155717156
 20
157.091984696
 10
734.8702015093
 20
158.1439324504
 10
734.9808096292
 20
159.1506976429
 10
734.9438410394
 20
160.0799220118
 10
734.7604839409
 20
160.9017395214
 10
734.4366315815
 20
161.5897362807
 10
733.9826928426
 20
162.1217995078
 10
733.4132576888
 20
162.4808282528
 10
732.7466282344
 20
162.6552830364
 10
732.0042304986
 20
162.6395567383
 10
731.2099257555
 20
162.4341548146
 10
730.3892436131
 20
162.0456790523
 10
730.3892436131
 20
162.0456790523
  0
LWPOLYLINE
  5
1D4
330
1F
100
AcDbEntity
  8
0
  6
Continuous
 62
     7
370
    15
100
AcDbPolyline
 90
       30
 70
   128
 43
0.0
 10
669.5183384662
 20
58.6610739654
 10
669.0289200895
 20
57.9479243254
 10
668.4594849357
 20
56.9314397462
 10
668.0055461968
 20
55.8752700071
 10
667.6816938374
 20
54.8133612726
 10
667.4983367389
 20
53.7798441631
 10
667.4613681491
 20
52.807936769
 10
667.571976269
 20
51.9288769935
 10
667.8266060627
 20
51.1709185411
 10
668.217073519
 20
50.5584228202
 10
668.7308286927
 20
50.1110759472
 10
669.3513590697
 20
49.8432560186
 10
670.0587202931
 20
49.7635709874
 10
670.8301771912
 20
49.874581996
 10
671.6409345045
 20
50.1727210591
 10
672.4649338259
 20
50.6484057422
 10
673.2756911393
 20
51.2863471479
 10
674.0471480374
 20
52.0660413147
 10
674.7545092608
 20
52.9624282305
 10
675.3750396377
 20
53.9466972823
 10
675.8887948114
 20
54.9872132528
 10
676.2792622677
 20
56.0505331028
 10
676.5338920614
 20
57.1024808571
 10
676.6445001813
 20
58.1092460496
 10
676.6075315916
 20
59.0384704186
 10
676.424174493
 20
59.8602879282
 10
676.1003221336
 20
60.5482846875
 10
675.6463833947
 20
61.0803479146
 10
675.0769482409
 20
61.4393766595
 10
674.8557562871
 20
61.5211905518
  0
LWPOLYLINE
  5
1D5
330
1F
100
AcDbEntity
  8
0
  6
Continuous
 62
     7
370
    15
100
AcDbPolyline
 90
       51
 70
   128
 43
0.0
 10
659.3250121038
 20
205.9390272682
 10
656.2361863706
 20
204.0716176177
 10
653.1542530154
 20
202.0398378683
 10
650.0860890366
 20
199.8482217152
 10
647.0385407079
 20
197.5016595109
 10
644.0184083011
 20
195.0053873534
 10
641.0324309126
 20
192.3649754019
 10
638.0872714255
 20
189.5863154478
 10
635.1895016424
 20
186.6756077682
 10
632.3455876206
 20
183.63934729
 10
629.5618752445
 20
180.4843090975
 10
626.8445760647
 20
177.2175333146
 10
624.1997534383
 20
173.8463093956
 10
621.6333089988
 20
170.3781598592
 10
619.1509694872
 20
166.8208235031
 10
616.7582739737
 20
163.1822381357
 10
614.4605614975
 20
159.4705228639
 10
612.2629591536
 20
155.6939599756
 10
610.1703706522
 20
151.8609764595
 10
608.1874653765
 20
147.9801252005
 10
606.3186679635
 20
144.0600658953
 10
604.5681484309
 20
140.1095457291
 10
602.9398128724
 20
136.1373798571
 10
601.4372947412
 20
132.1524317345
 10
600.063946743
 20
128.1635933388
 10
598.8228333539
 20
124.1797653283
 10
597.7167239834
 20
120.2098371809
 10
596.7480867939
 20
116.2626673586
 10
595.9190831938
 20
112.3470635409
 10
595.2315630143
 20
108.471762971
 10
594.6870603817
 20
104.6454129596
 10
594.2867902943
 20
100.8765515899
 10
594.0316459112
 20
97.1735886653
 10
593.9221965592
 20
93.544786944
 10
593.9586864628
 20
89.9982437016
 10
594.1410341985
 20
86.541872663
 10
594.4688328774
 20
83.1833863433
 10
594.9413510524
 20
79.9302788387
 10
595.5575343507
 20
76.7898091043
 10
596.3160078264
 20
73.768984756
 10
597.2150790286
 20
70.874546434
 10
598.2527417779
 20
68.1129527621
 10
599.4266806429
 20
65.4903659356
 10
600.734276107
 20
63.0126379712
 10
602.1726104135
 20
60.6852976488
 10
603.738474076
 20
58.5135381748
 10
605.4283730405
 20
56.5022055937
 10
607.2385364815
 20
54.6557879751
 10
609.1649252167
 20
52.9784053985
 10
611.2032407194
 20
51.4738007605
 10
613.0787707194
 20
50.2994823986
  0
LWPOLYLINE
  5
1D6
330
1F
100
AcDbEntity
  8
0
  6
Continuous
 62
     7
370
    15
100
AcDbPolyline
 90
       18
 70
   128
 43
0.0
 10
705.5712534883
 20
210.518521939
 10
704.1894627102
 20
211.2699149529
 10
701.891750234
 20
212.3287478679
 10
699.4990547205
 20
213.2047857978
 10
697.0167152089
 20
213.8960739594
 10
694.4502707694
 20
214.4010698185
 10
691.805448143
 20
214.7186465318
 10
689.0881489632
 20
214.8480954616
 10
686.3044365871
 20
214.7891277566
 10
683.4605225653
 20
214.5418749968
 10
680.5627527822
 20
214.1068888999
 10
677.6175932951
 20
213.48514009
 10
674.6316159066
 20
212.6780159316
 10
671.6114834998
 20
211.6873174345
 10
668.563935171
 20
210.5152552344
 10
665.4957711923
 20
209.1644446603
 10
662.4138378371
 20
207.6378998988
 10
659.3250121038
 20
205.9390272682
  0
LWPOLYLINE
  5
1D7
330
1F
100
AcDbEntity
  8
0
  6
Continuous
 62
     7
370
    15
100
AcDbPolyline
 90
      100
 70
   128
 43
0.0
 10
674.0732392543
 20
164.3851159581
 10
671.7395244842
 20
162.9523448117
 10
669.4152067598
 20
161.3542503571
 10
667.1096452882
 20
159.5972675564
 10
664.8321237518
 20
157.6884711594
 10
662.5918129259
 20
155.6355472153
 10
660.3977337515
 20
153.4467621245
 10
658.2587210111
 20
151.1309293518
 10
656.1833877541
 20
148.6973739386
 10
654.1800906149
 20
146.1558949535
 10
652.2568961641
 20
143.5167260355
 10
650.421548427
 20
140.7904941863
 10
648.6814377012
 20
137.9881769793
 10
647.0435707983
 20
135.1210583569
 10
645.5145428303
 20
132.2006831938
 10
644.1005106533
 20
129.2388108102
 10
642.8071680756
 20
126.2473676206
 10
641.6397229314
 20
123.2383991111
 10
640.6028761102
 20
120.2240213358
 10
639.7008026282
 20
117.21637213
 10
638.937134817
 20
114.2275622358
 10
638.3149476973
 20
111.2696265355
 10
637.8367465971
 20
108.3544755922
 10
637.5044570633
 20
105.49384769
 10
637.3194171087
 20
102.6992615678
 10
637.2823718238
 20
99.9819700375
 10
637.3934703769
 20
97.3529146731
 10
637.6522654135
 20
94.8226817526
 10
638.0577148571
 20
92.401459631
 10
638.608186106
 20
90.0989977151
 10
639.3014626068
 20
87.9245672066
 10
640.1347527797
 20
85.8869237695
 10
641.1047012592
 20
83.9942722749
 10
642.2074024052
 20
82.2542337623
 10
643.4384160293
 20
80.6738147527
 10
644.7927852742
 20
79.2593790355
 10
646.2650565729
 20
78.0166220444
 10
647.8493016086
 20
76.9505479229
 10
649.5391411855
 20
76.0654493754
 10
651.3277709163
 20
75.3648903812
 10
653.2079886201
 20
74.8516918443
 10
655.172223324
 20
74.527920234
 10
657.2125657481
 20
74.3948792642
 10
659.3208001535
 20
74.4531046441
 10
661.4884374244
 20
74.7023619206
 10
663.7067492505
 20
75.1416474225
 10
665.9668032731
 20
75.7691923022
 10
668.2594990522
 20
76.582469658
 10
670.5756047112
 20
77.5782047091
 10
672.9057941101
 20
78.7523879817
 10
675.2406843985
 20
80.1002914542
 10
677.5708737974
 20
81.6164875952
 10
679.8869794564
 20
83.2948712179
 10
682.1796752356
 20
85.1286840638
 10
684.4397292581
 20
87.1105420158
 10
686.6580410843
 20
89.2324648315
 10
688.8256783551
 20
91.4859082765
 10
690.9339127605
 20
93.8617985295
 10
692.9742551846
 20
96.3505687189
 10
694.9384898885
 20
98.9421974457
 10
696.8187075924
 20
101.6262491356
 10
698.6073373231
 20
104.3919160598
 10
700.2971769001
 20
107.2280618537
 10
701.8814219357
 20
110.1232663591
 10
703.3536932344
 20
113.0658716095
 10
704.7080624793
 20
116.0440287721
 10
705.9390761034
 20
119.0457458589
 10
707.0417772494
 20
122.0589360149
 10
708.0117257289
 20
125.0714661867
 10
708.8450159018
 20
128.0712059785
 10
709.5382924026
 20
131.046076497
 10
710.0887636515
 20
133.9840989886
 10
710.4942130951
 20
136.8734430736
 10
710.7530081317
 20
139.7024743832
 10
710.8641066848
 20
142.4598014067
 10
710.8270614
 20
145.1343213615
 10
710.6420214453
 20
147.7152648997
 10
710.3097319116
 20
150.1922394725
 10
709.8315308113
 20
152.5552711775
 10
709.2093436916
 20
154.7948449202
 10
708.4456758804
 20
156.9019427274
 10
707.5436023984
 20
158.86808006
 10
706.5067555772
 20
160.685339977
 10
705.339310433
 20
162.346405014
 10
704.0459678554
 20
163.8445866483
 10
702.6319356783
 20
165.1738522313
 10
701.1029077103
 20
166.3288492797
 10
699.4650408075
 20
167.304927028
 10
697.7249300816
 20
168.0981551556
 10
695.8895823445
 20
168.7053396127
 10
693.9663878937
 20
169.124035482
 10
691.9630907546
 20
169.3525568228
 10
689.8877574975
 20
169.3899834605
 10
687.7487447571
 20
169.2361646911
 10
685.5546655827
 20
168.8917198886
 10
683.3143547568
 20
168.3580360105
 10
681.0368332204
 20
167.6372620136
 10
678.7312717488
 20
166.7323002002
 10
676.4069540244
 20
165.6467945323
 10
674.0732392543
 20
164.3851159581
  0
LWPOLYLINE
  5
1D8
330
1F
100
AcDbEntity
  8
0
  6
Continuous
 62
     7
370
    15
100
AcDbPolyline
 90
      120
 70
   128
 43
0.0
 10
674.0732392543
 20
182.7273223452
 10
671.2930627196
 20
181.0375853422
 10
668.5206350355
 20
179.1830074349
 10
665.7636834552
 20
177.1687576647
 10
663.0298920974
 20
175.000450107
 10
660.3268805288
 20
172.6841282238
 10
657.6621825274
 20
170.2262480197
 10
655.0432250846
 20
167.6336600476
 10
652.4773077044
 20
164.9135903151
 10
649.9715820589
 20
162.0736201446
 10
647.5330320548
 20
159.1216650422
 10
645.1684543682
 20
156.0659526363
 10
642.8844395015
 20
152.9149997454
 10
640.6873534136
 20
149.6775886404
 10
638.5833197775
 20
146.3627425666
 10
636.5782029123
 20
142.9797005946
 10
634.6775914385
 20
139.5378918692
 10
632.8867827009
 20
136.0469093286
 10
631.2107680049
 20
132.5164829672
 10
629.6542187039
 20
128.9564527165
 10
628.2214731801
 20
125.3767410194
 10
626.9165247521
 20
121.7873251744
 10
625.7430105454
 20
118.1982095273
 10
624.7042013544
 20
114.6193975871
 10
623.8029925267
 20
111.0608641445
 10
623.0418958929
 20
107.5325274705
 10
622.423032766
 20
104.0442216722
 10
621.9481280283
 20
100.6056692836
 10
621.6185053247
 20
97.2264541669
 10
621.4350833726
 20
93.9159948008
 10
621.3983734019
 20
90.6835180291
 10
621.5084777301
 20
87.5380333445
 10
621.7650894764
 20
84.4883077769
 10
622.167493418
 20
81.5428414585
 10
622.7145679829
 20
78.7098439322
 10
623.4047883761
 20
75.9972112702
 10
624.2362308297
 20
73.4125040663
 10
625.2065779644
 20
70.962926363
 10
626.3131252487
 20
68.6553055727
 10
627.5527885368
 20
66.4960734486
 10
628.9221126648
 20
64.4912481577
 10
630.4172810808
 20
62.6464175077
 10
632.0341264822
 20
60.9667233726
 10
633.768142431
 20
59.4568473612
 10
635.6144959136
 20
58.1209977687
 10
637.5680408117
 20
56.9628978475
 10
639.6233322453
 20
55.9857754299
 10
641.7746417486
 20
55.1923539312
 10
644.0159732361
 20
54.5848447594
 10
646.341079715
 20
54.1649411517
 10
648.7434806965
 20
53.9338134546
 10
651.2164802582
 20
53.8921058626
 10
653.7531857066
 20
54.039934622
 10
656.3465267889
 20
54.3768877078
 10
658.9892753982
 20
54.9020259712
 10
661.6740657202
 20
55.6138857576
 10
664.3934147628
 20
56.5104829863
 10
667.1397432123
 20
57.5893186798
 10
669.9053965588
 20
58.8473859296
 10
672.6826664305
 20
60.2811782766
 10
675.4638120781
 20
61.8866994845
 10
678.2410819498
 20
63.6594746775
 10
681.0067352963
 20
65.5945628135
 10
683.7530637459
 20
67.6865704545
 10
686.4724127884
 20
69.9296668001
 10
689.1572031104
 20
72.3175999385
 10
691.7999517197
 20
74.8437142717
 10
694.393292802
 20
77.500969066
 10
696.9299982505
 20
80.2819580757
 10
699.4029978121
 20
83.1789301856
 10
701.8053987936
 20
86.1838110149
 10
704.1305052725
 20
89.2882254218
 10
706.37183676
 20
92.4835208464
 10
708.5231462633
 20
95.7607914274
 10
710.5784376969
 20
99.1109028239
 10
712.5319825951
 20
102.5245176744
 10
714.3783360776
 20
105.9921216223
 10
716.1123520264
 20
109.5040498332
 10
717.7291974278
 20
113.0505139335
 10
719.2243658438
 20
116.6216292915
 10
720.5936899718
 20
120.2074425684
 10
721.8333532599
 20
123.7979594592
 10
722.9399005442
 20
127.3831725496
 10
723.9102476789
 20
130.9530892075
 10
724.7416901325
 20
134.497759435
 10
725.4319105258
 20
138.0073036003
 10
725.9789850906
 20
141.4719399744
 10
726.3813890322
 20
144.8820119944
 10
726.6380007786
 20
148.2280151778
 10
726.7481051067
 20
151.5006236138
 10
726.711395136
 20
154.6907159555
 10
726.527973184
 20
157.7894008436
 10
726.1983504803
 20
160.7880416873
 10
725.7234457426
 20
163.678280737
 10
725.1045826157
 20
166.4520623779
 10
724.3434859819
 20
169.1016555832
 10
723.4422771542
 20
171.6196754613
 10
722.4034679633
 20
173.9991038392
 10
721.2299537565
 20
176.2333088233
 10
719.9250053285
 20
178.3160632836
 10
718.4922598047
 20
180.2415622097
 10
716.9357105037
 20
182.004438891
 10
715.2596958077
 20
183.5997798738
 10
713.4688870702
 20
185.0231386567
 10
711.5682755963
 20
186.2705480835
 10
709.5631587311
 20
187.3385314004
 10
707.4591250951
 20
188.2241119463
 10
705.2620390071
 20
188.9248214494
 10
702.9780241404
 20
189.4387069067
 10
700.6134464539
 20
189.7643360273
 10
698.1748964497
 20
189.9008012242
 10
695.6691708042
 20
189.8477221447
 10
693.103253424
 20
189.6052467295
 10
690.4842959812
 20
189.1740508012
 10
687.8195979798
 20
188.5553361802
 10
685.1165864112
 20
187.750827335
 10
682.3827950534
 20
186.7627665761
 10
679.6258434731
 20
185.5939078061
 10
676.853415789
 20
184.247508844
 10
674.0732392543
 20
182.7273223452
  0
LINE
  5
1D9
330
1F
100
AcDbEntity
  8
0
  6
Continuous
 62
     7
370
    15
100
AcDbLine
 10
638.5547547228
 20
102.4332121306
 30
0.0
 11
638.570598046
 21
101.2331067935
 31
0.0
  0
LWPOLYLINE
  5
1DA
330
1F
100
AcDbEntity
  8
0
  6
Continuous
 62
     7
370
    15
100
AcDbPolyline
 90
       56
 70
   128
 43
0.0
 10
582.7554492268
 20
232.2176284345
 10
580.0547015609
 20
230.5740358927
 10
577.3618756533
 20
228.7662960894
 10
574.6848700262
 20
226.7997114369
 10
572.0315367985
 20
224.6800502667
 10
569.4096586536
 20
222.4135299104
 10
566.826926012
 20
220.0067984626
 10
564.2909144733
 20
217.4669152814
 10
561.8090625965
 20
214.8013302817
 10
559.3886500808
 20
212.0178620837
 10
557.0367764129
 20
209.1246750791
 10
554.7603400437
 20
206.1302554839
 10
552.5660181532
 20
203.0433864467
 10
550.4602470656
 20
199.8731222862
 10
548.4492033704
 20
196.6287619335
 10
546.5387858051
 20
193.3198216566
 10
544.7345979537
 20
189.9560071472
 10
543.04193181
 20
186.547185053
 10
541.4657522555
 20
183.1033540365
 10
540.0106824962
 20
179.6346154475
 10
538.6809905026
 20
176.1511436938
 10
537.4805764904
 20
172.6631563984
 10
536.4129614807
 20
169.1808844288
 10
535.4812769722
 20
165.7145418889
 10
534.6882557562
 20
162.2742961586
 10
534.0362239006
 20
158.8702380712
 10
533.527093927
 20
155.5123523157
 10
533.1623592014
 20
152.2104881495
 10
532.9430895537
 20
148.9743305092
 10
532.8699281394
 20
145.8133716027
 10
532.9430895537
 20
142.7368830671
 10
533.1623592014
 20
139.7538887734
 10
533.527093927
 20
136.8731383577
 10
534.0362239006
 20
134.1030815574
 10
534.6882557562
 20
131.4518434264
 10
535.4812769722
 20
128.9272005028
 10
536.4129614807
 20
126.5365579995
 10
537.4805764904
 20
124.2869280827
 10
538.6809905026
 20
122.1849093046
 10
540.0106824962
 20
120.2366672484
 10
541.4657522555
 20
118.4479164438
 10
543.04193181
 20
116.8239036051
 10
544.7345979537
 20
115.3693922418
 10
546.5387858051
 20
114.0886486862
 10
548.4492033704
 20
112.98542958
 10
550.4602470656
 20
112.0629708548
 10
552.5660181532
 20
111.323978241
 10
554.7603400437
 20
110.7706193313
 10
557.0367764129
 20
110.4045172226
 10
559.3886500808
 20
110.2267457557
 10
561.8090625965
 20
110.2378263647
 10
564.2909144733
 20
110.4377265484
 10
566.826926012
 20
110.8258599651
 10
569.4096586536
 20
111.4010881526
 10
572.0315367985
 20
112.1617238675
 10
572.2557039922
 20
112.2347771991
  0
LWPOLYLINE
  5
1DB
330
1F
100
AcDbEntity
  8
0
  6
Continuous
 62
     7
370
    15
100
AcDbPolyline
 90
       27
 70
   128
 43
0.0
 10
631.5086012799
 20
214.960498733
 10
631.474674553
 20
215.1202583175
 10
630.8226426973
 20
217.7714964485
 10
630.0296214813
 20
220.2961393721
 10
629.0979369729
 20
222.6867818754
 10
628.0303219632
 20
224.9364117922
 10
626.8299079509
 20
227.0384305704
 10
625.5002159574
 20
228.9866726265
 10
624.0451461981
 20
230.7754234311
 10
622.4689666436
 20
232.3994362698
 10
620.7763004998
 20
233.8539476331
 10
618.9721126485
 20
235.1346911887
 10
617.0616950832
 20
236.2379102949
 10
615.0506513879
 20
237.1603690201
 10
612.9448803004
 20
237.8993616339
 10
610.7505584099
 20
238.4527205436
 10
608.4741220407
 20
238.8188226523
 10
606.1222483728
 20
238.9965941192
 10
603.701835857
 20
238.9855135102
 10
601.2199839802
 20
238.7856133265
 10
598.6839724416
 20
238.3974799098
 10
596.1012398
 20
237.8222517223
 10
593.4793616551
 20
237.0616160074
 10
590.8260284274
 20
236.1178038407
 10
588.1490228003
 20
234.9935835859
 10
585.4561968927
 20
233.6922527747
 10
582.7554492268
 20
232.2176284345
  0
LWPOLYLINE
  5
1DC
330
1F
100
AcDbEntity
  8
0
  6
Continuous
 62
     7
370
    15
100
AcDbPolyline
 90
       70
 70
   128
 43
0.0
 10
582.7554492268
 20
250.1416950369
 10
579.6666234936
 20
248.2742853863
 10
576.5846901384
 20
246.242505637
 10
573.5165261596
 20
244.0508894839
 10
570.4689778308
 20
241.7043272796
 10
567.448845424
 20
239.2080551221
 10
564.4628680355
 20
236.5676431706
 10
561.5177085485
 20
233.7889832165
 10
558.6199387653
 20
230.8782755369
 10
555.7760247436
 20
227.8420150587
 10
552.9923123674
 20
224.6869768662
 10
550.2750131876
 20
221.4202010833
 10
547.6301905612
 20
218.0489771643
 10
545.0637461217
 20
214.5808276279
 10
542.5814066102
 20
211.0234912718
 10
540.1887110966
 20
207.3849059044
 10
537.8909986204
 20
203.6731906325
 10
535.6933962766
 20
199.8966277443
 10
533.6008077752
 20
196.0636442282
 10
531.6179024994
 20
192.1827929692
 10
529.7491050864
 20
188.262733664
 10
527.9985855539
 20
184.3122134978
 10
526.3702499953
 20
180.3400476258
 10
524.8677318642
 20
176.3550995032
 10
523.4943838659
 20
172.3662611075
 10
522.2532704769
 20
168.3824330969
 10
521.1471611063
 20
164.4125049495
 10
520.1785239169
 20
160.4653351273
 10
519.3495203168
 20
156.5497313096
 10
518.6620001373
 20
152.6744307396
 10
518.1174975046
 20
148.8480807283
 10
517.7172274172
 20
145.0792193586
 10
517.4620830341
 20
141.3762564339
 10
517.3526336822
 20
137.7474547127
 10
517.3891235857
 20
134.2009114703
 10
517.5714713215
 20
130.7445404316
 10
517.8992700004
 20
127.3860541119
 10
518.3717881754
 20
124.1329466074
 10
518.9879714736
 20
120.992476873
 10
519.7464449493
 20
117.9716525246
 10
520.6455161515
 20
115.0772142027
 10
521.6831789008
 20
112.3156205308
 10
522.8571177658
 20
109.6930337043
 10
524.16471323
 20
107.2153057399
 10
525.6030475364
 20
104.8879654175
 10
527.168911199
 20
102.7162059435
 10
528.8588101634
 20
100.7048733624
 10
530.6689736045
 20
98.8584557438
 10
532.5953623396
 20
97.1810731672
 10
534.6336778424
 20
95.6764685292
 10
536.7793718338
 20
94.3479991909
 10
539.0276564315
 20
93.1986294871
 10
541.3735148336
 20
92.2309241108
 10
543.8117125126
 20
91.4470423912
 10
546.336808896
 20
90.848733475
 10
548.9431695066
 20
90.4373324232
 10
551.6249785346
 20
90.2137572325
 10
554.3762518155
 20
90.1785067866
 10
557.1908501826
 20
90.3316597429
 10
560.0624931666
 20
90.6728743574
 10
562.984773009
 20
91.2013892468
 10
565.9511689609
 20
91.9160250878
 10
568.9550618329
 20
92.8151872483
 10
571.9897487654
 20
93.896869346
 10
575.0484581853
 20
95.1586577251
 10
578.1243649158
 20
96.5977368424
 10
581.2106054062
 20
98.2108955497
 10
584.3002930473
 20
99.9945342591
 10
587.3865335378
 20
101.9446729752
 10
588.2891845643
 20
102.5470044461
  0
LWPOLYLINE
  5
1DD
330
1F
100
AcDbEntity
  8
0
  6
Continuous
 62
     7
370
    15
100
AcDbPolyline
 90
       37
 70
   128
 43
0.0
 10
647.926586522
 20
205.820513962
 10
647.9394271321
 20
206.0043593708
 10
648.1217748679
 20
209.6712646239
 10
648.1582647714
 20
213.2599382121
 10
648.0488154194
 20
216.7623724014
 10
647.7936710363
 20
220.1707518916
 10
647.3934009489
 20
223.4774712554
 10
646.8488983163
 20
226.6751519088
 10
646.1613781368
 20
229.7566585759
 10
645.3323745367
 20
232.7151152103
 10
644.3637373472
 20
235.5439203387
 10
643.2576279767
 20
238.2367617904
 10
642.0165145877
 20
240.7876307834
 10
640.6431665894
 20
243.1908353314
 10
639.1406484583
 20
245.4410129454
 10
637.5123128997
 20
247.5331425993
 10
635.7617933672
 20
249.4625559337
 10
633.8929959541
 20
251.224947673
 10
631.9100906784
 20
252.8163852321
 10
629.817502177
 20
254.2333174916
 10
627.6198998331
 20
255.4725827216
 10
625.3221873569
 20
256.5314156366
 10
622.9294918434
 20
257.4074535665
 10
620.4471523318
 20
258.0987417281
 10
617.8807078923
 20
258.6037375872
 10
615.235885266
 20
258.9213143005
 10
612.5185860862
 20
259.0507632303
 10
609.73487371
 20
258.9917955253
 10
606.8909596882
 20
258.7445427655
 10
603.9931899051
 20
258.3095566686
 10
601.0480304181
 20
257.6878078587
 10
598.0620530296
 20
256.8806837003
 10
595.0419206228
 20
255.8899852032
 10
591.994372294
 20
254.7179230031
 10
588.9262083152
 20
253.3671124289
 10
585.84427496
 20
251.8405676675
 10
582.7554492268
 20
250.1416950369
  0
LWPOLYLINE
  5
1DE
330
1F
100
AcDbEntity
  8
0
  6
Continuous
 62
     7
370
    15
100
AcDbPolyline
 90
       36
 70
   128
 43
0.0
 10
582.7554492268
 20
247.2838021953
 10
581.9347670844
 20
246.7247385249
 10
581.1404623413
 20
246.0130557129
 10
580.3980646055
 20
245.1716278303
 10
579.7314351511
 20
244.2274990617
 10
579.1619999973
 20
243.2110144824
 10
578.7080612584
 20
242.1548447433
 10
578.384208899
 20
241.0929360088
 10
578.2008518004
 20
240.0594188993
 10
578.1638832107
 20
239.0875115052
 10
578.2744913306
 20
238.2084517297
 10
578.5291211243
 20
237.4504932774
 10
578.9195885806
 20
236.8379975565
 10
579.4333437543
 20
236.3906506834
 10
580.0538741312
 20
236.1228307549
 10
580.7612353546
 20
236.0431457236
 10
581.5326922527
 20
236.1541567322
 10
582.3434495661
 20
236.4522957954
 10
583.1674488875
 20
236.9279804784
 10
583.9782062008
 20
237.5659218842
 10
584.7496630989
 20
238.345616051
 10
585.4570243223
 20
239.2420029668
 10
586.0775546993
 20
240.2262720185
 10
586.591309873
 20
241.2667879891
 10
586.9817773293
 20
242.330107839
 10
587.236407123
 20
243.3820555934
 10
587.3470152429
 20
244.3888207859
 10
587.3100466531
 20
245.3180451548
 10
587.1266895546
 20
246.1398626644
 10
586.8028371952
 20
246.8278594237
 10
586.3488984563
 20
247.3599226508
 10
585.7794633025
 20
247.7189513958
 10
585.1128338481
 20
247.8934061793
 10
584.3704361123
 20
247.8776798812
 10
583.5761313692
 20
247.6722779576
 10
582.7554492268
 20
247.2838021953
  0
LWPOLYLINE
  5
1DF
330
1F
100
AcDbEntity
  8
0
  6
Continuous
 62
     7
370
    15
100
AcDbPolyline
 90
       36
 70
   128
 43
0.0
 10
524.4191397789
 20
146.242350602
 10
523.5984576365
 20
145.6832869317
 10
522.8041528934
 20
144.9716041196
 10
522.0617551576
 20
144.130176237
 10
521.3951257032
 20
143.1860474684
 10
520.8256905494
 20
142.1695628892
 10
520.3717518105
 20
141.1133931501
 10
520.0478994511
 20
140.0514844156
 10
519.8645423526
 20
139.0179673061
 10
519.8275737628
 20
138.0460599119
 10
519.9381818827
 20
137.1670001365
 10
520.1928116764
 20
136.4090416841
 10
520.5832791327
 20
135.7965459632
 10
521.0970343064
 20
135.3491990902
 10
521.7175646833
 20
135.0813791616
 10
522.4249259068
 20
135.0016941304
 10
523.1963828049
 20
135.1127051389
 10
524.0071401182
 20
135.4108442021
 10
524.8311394396
 20
135.8865288851
 10
525.6418967529
 20
136.5244702909
 10
526.413353651
 20
137.3041644577
 10
527.1207148745
 20
138.2005513735
 10
527.7412452514
 20
139.1848204253
 10
528.2550004251
 20
140.2253363958
 10
528.6454678814
 20
141.2886562457
 10
528.9000976751
 20
142.3406040001
 10
529.010705795
 20
143.3473691926
 10
528.9737372052
 20
144.2765935615
 10
528.7903801067
 20
145.0984110711
 10
528.4665277473
 20
145.7864078304
 10
528.0125890084
 20
146.3184710575
 10
527.4431538546
 20
146.6774998025
 10
526.7765244002
 20
146.8519545861
 10
526.0341266644
 20
146.836228288
 10
525.2398219213
 20
146.6308263643
 10
524.4191397789
 20
146.242350602
  0
ARC
  5
1E0
330
1F
100
AcDbEntity
  8
0
  6
Continuous
 62
     7
370
    15
100
AcDbCircle
 10
645.7316567948
 20
206.0346964613
 30
0.0
 40
8.871429738886357
100
AcDbArc
 50
121.5347651828
 51
143.9588814201
  0
LWPOLYLINE
  5
1E1
330
1F
100
AcDbEntity
  8
0
  6
Continuous
 62
     7
370
    15
100
AcDbPolyline
 90
       13
 70
   128
 43
0.0
 10
644.9289631096
 20
207.5821335442
 10
645.3180867772
 20
208.6423254711
 10
645.5727165708
 20
209.6942732255
 10
645.6833246908
 20
210.701038418
 10
645.646356101
 20
211.6302627869
 10
645.4629990024
 20
212.4520802965
 10
645.1391466431
 20
213.1400770558
 10
644.6852079042
 20
213.6721402829
 10
644.1157727503
 20
214.0311690279
 10
643.449143296
 20
214.2056238114
 10
642.7067455602
 20
214.1898975133
 10
641.9124408171
 20
213.9844955897
 10
641.0917586747
 20
213.5960198274
  0
LWPOLYLINE
  5
1E2
330
1F
100
AcDbEntity
  8
0
  6
Continuous
 62
     7
370
    15
100
AcDbPolyline
 90
       17
 70
   128
 43
0.0
 10
578.9297851108
 20
107.980198292
 10
578.7080612584
 20
107.4256107822
 10
578.384208899
 20
106.3637020477
 10
578.2008518004
 20
105.3301849382
 10
578.1638832107
 20
104.3582775441
 10
578.2744913306
 20
103.4792177686
 10
578.5291211243
 20
102.7212593162
 10
578.9195885806
 20
102.1087635953
 10
579.4333437543
 20
101.6614167223
 10
580.0538741312
 20
101.3935967937
 10
580.7612353546
 20
101.3139117625
 10
581.5326922527
 20
101.424922771
 10
582.3434495661
 20
101.7230618342
 10
583.1674488875
 20
102.1987465173
 10
583.9782062008
 20
102.836687923
 10
584.7496630989
 20
103.6163820898
 10
585.2847000993
 20
104.2755318073
  0
LWPOLYLINE
  5
1E3
330
1F
100
AcDbEntity
  8
0
  6
Continuous
 62
     7
370
    15
100
AcDbPolyline
 90
       51
 70
   128
 43
0.0
 10
570.0275271654
 20
257.4893680433
 10
566.9387014322
 20
255.6219583927
 10
563.856768077
 20
253.5901786434
 10
560.7886040982
 20
251.3985624903
 10
557.7410557694
 20
249.052000286
 10
554.7209233626
 20
246.5557281285
 10
551.7349459742
 20
243.915316177
 10
548.7897864871
 20
241.1366562229
 10
545.892016704
 20
238.2259485433
 10
543.0481026822
 20
235.1896880651
 10
540.264390306
 20
232.0346498726
 10
537.5470911263
 20
228.7678740897
 10
534.9022684999
 20
225.3966501707
 10
532.3358240604
 20
221.9285006343
 10
529.8534845488
 20
218.3711642782
 10
527.4607890353
 20
214.7325789108
 10
525.1630765591
 20
211.020863639
 10
522.9654742152
 20
207.2443007507
 10
520.8728857138
 20
203.4113172346
 10
518.8899804381
 20
199.5304659756
 10
517.0211830251
 20
195.6104066704
 10
515.2706634925
 20
191.6598865042
 10
513.642327934
 20
187.6877206322
 10
512.1398098028
 20
183.7027725096
 10
510.7664618045
 20
179.7139341139
 10
509.5253484155
 20
175.7301061033
 10
508.419239045
 20
171.7601779559
 10
507.4506018555
 20
167.8130081337
 10
506.6215982554
 20
163.897404316
 10
505.9340780759
 20
160.022103746
 10
505.3895754433
 20
156.1957537347
 10
504.9893053559
 20
152.426892365
 10
504.7341609728
 20
148.7239294404
 10
504.6247116208
 20
145.0951277191
 10
504.6612015244
 20
141.5485844767
 10
504.8435492601
 20
138.092213438
 10
505.171347939
 20
134.7337271183
 10
505.643866114
 20
131.4806196138
 10
506.2600494123
 20
128.3401498794
 10
507.018522888
 20
125.319325531
 10
507.9175940902
 20
122.4248872091
 10
508.9552568394
 20
119.6632935372
 10
510.1291957045
 20
117.0407067107
 10
511.4367911686
 20
114.5629787463
 10
512.8751254751
 20
112.2356384239
 10
514.4409891376
 20
110.0638789499
 10
516.1308881021
 20
108.0525463688
 10
517.9410515431
 20
106.2061287502
 10
519.8674402783
 20
104.5287461736
 10
521.905755781
 20
103.0241415356
 10
523.781285781
 20
101.8498231736
  0
LWPOLYLINE
  5
1E4
330
1F
100
AcDbEntity
  8
0
  6
Continuous
 62
     7
370
    15
100
AcDbPolyline
 90
       18
 70
   128
 43
0.0
 10
616.2737685498
 20
262.0688627141
 10
614.8919777718
 20
262.820255728
 10
612.5942652956
 20
263.879088643
 10
610.2015697821
 20
264.7551265729
 10
607.7192302705
 20
265.4464147345
 10
605.152785831
 20
265.9514105936
 10
602.5079632046
 20
266.2689873069
 10
599.7906640248
 20
266.3984362367
 10
597.0069516486
 20
266.3394685317
 10
594.1630376269
 20
266.0922157719
 10
591.2652678437
 20
265.657229675
 10
588.3201083567
 20
265.0354808651
 10
585.3341309682
 20
264.2283567067
 10
582.3139985614
 20
263.2376582096
 10
579.2664502326
 20
262.0655960095
 10
576.1982862539
 20
260.7147854354
 10
573.1163528987
 20
259.1882406739
 10
570.0275271654
 20
257.4893680433
  0
ARC
  5
1E5
330
1F
100
AcDbEntity
  8
0
  6
Continuous
 62
     7
370
    15
100
AcDbCircle
 10
585.9676438539
 20
216.5137564502
 30
0.0
 40
33.30253709543983
100
AcDbArc
 50
11.0520749016
 51
41.0447022024
  0
ARC
  5
1E6
330
1F
100
AcDbEntity
  8
0
  6
Continuous
 62
     7
370
    15
100
AcDbCircle
 10
548.0767125747
 20
150.8855505347
 30
0.0
 40
33.31260383307896
100
AcDbArc
 50
258.961931449
 51
289.0069171663
  0
LWPOLYLINE
  5
1E7
330
1F
100
AcDbEntity
  8
0
  6
Continuous
 62
     8
370
    15
100
AcDbPolyline
 90
       74
 70
   128
 43
0.0
 10
638.570598046
 20
101.2331067935
 10
638.6288691632
 20
99.8616577859
 10
638.850895115
 20
97.3866859431
 10
639.2198818291
 20
95.0188948118
 10
639.7342492476
 20
92.7684236369
 10
640.3917947703
 20
90.6449092816
 10
641.1897026864
 20
88.6574449604
 10
642.1245562316
 20
86.8145413005
 10
643.1923522195
 20
85.1240898985
 10
644.3885181838
 20
83.5933295267
 10
645.7079319581
 20
82.228815136
 10
647.1449436103
 20
81.0363897866
 10
648.6933996356
 20
80.0211596269
 10
650.3466693078
 20
79.1874720282
 10
652.0976730722
 20
78.5388969689
 10
653.9389128619
 20
78.0782117469
 10
655.8625042055
 20
77.807389087
 10
657.8602099896
 20
77.7275886936
 10
659.9234757312
 20
77.8391522841
 10
662.0434662096
 20
78.141602126
 10
664.2111033003
 20
78.6336430829
 10
666.4171048484
 20
79.3131681596
 10
668.6520244166
 20
80.1772675255
 10
670.9062917361
 20
81.2222409746
 10
673.1702536883
 20
82.44361377
 10
675.4342156405
 20
83.8361558059
 10
677.6884829601
 20
85.3939040035
 10
679.9234025283
 20
87.110187846
 10
682.1294040764
 20
88.9776579423
 10
684.297041167
 20
90.9883174989
 10
686.4170316455
 20
93.1335565629
 10
688.4802973871
 20
95.4041888912
 10
690.4780031711
 20
97.7904912876
 10
692.4015945147
 20
100.2822452389
 10
694.2428343045
 20
102.8687806721
 10
695.9938380689
 20
105.5390216455
 10
697.6471077411
 20
108.2815337771
 10
699.1955637664
 20
111.0845732092
 10
700.6325754185
 20
113.9361368964
 10
701.9519891929
 20
116.8240140052
 10
703.1481551572
 20
119.7358382027
 10
704.2159511451
 20
122.6591406104
 10
705.1508046903
 20
125.5814031987
 10
705.9487126063
 20
128.4901123905
 10
706.6062581291
 20
131.3728126466
 10
707.1206255476
 20
134.2171598019
 10
707.4896122616
 20
137.0109739252
 10
707.7116382135
 20
139.7422914755
 10
707.7857526539
 20
142.3994165317
 10
707.7116382135
 20
144.9709708765
 10
707.4896122616
 20
147.4459427192
 10
707.1206255476
 20
149.8137338506
 10
706.6062581291
 20
152.0642050255
 10
705.9487126063
 20
154.1877193808
 10
705.1508046903
 20
156.175183702
 10
704.2159511451
 20
158.0180873619
 10
703.1481551572
 20
159.7085387639
 10
701.9519891929
 20
161.2392991357
 10
700.6325754185
 20
162.6038135264
 10
699.1955637664
 20
163.7962388758
 10
697.647107741
 20
164.8114690355
 10
695.9938380689
 20
165.6451566342
 10
694.2428343045
 20
166.2937316935
 10
692.4015945147
 20
166.7544169155
 10
690.4780031711
 20
167.0252395753
 10
688.4802973871
 20
167.1050399688
 10
686.4170316455
 20
166.9934763783
 10
684.297041167
 20
166.6910265363
 10
682.1294040764
 20
166.1989855795
 10
679.9234025283
 20
165.5194605028
 10
677.6884829601
 20
164.6553611368
 10
675.4342156405
 20
163.6103876878
 10
673.1702536883
 20
162.3890148924
 10
673.1702536883
 20
162.3890148924
  0
LWPOLYLINE
  5
1E8
330
1F
100
AcDbEntity
  8
0
  6
Continuous
 62
     8
370
    15
100
AcDbPolyline
 90
       66
 70
   128
 43
0.0
 10
638.6287121585
 20
105.9226805245
 10
638.7799170613
 20
104.2185473098
 10
639.1097291644
 20
102.0314860937
 10
639.5839472432
 20
99.9605759646
 10
640.2002087671
 20
98.0161340923
 10
640.9554435522
 20
96.2078475886
 10
641.8458890568
 20
94.5447252459
 10
642.8671091262
 20
93.035052656
 10
644.0140160934
 20
91.6863509318
 10
645.2808961256
 20
90.5053392374
 10
646.66143769
 20
89.4979013137
 10
648.1487629983
 20
88.6690561659
 10
649.7354622703
 20
88.0229330586
 10
651.4136306503
 20
87.5627509447
 10
653.1749075877
 20
87.2908024284
 10
655.0105184894
 20
87.2084423435
 10
656.9113184343
 20
87.3160810039
 10
658.8678377326
 20
87.613182159
 10
660.8703291036
 20
88.0982656659
 10
662.9088162361
 20
88.7689148629
 10
664.9731434896
 20
89.6217886096
 10
667.0530264897
 20
90.6526379318
 10
669.1381033639
 20
91.85632719
 10
671.2179863639
 20
93.2268596648
 10
673.2823136175
 20
94.7574074326
 10
675.3208007499
 20
96.4403453811
 10
677.323292121
 20
98.2672891983
 10
679.2798114193
 20
100.229137142
 10
681.1806113642
 20
102.3161153843
 10
683.0162222659
 20
104.5178267047
 10
684.7774992033
 20
106.823302288
 10
686.4556675833
 20
109.221056371
 10
688.0423668553
 20
111.6991434633
 10
689.5296921635
 20
114.2452178598
 10
690.910233728
 20
116.8465951459
 10
692.1771137601
 20
119.4903153907
 10
693.3240207273
 20
122.1632077131
 10
694.3452407967
 20
124.8519558978
 10
695.2356863014
 20
127.5431647368
 10
695.9909210865
 20
130.2234267628
 10
696.6071826104
 20
132.8793890454
 10
697.0814006892
 20
135.4978197141
 10
697.4112127923
 20
138.0656738789
 10
697.5949758123
 20
140.5701586196
 10
697.6317742512
 20
142.9987967192
 10
697.5214247809
 20
145.3394888249
 10
697.264477157
 20
147.5805737262
 10
696.8622114796
 20
149.710886451
 10
696.316631816
 20
151.7198138884
 10
695.6304562168
 20
153.597347663
 10
694.8071031743
 20
155.334133996
 10
693.8506745918
 20
156.9215203051
 10
692.7659353485
 20
158.3515983118
 10
691.5582895607
 20
159.6172434392
 10
690.233753659
 20
160.712150307
 10
688.7989264146
 20
161.6308641443
 10
687.2609560647
 20
162.3688079649
 10
685.6275047002
 20
162.9223053699
 10
683.9067100936
 20
163.288598863
 10
682.1071451571
 20
163.4658635885
 10
680.2377752328
 20
163.4532164224
 10
678.3079134274
 20
163.2507203722
 10
676.3271742155
 20
162.8593842632
 10
674.3054255402
 20
162.2811577121
 10
672.2527396517
 20
161.5189214144
 10
670.4244634769
 20
160.6967776336
  0
LWPOLYLINE
  5
1E9
330
1F
100
AcDbEntity
  8
0
  6
Continuous
 62
     8
370
    15
100
AcDbPolyline
 90
       25
 70
   128
 43
0.0
 10
648.2094189797
 20
106.8491868139
 10
649.3424744253
 20
107.3082891763
 10
651.1657868626
 20
108.1886747931
 10
652.9951864761
 20
109.2447647105
 10
654.8184989134
 20
110.4695308244
 10
656.6235903309
 20
111.8548225183
 10
658.3984481431
 20
113.3914209046
 10
660.131260964
 20
115.0691001745
 10
661.8104972104
 20
116.8766956493
 10
663.4249818419
 20
118.8021780794
 10
664.9639707297
 20
120.8327336968
 10
666.4172221568
 20
122.9548494889
 10
667.7750649746
 20
125.1544031254
 10
669.0284629632
 20
127.4167569395
 10
670.1690749657
 20
129.72685534
 10
671.1893103976
 20
132.0693250031
 10
672.0823797603
 20
134.4285771797
 10
672.8423398245
 20
136.7889114358
 10
673.4641331815
 20
139.1346201364
 10
673.943621899
 20
141.4500929771
 10
674.2776150587
 20
143.7199208681
 10
674.4638899912
 20
145.9289984794
 10
674.5012070676
 20
148.0626247639
 10
674.3893179489
 20
150.1066007906
 10
674.1665028113
 20
151.8292939516
  0
LWPOLYLINE
  5
1EA
330
1F
100
AcDbEntity
  8
0
  6
Continuous
 62
     8
370
    15
100
AcDbPolyline
 90
       46
 70
   128
 43
0.0
 10
645.6532287644
 20
91.5374607714
 10
645.6655649268
 20
91.5303282579
 10
647.1617780657
 20
90.7854612717
 10
648.7535562037
 20
90.2231191678
 10
650.4327880043
 20
89.8461675126
 10
652.1909164871
 20
89.6565271653
 10
654.0189826324
 20
89.6551644897
 10
655.9076710341
 20
89.8420864297
 10
657.8473573691
 20
90.2163404739
 10
659.8281574404
 20
90.7760195094
 10
661.8399775449
 20
91.5182715402
 10
663.8725659085
 20
92.4393142202
 10
665.9155649268
 20
93.5344541269
 10
667.9585639451
 20
94.7981106783
 10
669.9911523087
 20
96.2238445704
 10
672.0029724131
 20
97.8043905901
 10
673.9837724844
 20
99.531694637
 10
675.9234588194
 20
101.3969547658
 10
677.8121472212
 20
103.3906660384
 10
679.6402133664
 20
105.5026689591
 10
681.3983418493
 20
107.7222012452
 10
683.0775736498
 20
110.0379526689
 10
684.6693517879
 20
112.4381226917
 10
686.1655649268
 20
114.9104805974
 10
687.5585887074
 20
117.4424278168
 10
688.8413245999
 20
120.0210621272
 10
690.0072360762
 20
122.6332433994
 10
691.0503819185
 20
125.2656605563
 10
691.9654464949
 20
127.9048994034
 10
692.747766846
 20
130.5375109845
 10
693.3933564466
 20
133.1500801146
 10
693.8989255201
 20
135.7292937401
 10
694.2618978024
 20
138.2620087797
 10
694.4804236699
 20
140.735319098
 10
694.5533895648
 20
143.1366212726
 10
694.4804236699
 20
145.4536788181
 10
694.2618978024
 20
147.6746845403
 10
693.8989255201
 20
149.7883207031
 10
693.3933564466
 20
151.7838167011
 10
692.747766846
 20
153.6510039443
 10
691.9654464949
 20
155.3803676742
 10
691.0503819185
 20
156.9630954499
 10
690.0072360762
 20
158.3911220533
 10
688.8413245999
 20
159.6571705883
 10
687.5585887074
 20
160.7547895616
 10
686.1947533012
 20
161.6614815374
  0
LWPOLYLINE
  5
1EB
330
1F
100
AcDbEntity
  8
0
  6
Continuous
 62
     8
370
    15
100
AcDbPolyline
 90
       43
 70
   128
 43
0.0
 10
644.0032173324
 20
92.6732832926
 10
645.2188591356
 20
92.2636563512
 10
646.8980909362
 20
91.886704696
 10
648.656219419
 20
91.6970643487
 10
650.4842855643
 20
91.6957016731
 10
652.372973966
 20
91.8826236131
 10
654.312660301
 20
92.2568776572
 10
656.2934603723
 20
92.8165566928
 10
658.3052804768
 20
93.5588087236
 10
660.3378688403
 20
94.4798514036
 10
662.3808678586
 20
95.5749913103
 10
664.4238668769
 20
96.8386478617
 10
666.4564552405
 20
98.2643817538
 10
668.468275345
 20
99.8449277735
 10
670.4490754163
 20
101.5722318204
 10
672.3887617513
 20
103.4374919492
 10
674.277450153
 20
105.4312032218
 10
676.1055162983
 20
107.5432061425
 10
677.8636447811
 20
109.7627384286
 10
679.5428765817
 20
112.0784898523
 10
681.1346547197
 20
114.4786598751
 10
682.6308678586
 20
116.9510177808
 10
684.0238916393
 20
119.4829650002
 10
685.3066275317
 20
122.0615993106
 10
686.472539008
 20
124.6737805828
 10
687.5156848504
 20
127.3061977396
 10
688.4307494268
 20
129.9454365868
 10
689.2130697778
 20
132.5780481679
 10
689.8586593784
 20
135.190617298
 10
690.3642284519
 20
137.7698309235
 10
690.7272007342
 20
140.3025459631
 10
690.9457266017
 20
142.7758562814
 10
691.0186924967
 20
145.177158456
 10
690.9457266017
 20
147.4942160015
 10
690.7272007342
 20
149.7152217237
 10
690.3642284519
 20
151.8288578865
 10
689.8586593784
 20
153.8243538845
 10
689.2130697778
 20
155.6915411277
 10
688.4307494268
 20
157.4209048576
 10
687.5156848504
 20
159.0036326333
 10
686.472539008
 20
160.4316592367
 10
685.3066275317
 20
161.6977077717
 10
684.3855361722
 20
162.5125423837
  0
ARC
  5
1EC
330
1F
100
AcDbEntity
  8
0
  6
Continuous
 62
     8
370
    15
100
AcDbCircle
 10
686.8847924841
 20
114.4990796075
 30
0.0
 40
88.03041984750905
100
AcDbArc
 50
128.3903426008
 51
171.6150339319
  0
LWPOLYLINE
  5
1ED
330
1F
100
AcDbEntity
  8
0
  6
Continuous
 62
     8
370
    15
100
AcDbPolyline
 90
       23
 70
   128
 43
0.0
 10
640.93032726
 20
113.0204149513
 10
641.926065845
 20
113.5226521996
 10
643.7554654586
 20
114.578742117
 10
645.5787778958
 20
115.8035082309
 10
647.3838693133
 20
117.1887999248
 10
649.1587271255
 20
118.7253983111
 10
650.8915399465
 20
120.403077581
 10
652.5707761928
 20
122.2106730558
 10
654.1852608244
 20
124.1361554859
 10
655.7242497122
 20
126.1667111033
 10
657.1775011393
 20
128.2888268954
 10
658.5353439571
 20
130.4883805319
 10
659.7887419457
 20
132.750734346
 10
660.9293539482
 20
135.0608327465
 10
661.9495893801
 20
137.4033024096
 10
662.8426587428
 20
139.7625545862
 10
663.602618807
 20
142.1228888423
 10
664.224412164
 20
144.4685975429
 10
664.7039008815
 20
146.7840703836
 10
665.0378940412
 20
149.0538982746
 10
665.2241689737
 20
151.2629758859
 10
665.2614860501
 20
153.3966021704
 10
665.1821521547
 20
155.0618532734
  0
LWPOLYLINE
  5
1EE
330
1F
100
AcDbEntity
  8
0
  6
Continuous
 62
     8
370
    15
100
AcDbPolyline
 90
       45
 70
   128
 43
0.0
 10
641.5175895121
 20
95.6624734524
 10
642.9174470783
 20
94.9161742798
 10
644.4657696557
 20
94.3220620806
 10
646.1040179524
 20
93.9143439592
 10
647.823451205
 20
93.6951952681
 10
649.6148954931
 20
93.6657852604
 10
651.4687926864
 20
93.8262708512
 10
653.3752514411
 20
94.1757957806
 10
655.3240999749
 20
94.7124951817
 10
657.3049403377
 20
95.433505531
 10
659.3072038892
 20
96.3349799264
 10
661.3202076868
 20
97.412108612
 10
663.3332114845
 20
98.65914464
 10
665.335475036
 20
100.0694345338
 10
667.3163153988
 20
101.6354537866
 10
669.2651639326
 20
103.3488470081
 10
671.1716226873
 20
105.2004725041
 10
673.0255198806
 20
107.1804510515
 10
674.8169641687
 20
109.278218608
 10
676.5363974213
 20
111.482582676
 10
678.174645718
 20
113.7817820196
 10
679.7229682954
 20
116.1635494153
 10
681.1731041825
 20
118.6151771036
 10
682.517316277
 20
121.1235845901
 10
683.7484326258
 20
123.6753884355
 10
684.8598846905
 20
126.2569736621
 10
685.8457423934
 20
128.8545663958
 10
686.700745757
 20
131.4543073555
 10
687.4203329686
 20
134.0423257983
 10
688.000664719
 20
136.604813526
 10
688.4386446873
 20
139.1280985579
 10
688.7319360607
 20
141.5987180766
 10
688.8789740029
 20
144.003490258
 10
688.8789740029
 20
146.329584602
 10
688.7319360607
 20
148.5645903889
 10
688.4386446873
 20
150.6965828957
 10
688.000664719
 20
152.71418702
 10
687.4203329686
 20
154.6066379709
 10
686.700745757
 20
156.3638387036
 10
685.8457423934
 20
157.976413792
 10
684.8598846905
 20
159.4357594502
 10
683.7484326258
 20
160.7340894379
 10
682.517316277
 20
161.8644766026
 10
681.1731041825
 20
162.8208898399
 10
680.5152406227
 20
163.2028784384
  0
LWPOLYLINE
  5
1EF
330
1F
100
AcDbEntity
  8
0
  6
Continuous
 62
     8
370
    15
100
AcDbPolyline
 90
       55
 70
   128
 43
0.0
 10
639.357598582
 20
111.3447209679
 10
639.4570724572
 20
110.8734769391
 10
639.9365611747
 20
109.1116099878
 10
640.5583545316
 20
107.4838086161
 10
641.3183145959
 20
106.0009055735
 10
642.2113839586
 20
104.6727693351
 10
643.2316193904
 20
103.5082384285
 10
644.372231393
 20
102.5150626147
 10
645.6256293816
 20
101.6998513149
 10
646.9834721994
 20
101.0680296258
 10
648.4367236264
 20
100.6238022164
 10
649.9757125143
 20
100.370125347
 10
651.5901971458
 20
100.3086871952
 10
653.2694333921
 20
100.4398966218
 10
655.0022462131
 20
100.7628804496
 10
656.7771040253
 20
101.2754892747
 10
658.5821954428
 20
101.9743117698
 10
660.4055078801
 20
102.8546973866
 10
662.2349074936
 20
103.910787304
 10
664.0582199309
 20
105.1355534179
 10
665.8633113484
 20
106.5208451118
 10
667.6381691606
 20
108.057443498
 10
669.3709819815
 20
109.735122768
 10
671.0502182279
 20
111.5427182428
 10
672.6647028594
 20
113.4682006729
 10
674.2036917472
 20
115.4987562903
 10
675.6569431743
 20
117.6208720824
 10
677.0147859921
 20
119.8204257188
 10
678.2681839807
 20
122.082779533
 10
679.4087959833
 20
124.3928779335
 10
680.4290314151
 20
126.7353475966
 10
681.3221007778
 20
129.0945997732
 10
682.082060842
 20
131.4549340293
 10
682.703854199
 20
133.8006427299
 10
683.1833429165
 20
136.1161155706
 10
683.5173360762
 20
138.3859434616
 10
683.7036110087
 20
140.5950210729
 10
683.7409280851
 20
142.7286473574
 10
683.6290389665
 20
144.7726233841
 10
683.3686882563
 20
146.71334683
 10
682.9616085457
 20
148.5379025006
 10
682.410508883
 20
150.2341482789
 10
681.7190567455
 20
151.7907959293
 10
680.891853633
 20
153.1974862184
 10
679.9344044459
 20
154.4448578543
 10
678.8530808505
 20
155.5246097848
 10
677.6550788769
 20
156.4295564388
 10
676.3483710306
 20
157.1536755457
 10
674.9416532367
 20
157.6921482122
 10
673.44428697
 20
158.0413909917
 10
671.8662369561
 20
158.1990797309
 10
670.2180048573
 20
158.1641650375
 10
668.5105593864
 20
157.9368792629
 10
666.7552633113
 20
157.5187349565
 10
665.738413276
 20
157.1962193918
  0
LWPOLYLINE
  5
1F0
330
1F
100
AcDbEntity
  8
0
  6
Continuous
 62
     8
370
    15
100
AcDbPolyline
 90
       32
 70
   128
 43
0.0
 10
628.9811841255
 20
192.835865852
 10
626.5870267455
 20
191.3685691936
 10
624.2019512244
 20
189.7364804497
 10
621.8350049707
 20
187.9457906921
 10
619.4951666223
 20
186.0032926203
 10
617.1913119875
 20
183.9163547949
 10
614.9321803761
 20
181.6928936859
 10
612.726341448
 20
179.3413436429
 10
610.582162706
 20
176.8706249005
 10
608.5077777543
 20
174.2901097414
 10
606.5110554456
 20
171.6095869434
 10
604.5995700316
 20
168.8392246477
 10
602.7805724312
 20
165.9895317872
 10
601.0609627254
 20
163.0713182232
 10
599.4472639827
 20
160.0956537393
 10
597.9455975153
 20
157.0738260501
 10
596.5616596584
 20
154.017297983
 10
595.3007001623
 20
150.937663996
 10
594.1675022783
 20
147.8466061957
 10
593.1663646141
 20
144.755850023
 10
592.3010848279
 20
141.6771197747
 10
591.5749452222
 20
138.6220941293
 10
590.9907002932
 20
135.6023618455
 10
590.5505662822
 20
132.6293778021
 10
590.2562127681
 20
129.7144195459
 10
590.1087563347
 20
126.868544512
 10
590.1087563347
 20
124.1025480793
 10
590.2562127681
 20
121.4269226196
 10
590.5505662822
 20
118.8518176968
 10
590.9907002932
 20
116.3870015659
 10
591.5749452222
 20
114.0418241187
 10
592.2780593664
 20
111.887558562
  0
ARC
  5
1F1
330
1F
100
AcDbEntity
  8
0
  6
Continuous
 62
     8
370
    15
100
AcDbCircle
 10
649.1325936494
 20
159.2571042067
 30
0.0
 40
39.16136539277361
100
AcDbArc
 50
100.7501574708
 51
120.9689661854
  0
ARC
  5
1F2
330
1F
100
AcDbEntity
  8
0
  6
Continuous
 62
     8
370
    15
100
AcDbCircle
 10
602.4518259879
 20
163.2415241199
 30
0.0
 40
54.27991673406633
100
AcDbArc
 50
322.2680344832
 51
337.6356146894
  0
LWPOLYLINE
  5
1F3
330
1F
100
AcDbEntity
  8
0
  6
Continuous
 62
     8
370
    15
100
AcDbPolyline
 90
       32
 70
   128
 43
0.0
 10
619.741463108
 20
198.1698432585
 10
617.347305728
 20
196.7025466001
 10
614.9622302069
 20
195.0704578562
 10
612.5952839532
 20
193.2797680986
 10
610.2554456048
 20
191.3372700268
 10
607.95159097
 20
189.2503322014
 10
605.6924593586
 20
187.0268710924
 10
603.4866204305
 20
184.6753210494
 10
601.3424416884
 20
182.204602307
 10
599.2680567367
 20
179.6240871479
 10
597.2713344281
 20
176.9435643499
 10
595.3598490141
 20
174.1732020542
 10
593.5408514137
 20
171.3235091937
 10
591.8212417079
 20
168.4052956298
 10
590.2075429652
 20
165.4296311458
 10
588.7058764978
 20
162.4078034566
 10
587.3219386409
 20
159.3512753895
 10
586.0609791448
 20
156.2716414026
 10
584.9277812608
 20
153.1805836022
 10
583.9266435966
 20
150.0898274295
 10
583.0613638104
 20
147.0110971812
 10
582.3352242047
 20
143.9560715358
 10
581.7509792757
 20
140.936339252
 10
581.3108452647
 20
137.9633552086
 10
581.0164917506
 20
135.0483969524
 10
580.8690353172
 20
132.2025219185
 10
580.8690353172
 20
129.4365254858
 10
581.0164917506
 20
126.7609000261
 10
581.3108452647
 20
124.1857951033
 10
581.7509792757
 20
121.7209789724
 10
582.3352242047
 20
119.3758015252
 10
583.0383383489
 20
117.2215359685
  0
ARC
  5
1F4
330
1F
100
AcDbEntity
  8
0
  6
Continuous
 62
     8
370
    15
100
AcDbCircle
 10
639.8928726318
 20
164.5910816132
 30
0.0
 40
39.16136539277227
100
AcDbArc
 50
100.7501574708
 51
120.9689661854
  0
LWPOLYLINE
  5
1F5
330
1F
100
AcDbEntity
  8
0
  6
Continuous
 62
     8
370
    15
100
AcDbPolyline
 90
       32
 70
   128
 43
0.0
 10
610.5017420905
 20
203.503820665
 10
608.1075847104
 20
202.0365240066
 10
605.7225091894
 20
200.4044352627
 10
603.3555629357
 20
198.6137455051
 10
601.0157245873
 20
196.6712474333
 10
598.7118699525
 20
194.5843096079
 10
596.4527383411
 20
192.3608484989
 10
594.246899413
 20
190.0092984559
 10
592.1027206709
 20
187.5385797135
 10
590.0283357192
 20
184.9580645544
 10
588.0316134106
 20
182.2775417564
 10
586.1201279966
 20
179.5071794607
 10
584.3011303962
 20
176.6574866002
 10
582.5815206904
 20
173.7392730363
 10
580.9678219477
 20
170.7636085523
 10
579.4661554803
 20
167.7417808631
 10
578.0822176234
 20
164.6852527961
 10
576.8212581273
 20
161.6056188091
 10
575.6880602433
 20
158.5145610087
 10
574.6869225791
 20
155.423804836
 10
573.8216427929
 20
152.3450745878
 10
573.0955031872
 20
149.2900489424
 10
572.5112582582
 20
146.2703166585
 10
572.0711242472
 20
143.2973326151
 10
571.7767707331
 20
140.3823743589
 10
571.6293142996
 20
137.536499325
 10
571.6293142996
 20
134.7705028923
 10
571.7767707331
 20
132.0948774327
 10
572.0711242472
 20
129.5197725098
 10
572.5112582582
 20
127.0549563789
 10
573.0955031872
 20
124.7097789317
 10
573.7986173313
 20
122.5555133751
  0
ARC
  5
1F6
330
1F
100
AcDbEntity
  8
0
  6
Continuous
 62
     8
370
    15
100
AcDbCircle
 10
630.6531516143
 20
169.9250590197
 30
0.0
 40
39.16136539277359
100
AcDbArc
 50
100.7501574708
 51
120.9689661854
  0
LWPOLYLINE
  5
1F7
330
1F
100
AcDbEntity
  8
0
  6
Continuous
 62
     8
370
    15
100
AcDbPolyline
 90
       32
 70
   128
 43
0.0
 10
601.262021073
 20
208.8377980715
 10
598.8678636929
 20
207.3705014131
 10
596.4827881719
 20
205.7384126692
 10
594.1158419182
 20
203.9477229116
 10
591.7760035698
 20
202.0052248399
 10
589.472148935
 20
199.9182870145
 10
587.2130173236
 20
197.6948259054
 10
585.0071783955
 20
195.3432758624
 10
582.8629996534
 20
192.8725571201
 10
580.7886147017
 20
190.292041961
 10
578.7918923931
 20
187.611519163
 10
576.8804069791
 20
184.8411568672
 10
575.0614093787
 20
181.9914640068
 10
573.3417996729
 20
179.0732504428
 10
571.7281009302
 20
176.0975859588
 10
570.2264344628
 20
173.0757582696
 10
568.8424966058
 20
170.0192302026
 10
567.5815371097
 20
166.9395962156
 10
566.4483392258
 20
163.8485384152
 10
565.4472015616
 20
160.7577822425
 10
564.5819217754
 20
157.6790519943
 10
563.8557821696
 20
154.6240263489
 10
563.2715372407
 20
151.604294065
 10
562.8314032296
 20
148.6313100216
 10
562.5370497156
 20
145.7163517654
 10
562.3895932821
 20
142.8704767315
 10
562.3895932821
 20
140.1044802988
 10
562.5370497156
 20
137.4288548392
 10
562.8314032296
 20
134.8537499164
 10
563.2715372407
 20
132.3889337854
 10
563.8557821696
 20
130.0437563382
 10
564.5588963138
 20
127.8894907816
  0
ARC
  5
1F8
330
1F
100
AcDbEntity
  8
0
  6
Continuous
 62
     8
370
    15
100
AcDbCircle
 10
621.4134305968
 20
175.2590364262
 30
0.0
 40
39.16136539277142
100
AcDbArc
 50
100.7501574708
 51
120.9689661854
  0
LWPOLYLINE
  5
1F9
330
1F
100
AcDbEntity
  8
0
  6
Continuous
 62
     8
370
    15
100
AcDbPolyline
 90
       32
 70
   128
 43
0.0
 10
592.0223000555
 20
214.171775478
 10
589.6281426754
 20
212.7044788196
 10
587.2430671543
 20
211.0723900758
 10
584.8761209007
 20
209.2817003181
 10
582.5362825523
 20
207.3392022464
 10
580.2324279175
 20
205.252264421
 10
577.9732963061
 20
203.0288033119
 10
575.767457378
 20
200.6772532689
 10
573.6232786359
 20
198.2065345266
 10
571.5488936842
 20
195.6260193675
 10
569.5521713755
 20
192.9454965695
 10
567.6406859616
 20
190.1751342737
 10
565.8216883612
 20
187.3254414133
 10
564.1020786554
 20
184.4072278493
 10
562.4883799127
 20
181.4315633654
 10
560.9867134453
 20
178.4097356761
 10
559.6027755883
 20
175.3532076091
 10
558.3418160922
 20
172.2735736221
 10
557.2086182082
 20
169.1825158217
 10
556.2074805441
 20
166.091759649
 10
555.3422007579
 20
163.0130294008
 10
554.6160611521
 20
159.9580037554
 10
554.0318162232
 20
156.9382714715
 10
553.5916822121
 20
153.9652874281
 10
553.297328698
 20
151.0503291719
 10
553.1498722646
 20
148.2044541381
 10
553.1498722646
 20
145.4384577053
 10
553.297328698
 20
142.7628322457
 10
553.5916822121
 20
140.1877273229
 10
554.0318162232
 20
137.7229111919
 10
554.6160611521
 20
135.3777337448
 10
555.3191752963
 20
133.2234681881
  0
ARC
  5
1FA
330
1F
100
AcDbEntity
  8
0
  6
Continuous
 62
     8
370
    15
100
AcDbCircle
 10
612.1737095793
 20
180.5930138328
 30
0.0
 40
39.1613653927736
100
AcDbArc
 50
100.7501574708
 51
120.9689661854
  0
LWPOLYLINE
  5
1FB
330
1F
100
AcDbEntity
  8
0
  6
Continuous
 62
     8
370
    15
100
AcDbPolyline
 90
       14
 70
   128
 43
0.0
 10
533.5279112711
 20
155.5185794958
 10
533.6073816446
 20
154.8876085415
 10
534.0128218671
 20
152.4664414856
 10
534.5632805967
 20
150.1640319345
 10
535.2565413303
 20
147.9896508789
 10
536.0898125517
 20
145.9520537838
 10
537.0597389718
 20
144.0594453336
 10
538.1624150391
 20
142.3194463946
 10
539.3934006663
 20
140.7390633284
 10
540.7477391089
 20
139.3246597797
 10
542.2199769238
 20
138.0819310524
 10
543.8041859291
 20
137.0158811766
 10
545.4939870741
 20
136.1308027588
 10
546.8500092905
 20
135.5794828976
  0
LWPOLYLINE
  5
1FC
330
1F
100
AcDbEntity
  8
0
  6
Continuous
 62
     8
370
    15
100
AcDbPolyline
 90
       15
 70
   128
 43
0.0
 10
598.6286571501
 20
225.2006957895
 10
598.5855740807
 20
225.2371790279
 10
597.0565808874
 20
226.3921498082
 10
595.4187512344
 20
227.3682053576
 10
593.6786800838
 20
228.1614154449
 10
591.8433740879
 20
228.7685860929
 10
589.9202233762
 20
229.1872724398
 10
587.9169717979
 20
229.4157885834
 10
585.84168574
 20
229.4532143698
 10
583.702721647
 20
229.2993990987
 10
581.5086923725
 20
228.9549621299
 10
579.2684324978
 20
228.4212903894
 10
576.9909627589
 20
227.7005327849
 10
574.6854537226
 20
226.7955915531
 10
574.6718852751
 20
226.7897552763
  0
LWPOLYLINE
  5
1FD
330
1F
100
AcDbEntity
  8
0
  6
Continuous
 62
     8
370
    15
100
AcDbPolyline
 90
       28
 70
   128
 43
0.0
 10
575.4140595661
 20
214.6113795079
 10
573.2774873101
 20
213.2927524066
 10
571.151096794
 20
211.8099887803
 10
569.0450212368
 20
210.1701546728
 10
566.9692970477
 20
208.3810646404
 10
564.9338159977
 20
206.4512445119
 10
562.9482780809
 20
204.3898907589
 10
561.0221452899
 20
202.206826671
 10
559.1645965244
 20
199.9124555426
 10
557.3844838503
 20
197.5177110969
 10
555.6902903151
 20
195.034005382
 10
554.0900895225
 20
192.4731743864
 10
552.591507158
 20
189.8474216362
 10
551.2016846492
 20
187.169260039
 10
549.927245133
 20
184.4514522543
 10
548.7742618943
 20
181.7069498741
 10
547.7482294231
 20
178.9488317018
 10
546.8540372316
 20
176.1902414268
 10
546.0959465526
 20
173.4443249878
 10
545.4775700335
 20
170.7241679273
 10
545.0018545201
 20
168.0427330323
 10
544.6710670133
 20
165.4127985613
 10
544.4867838664
 20
162.8468973496
 10
544.4498832723
 20
160.3572570851
 10
544.5605410793
 20
157.9557420374
 10
544.8182299525
 20
155.6537965193
 10
545.2217218871
 20
153.4623903496
 10
545.2651289353
 20
153.27094053
  0
ARC
  5
1FE
330
1F
100
AcDbEntity
  8
0
  6
Continuous
 62
     8
370
    15
100
AcDbCircle
 10
592.6361631009
 20
185.333641159
 30
0.0
 40
33.96743753937225
100
AcDbArc
 50
107.4063813114
 51
120.4654060811
  0
LWPOLYLINE
  5
1FF
330
1F
100
AcDbEntity
  8
0
  6
Continuous
 62
     8
370
    15
100
AcDbPolyline
 90
       15
 70
   128
 43
0.0
 10
534.2979486608
 20
160.322343525
 10
534.3120443729
 20
159.6484687275
 10
534.4600835219
 20
157.0712434087
 10
534.7555534953
 20
154.5955516817
 10
535.1972401436
 20
152.2315666947
 10
535.7833284817
 20
149.9890025692
 10
536.5114101468
 20
147.8770744821
 10
537.3784932952
 20
145.904460799
 10
538.3810148962
 20
144.0792674126
 10
539.5148553736
 20
142.408994434
 10
540.7753555337
 20
140.9005053732
 10
542.1573357108
 20
139.5599989354
 10
543.655117052
 20
138.3929835489
 10
545.2625448525
 20
137.4042547304
 10
546.569823161
 20
136.7674542117
  0
LWPOLYLINE
  5
200
330
1F
100
AcDbEntity
  8
0
  6
Continuous
 62
     8
370
    15
100
AcDbPolyline
 90
       15
 70
   128
 43
0.0
 10
597.3965171037
 20
224.8989504919
 10
597.0212576224
 20
225.1670217392
 10
595.4138298219
 20
226.1557505577
 10
593.7033608277
 20
226.9621299094
 10
591.8968793239
 20
227.5828462087
 10
590.0018085303
 20
228.0153487991
 10
588.0259356994
 20
228.2578604347
 10
585.9773801165
 20
228.3093845832
 10
583.8645597358
 20
228.1697095207
 10
581.6961565896
 20
227.8394092022
 10
579.4810811114
 20
227.3198409024
 10
577.2284355216
 20
226.6131396389
 10
574.947476424
 20
225.7222093988
 10
572.6475767689
 20
224.6507112056
 10
570.8970102698
 20
223.7206470793
  0
LWPOLYLINE
  5
201
330
1F
100
AcDbEntity
  8
0
  6
Continuous
 62
     8
370
    15
100
AcDbPolyline
 90
       26
 70
   128
 43
0.0
 10
576.1640595661
 20
213.8196748238
 10
574.0489201109
 20
212.5142753922
 10
571.9438602585
 20
211.0463859539
 10
569.8589115776
 20
209.4230016704
 10
567.8040097982
 20
207.6518587073
 10
565.7889474632
 20
205.7413973672
 10
563.8233272621
 20
203.7007218685
 10
561.9165162703
 20
201.5395569593
 10
560.0776013107
 20
199.2682015745
 10
558.3153456504
 20
196.8974797569
 10
556.6381472402
 20
194.4386890756
 10
555.0539986942
 20
191.903546788
 10
553.5704492018
 20
189.3041340014
 10
552.1945685518
 20
186.6528381017
 10
550.9329134422
 20
183.9622937211
 10
549.791496234
 20
181.245322529
 10
548.7757563001
 20
178.5148721303
 10
547.8905341038
 20
175.7839543646
 10
547.1400481321
 20
173.0655832988
 10
546.5278747923
 20
170.3727132088
 10
546.0569313692
 20
167.7181768471
 10
545.7294621227
 20
165.1146242882
 10
545.5470275928
 20
162.5744626458
 10
545.5104971632
 20
160.1097969468
 10
545.620044918
 20
157.7323724457
 10
545.6725293186
 20
157.1286551315
  0
LWPOLYLINE
  5
202
330
1F
100
AcDbEntity
  8
0
  6
Continuous
 62
     8
370
    15
100
AcDbPolyline
 90
        3
 70
   128
 43
0.0
 10
579.359186052
 20
215.471395217
 10
578.2791990213
 20
214.9563634258
 10
576.1640595661
 20
213.8196748238
  0
ENDSEC
  0
SECTION
  2
OBJECTS
  0
DICTIONARY
  5
C
330
0
100
AcDbDictionary
281
     1
  3
ACAD_GROUP
350
D
  3
ACAD_LAYOUT
350
1A
  3
ACAD_MLINESTYLE
350
17
  3
ACAD_PLOTSETTINGS
350
19
  3
ACAD_PLOTSTYLENAME
350
E
  3
ACAD_SCALELIST
350
47
  0
DICTIONARY
  5
D
102
{ACAD_REACTORS
330
C
102
}
330
C
100
AcDbDictionary
281
     1
  0
DICTIONARY
  5
1A
102
{ACAD_REACTORS
330
C
102
}
330
C
100
AcDbDictionary
281
     1
  3
Layout1
350
1E
  3
Layout2
350
26
  3
Model
350
22
  0
DICTIONARY
  5
17
102
{ACAD_REACTORS
330
C
102
}
330
C
100
AcDbDictionary
281
     1
  3
Standard
350
18
  0
DICTIONARY
  5
19
102
{ACAD_REACTORS
330
C
102
}
330
C
100
AcDbDictionary
281
     1
  0
ACDBDICTIONARYWDFLT
  5
E
102
{ACAD_REACTORS
330
C
102
}
330
C
100
AcDbDictionary
281
     1
  3
Normal
350
F
100
AcDbDictionaryWithDefault
340
F
  0
DICTIONARY
  5
47
102
{ACAD_REACTORS
330
C
102
}
330
C
100
AcDbDictionary
281
     1
  3
A0
350
48
  3
A1
350
49
  3
A2
350
4A
  3
A3
350
4B
  3
A4
350
4C
  3
A5
350
4D
  3
A6
350
4E
  3
A7
350
4F
  3
A8
350
50
  3
A9
350
51
  3
B0
350
52
  3
B1
350
53
  3
B2
350
54
  3
B3
350
55
  3
B4
350
56
  3
B5
350
57
  3
B6
350
58
  3
B7
350
59
  3
B8
350
5A
  3
B9
350
5B
  3
C0
350
5C
  3
C1
350
5D
  3
C2
350
5E
  3
C3
350
5F
  3
C4
350
60
  3
C5
350
61
  3
C6
350
62
  3
C7
350
63
  3
C8
350
64
  3
C9
350
65
  3
D0
350
66
  3
D1
350
67
  3
D2
350
68
  0
LAYOUT
  5
1E
102
{ACAD_REACTORS
330
1A
102
}
330
1A
100
AcDbPlotSettings
  1

  2
none_device
  4

  6

 40
0.0
 41
0.0
 42
0.0
 43
0.0
 44
0.0
 45
0.0
 46
0.0
 47
0.0
 48
0.0
 49
0.0
140
0.0
141
0.0
142
1.0
143
1.0
 70
   688
 72
     1
 73
     0
 74
     5
  7

 75
    16
147
1.0
148
0.0
149
0.0
100
AcDbLayout
  1
Layout1
 70
     1
 71
     1
 10
0.0
 20
0.0
 11
420.0
 21
297.0
 12
0.0
 22
0.0
 32
0.0
 14
1.0000000000E+20
 24
1.0000000000E+20
 34
1.0000000000E+20
 15
-1.0000000000E+20
 25
-1.0000000000E+20
 35
-1.0000000000E+20
146
0.0
 13
0.0
 23
0.0
 33
0.0
 16
1.0
 26
0.0
 36
0.0
 17
0.0
 27
1.0
 37
0.0
 76
     0
330
1B
  0
LAYOUT
  5
26
102
{ACAD_REACTORS
330
1A
102
}
330
1A
100
AcDbPlotSettings
  1

  2
none_device
  4

  6

 40
0.0
 41
0.0
 42
0.0
 43
0.0
 44
0.0
 45
0.0
 46
0.0
 47
0.0
 48
0.0
 49
0.0
140
0.0
141
0.0
142
1.0
143
1.0
 70
   688
 72
     1
 73
     0
 74
     5
  7

 75
    16
147
1.0
148
0.0
149
0.0
100
AcDbLayout
  1
Layout2
 70
     1
 71
     2
 10
0.0
 20
0.0
 11
0.0
 21
0.0
 12
0.0
 22
0.0
 32
0.0
 14
0.0
 24
0.0
 34
0.0
 15
0.0
 25
0.0
 35
0.0
146
0.0
 13
0.0
 23
0.0
 33
0.0
 16
1.0
 26
0.0
 36
0.0
 17
0.0
 27
1.0
 37
0.0
 76
     0
330
23
  0
LAYOUT
  5
22
102
{ACAD_REACTORS
330
1A
102
}
330
1A
100
AcDbPlotSettings
  1

  2
none_device
  4
Letter_(8.50_x_11.00_Inches)
  6

 40
6.35
 41
6.35
 42
6.35000508
 43
6.35000508
 44
215.9
 45
279.4
 46
0.0
 47
0.0
 48
0.0
 49
0.0
140
0.0
141
0.0
142
1.0
143
1.0
 70
  1712
 72
     1
 73
     0
 74
     0
  7

 75
     0
147
1.0
148
0.0
149
0.0
100
AcDbLayout
  1
Model
 70
     1
 71
     0
 10
0.0
 20
0.0
 11
841.0
 21
594.0
 12
0.0
 22
0.0
 32
0.0
 14
0.0
 24
0.0
 34
0.0
 15
841.0
 25
594.0
 35
0.0
146
0.0
 13
0.0
 23
0.0
 33
0.0
 16
1.0
 26
0.0
 36
0.0
 17
0.0
 27
1.0
 37
0.0
 76
     0
330
1F
331
29
  0
MLINESTYLE
  5
18
102
{ACAD_REACTORS
330
17
102
}
330
17
100
AcDbMlineStyle
  2
Standard
 70
     0
  3

 62
   256
 51
90.0
 52
90.0
 71
     2
 49
0.5
 62
   256
  6
BYLAYER
 49
-0.5
 62
   256
  6
BYLAYER
  0
ACDBPLACEHOLDER
  5
F
102
{ACAD_REACTORS
330
E
102
}
330
E
  0
SCALE
  5
48
102
{ACAD_REACTORS
330
47
102
}
330
47
100
AcDbScale
 70
     0
300
1:1
140
1.0
141
1.0
290
     1
  0
SCALE
  5
49
102
{ACAD_REACTORS
330
47
102
}
330
47
100
AcDbScale
 70
     0
300
1:2
140
1.0
141
2.0
290
     0
  0
SCALE
  5
4A
102
{ACAD_REACTORS
330
47
102
}
330
47
100
AcDbScale
 70
     0
300
1:4
140
1.0
141
4.0
290
     0
  0
SCALE
  5
4B
102
{ACAD_REACTORS
330
47
102
}
330
47
100
AcDbScale
 70
     0
300
1:5
140
1.0
141
5.0
290
     0
  0
SCALE
  5
4C
102
{ACAD_REACTORS
330
47
102
}
330
47
100
AcDbScale
 70
     0
300
1:8
140
1.0
141
8.0
290
     0
  0
SCALE
  5
4D
102
{ACAD_REACTORS
330
47
102
}
330
47
100
AcDbScale
 70
     0
300
1:10
140
1.0
141
10.0
290
     0
  0
SCALE
  5
4E
102
{ACAD_REACTORS
330
47
102
}
330
47
100
AcDbScale
 70
     0
300
1:16
140
1.0
141
16.0
290
     0
  0
SCALE
  5
4F
102
{ACAD_REACTORS
330
47
102
}
330
47
100
AcDbScale
 70
     0
300
1:20
140
1.0
141
20.0
290
     0
  0
SCALE
  5
50
102
{ACAD_REACTORS
330
47
102
}
330
47
100
AcDbScale
 70
     0
300
1:30
140
1.0
141
30.0
290
     0
  0
SCALE
  5
51
102
{ACAD_REACTORS
330
47
102
}
330
47
100
AcDbScale
 70
     0
300
1:40
140
1.0
141
40.0
290
     0
  0
SCALE
  5
52
102
{ACAD_REACTORS
330
47
102
}
330
47
100
AcDbScale
 70
     0
300
1:50
140
1.0
141
50.0
290
     0
  0
SCALE
  5
53
102
{ACAD_REACTORS
330
47
102
}
330
47
100
AcDbScale
 70
     0
300
1:100
140
1.0
141
100.0
290
     0
  0
SCALE
  5
54
102
{ACAD_REACTORS
330
47
102
}
330
47
100
AcDbScale
 70
     0
300
2:1
140
2.0
141
1.0
290
     0
  0
SCALE
  5
55
102
{ACAD_REACTORS
330
47
102
}
330
47
100
AcDbScale
 70
     0
300
4:1
140
4.0
141
1.0
290
     0
  0
SCALE
  5
56
102
{ACAD_REACTORS
330
47
102
}
330
47
100
AcDbScale
 70
     0
300
8:1
140
8.0
141
1.0
290
     0
  0
SCALE
  5
57
102
{ACAD_REACTORS
330
47
102
}
330
47
100
AcDbScale
 70
     0
300
10:1
140
10.0
141
1.0
290
     0
  0
SCALE
  5
58
102
{ACAD_REACTORS
330
47
102
}
330
47
100
AcDbScale
 70
     0
300
100:1
140
100.0
141
1.0
290
     0
  0
SCALE
  5
59
102
{ACAD_REACTORS
330
47
102
}
330
47
100
AcDbScale
 70
     0
300
1/128" = 1'-0"
140
0.0078125
141
12.0
290
     0
  0
SCALE
  5
5A
102
{ACAD_REACTORS
330
47
102
}
330
47
100
AcDbScale
 70
     0
300
1/64" = 1'-0"
140
0.015625
141
12.0
290
     0
  0
SCALE
  5
5B
102
{ACAD_REACTORS
330
47
102
}
330
47
100
AcDbScale
 70
     0
300
1/32" = 1'-0"
140
0.03125
141
12.0
290
     0
  0
SCALE
  5
5C
102
{ACAD_REACTORS
330
47
102
}
330
47
100
AcDbScale
 70
     0
300
1/16" = 1'-0"
140
0.0625
141
12.0
290
     0
  0
SCALE
  5
5D
102
{ACAD_REACTORS
330
47
102
}
330
47
100
AcDbScale
 70
     0
300
3/32" = 1'-0"
140
0.09375
141
12.0
290
     0
  0
SCALE
  5
5E
102
{ACAD_REACTORS
330
47
102
}
330
47
100
AcDbScale
 70
     0
300
1/8" = 1'-0"
140
0.125
141
12.0
290
     0
  0
SCALE
  5
5F
102
{ACAD_REACTORS
330
47
102
}
330
47
100
AcDbScale
 70
     0
300
3/16" = 1'-0"
140
0.1875
141
12.0
290
     0
  0
SCALE
  5
60
102
{ACAD_REACTORS
330
47
102
}
330
47
100
AcDbScale
 70
     0
300
1/4" = 1'-0"
140
0.25
141
12.0
290
     0
  0
SCALE
  5
61
102
{ACAD_REACTORS
330
47
102
}
330
47
100
AcDbScale
 70
     0
300
3/8" = 1'-0"
140
0.375
141
12.0
290
     0
  0
SCALE
  5
62
102
{ACAD_REACTORS
330
47
102
}
330
47
100
AcDbScale
 70
     0
300
1/2" = 1'-0"
140
0.5
141
12.0
290
     0
  0
SCALE
  5
63
102
{ACAD_REACTORS
330
47
102
}
330
47
100
AcDbScale
 70
     0
300
3/4" = 1'-0"
140
0.75
141
12.0
290
     0
  0
SCALE
  5
64
102
{ACAD_REACTORS
330
47
102
}
330
47
100
AcDbScale
 70
     0
300
1" = 1'-0"
140
1.0
141
12.0
290
     0
  0
SCALE
  5
65
102
{ACAD_REACTORS
330
47
102
}
330
47
100
AcDbScale
 70
     0
300
1-1/2" = 1'-0"
140
1.5
141
12.0
290
     0
  0
SCALE
  5
66
102
{ACAD_REACTORS
330
47
102
}
330
47
100
AcDbScale
 70
     0
300
3" = 1'-0"
140
3.0
141
12.0
290
     0
  0
SCALE
  5
67
102
{ACAD_REACTORS
330
47
102
}
330
47
100
AcDbScale
 70
     0
300
6" = 1'-0"
140
6.0
141
12.0
290
     0
  0
SCALE
  5
68
102
{ACAD_REACTORS
330
47
102
}
330
47
100
AcDbScale
 70
     0
300
1'-0" = 1'-0"
140
12.0
141
12.0
290
     0
  0
ENDSEC
  0
EOF
