  0
SECTION
  2
HEADER
  9
$ACADVER
  1
AC1015
  9
$ACADMAINTVER
 70
     6
  9
$DWGCODEPAGE
  3
ANSI_1252
  9
$INSBASE
 10
0.0
 20
0.0
 30
0.0
  9
$EXTMIN
 10
0.0
 20
0.0
 30
0.0
  9
$EXTMAX
 10
1189.0
 20
841.0
 30
0.0
  9
$LIMMIN
 10
0.0
 20
0.0
  9
$LIMMAX
 10
1189.0
 20
841.0
  9
$ORTHOMODE
 70
     0
  9
$REGENMODE
 70
     1
  9
$FILLMODE
 70
     1
  9
$QTEXTMODE
 70
     0
  9
$MIRRTEXT
 70
     1
  9
$LTSCALE
 40
1.0
  9
$ATTMODE
 70
     1
  9
$TEXTSIZE
 40
3.0
  9
$TRACEWID
 40
1.0
  9
$TEXTSTYLE
  7
Standard
  9
$CLAYER
  8
0
  9
$CELTYPE
  6
ByLayer
  9
$CECOLOR
 62
   256
  9
$CELTSCALE
 40
1.0
  9
$DISPSILH
 70
     0
  9
$DIMSCALE
 40
1.0
  9
$DIMASZ
 40
3.0
  9
$DIMEXO
 40
1.0
  9
$DIMDLI
 40
3.75
  9
$DIMRND
 40
0.0
  9
$DIMDLE
 40
0.0
  9
$DIMEXE
 40
1.0
  9
$DIMTP
 40
0.0
  9
$DIMTM
 40
0.0
  9
$DIMTXT
 40
3.0
  9
$DIMCEN
 40
2.5
  9
$DIMTSZ
 40
0.0
  9
$DIMTOL
 70
     0
  9
$DIMLIM
 70
     0
  9
$DIMTIH
 70
     1
  9
$DIMTOH
 70
     1
  9
$DIMSE1
 70
     0
  9
$DIMSE2
 70
     0
  9
$DIMTAD
 70
     1
  9
$DIMZIN
 70
     0
  9
$DIMBLK
  1

  9
$DIMASO
 70
     1
  9
$DIMSHO
 70
     1
  9
$DIMPOST
  1

  9
$DIMAPOST
  1

  9
$DIMALT
 70
     0
  9
$DIMALTD
 70
     3
  9
$DIMALTF
 40
0.0393700787
  9
$DIMLFAC
 40
1.0
  9
$DIMTOFL
 70
     1
  9
$DIMTVP
 40
0.0
  9
$DIMTIX
 70
     0
  9
$DIMSOXD
 70
     0
  9
$DIMSAH
 70
     0
  9
$DIMBLK1
  1

  9
$DIMBLK2
  1

  9
$DIMSTYLE
  2
ISO-25
  9
$DIMCLRD
 70
     0
  9
$DIMCLRE
 70
     0
  9
$DIMCLRT
 70
     0
  9
$DIMTFAC
 40
1.0
  9
$DIMGAP
 40
3.0
  9
$DIMJUST
 70
     0
  9
$DIMSD1
 70
     0
  9
$DIMSD2
 70
     0
  9
$DIMTOLJ
 70
     0
  9
$DIMTZIN
 70
     0
  9
$DIMALTZ
 70
     0
  9
$DIMALTTZ
 70
     0
  9
$DIMUPT
 70
     0
  9
$DIMDEC
 70
     2
  9
$DIMTDEC
 70
     3
  9
$DIMALTU
 70
     2
  9
$DIMALTTD
 70
     3
  9
$DIMTXSTY
  7
Standard
  9
$DIMAUNIT
 70
     0
  9
$DIMADEC
 70
     2
  9
$DIMALTRND
 40
0.0
  9
$DIMAZIN
 70
     0
  9
$DIMDSEP
 70
    44
  9
$DIMATFIT
 70
     3
  9
$DIMFRAC
 70
     0
  9
$DIMLDRBLK
  1

  9
$DIMLUNIT
 70
     2
  9
$DIMLWD
 70
    -2
  9
$DIMLWE
 70
    -2
  9
$DIMTMOVE
 70
     0
  9
$LUNITS
 70
     2
  9
$LUPREC
 70
     2
  9
$SKETCHINC
 40
1.0
  9
$FILLETRAD
 40
10.0
  9
$AUNITS
 70
     0
  9
$AUPREC
 70
     2
  9
$MENU
  1
.
  9
$ELEVATION
 40
0.0
  9
$PELEVATION
 40
0.0
  9
$THICKNESS
 40
0.0
  9
$LIMCHECK
 70
     0
  9
$CHAMFERA
 40
0.0
  9
$CHAMFERB
 40
0.0
  9
$CHAMFERC
 40
0.0
  9
$CHAMFERD
 40
0.0
  9
$SKPOLY
 70
     0
  9
$TDCREATE
 40
2457877.580153866
  9
$TDUCREATE
 40
2457877.496820532
  9
$TDUPDATE
 40
2457877.580154479
  9
$TDUUPDATE
 40
2457877.496821146
  9
$TDINDWG
 40
0.0000000116
  9
$TDUSRTIMER
 40
0.0000000116
  9
$USRTIMER
 70
     1
  9
$ANGBASE
 50
0.0
  9
$ANGDIR
 70
     0
  9
$PDMODE
 70
     0
  9
$PDSIZE
 40
-1.0
  9
$PLINEWID
 40
0.0
  9
$SPLFRAME
 70
     0
  9
$SPLINETYPE
 70
     6
  9
$SPLINESEGS
 70
     8
  9
$HANDSEED
  5
252
  9
$SURFTAB1
 70
     6
  9
$SURFTAB2
 70
     6
  9
$SURFTYPE
 70
     6
  9
$SURFU
 70
     6
  9
$SURFV
 70
     6
  9
$UCSBASE
  2

  9
$UCSNAME
  2

  9
$UCSORG
 10
0.0
 20
0.0
 30
0.0
  9
$UCSXDIR
 10
1.0
 20
0.0
 30
0.0
  9
$UCSYDIR
 10
0.0
 20
1.0
 30
0.0
  9
$UCSORTHOREF
  2

  9
$UCSORTHOVIEW
 70
     0
  9
$UCSORGTOP
 10
0.0
 20
0.0
 30
0.0
  9
$UCSORGBOTTOM
 10
0.0
 20
0.0
 30
0.0
  9
$UCSORGLEFT
 10
0.0
 20
0.0
 30
0.0
  9
$UCSORGRIGHT
 10
0.0
 20
0.0
 30
0.0
  9
$UCSORGFRONT
 10
0.0
 20
0.0
 30
0.0
  9
$UCSORGBACK
 10
0.0
 20
0.0
 30
0.0
  9
$PUCSBASE
  2

  9
$PUCSNAME
  2

  9
$PUCSORG
 10
0.0
 20
0.0
 30
0.0
  9
$PUCSXDIR
 10
1.0
 20
0.0
 30
0.0
  9
$PUCSYDIR
 10
0.0
 20
1.0
 30
0.0
  9
$PUCSORTHOREF
  2

  9
$PUCSORTHOVIEW
 70
     0
  9
$PUCSORGTOP
 10
0.0
 20
0.0
 30
0.0
  9
$PUCSORGBOTTOM
 10
0.0
 20
0.0
 30
0.0
  9
$PUCSORGLEFT
 10
0.0
 20
0.0
 30
0.0
  9
$PUCSORGRIGHT
 10
0.0
 20
0.0
 30
0.0
  9
$PUCSORGFRONT
 10
0.0
 20
0.0
 30
0.0
  9
$PUCSORGBACK
 10
0.0
 20
0.0
 30
0.0
  9
$USERI1
 70
     0
  9
$USERI2
 70
     0
  9
$USERI3
 70
     0
  9
$USERI4
 70
     0
  9
$USERI5
 70
     0
  9
$USERR1
 40
0.0
  9
$USERR2
 40
0.0
  9
$USERR3
 40
0.0
  9
$USERR4
 40
0.0
  9
$USERR5
 40
0.0
  9
$WORLDVIEW
 70
     1
  9
$SHADEDGE
 70
     3
  9
$SHADEDIF
 70
    70
  9
$TILEMODE
 70
     1
  9
$MAXACTVP
 70
    64
  9
$PINSBASE
 10
0.0
 20
0.0
 30
0.0
  9
$PLIMCHECK
 70
     0
  9
$PEXTMIN
 10
1.0000000000E+20
 20
1.0000000000E+20
 30
1.0000000000E+20
  9
$PEXTMAX
 10
-1.0000000000E+20
 20
-1.0000000000E+20
 30
-1.0000000000E+20
  9
$PLIMMIN
 10
0.0
 20
0.0
  9
$PLIMMAX
 10
420.0
 20
297.0
  9
$UNITMODE
 70
     0
  9
$VISRETAIN
 70
     1
  9
$PLINEGEN
 70
     0
  9
$PSLTSCALE
 70
     1
  9
$TREEDEPTH
 70
  3020
  9
$CMLSTYLE
  2
Standard
  9
$CMLJUST
 70
     0
  9
$CMLSCALE
 40
20.0
  9
$PROXYGRAPHICS
 70
     1
  9
$MEASUREMENT
 70
     1
  9
$CELWEIGHT
370
    -1
  9
$ENDCAPS
280
     0
  9
$JOINSTYLE
280
     0
  9
$LWDISPLAY
290
     1
  9
$INSUNITS
 70
     4
  9
$HYPERLINKBASE
  1

  9
$STYLESHEET
  1

  9
$XEDIT
290
     1
  9
$CEPSNTYPE
380
     0
  9
$PSTYLEMODE
290
     1
  9
$FINGERPRINTGUID
  2
{7CC262FE-D173-40FF-8F14-53F007678A4B}
  9
$VERSIONGUID
  2
{FAEB1C32-E019-11D5-929B-00C0DF256EC4}
  9
$EXTNAMES
290
     1
  9
$PSVPSCALE
 40
0.0
  9
$OLESTARTUP
290
     0
  0
ENDSEC
  0
SECTION
  2
CLASSES
  0
CLASS
  1
ACDBDICTIONARYWDFLT
  2
AcDbDictionaryWithDefault
  3
ObjectDBX Classes
 90
        0
280
     0
281
     0
  0
CLASS
  1
VISUALSTYLE
  2
AcDbVisualStyle
  3
ObjectDBX Classes
 90
     4095
280
     0
281
     0
  0
CLASS
  1
MATERIAL
  2
AcDbMaterial
  3
ObjectDBX Classes
 90
     1153
280
     0
281
     0
  0
CLASS
  1
SCALE
  2
AcDbScale
  3
ObjectDBX Classes
 90
     1153
280
     0
281
     0
  0
CLASS
  1
TABLESTYLE
  2
AcDbTableStyle
  3
ObjectDBX Classes
 90
     4095
280
     0
281
     0
  0
CLASS
  1
MLEADERSTYLE
  2
AcDbMLeaderStyle
  3
ACDB_MLEADERSTYLE_CLASS
 90
     4095
280
     0
281
     0
  0
CLASS
  1
SUN
  2
AcDbSun
  3
SCENEOE
 90
     1153
280
     0
281
     0
  0
CLASS
  1
ACDBPLACEHOLDER
  2
AcDbPlaceHolder
  3
ObjectDBX Classes
 90
        0
280
     0
281
     0
  0
CLASS
  1
LAYOUT
  2
AcDbLayout
  3
ObjectDBX Classes
 90
        0
280
     0
281
     0
  0
ENDSEC
  0
SECTION
  2
TABLES
  0
TABLE
  2
VPORT
  5
8
330
0
100
AcDbSymbolTable
 70
     1
  0
VPORT
  5
29
330
8
100
AcDbSymbolTableRecord
100
AcDbViewportTableRecord
  2
*Active
 70
     0
 10
0.0
 20
0.0
 11
1.0
 21
1.0
 12
594.5
 22
420.5
 13
0.0
 23
0.0
 14
10.0
 24
10.0
 15
10.0
 25
10.0
 16
0.0
 26
0.0
 36
1.0
 17
0.0
 27
0.0
 37
0.0
 40
841.0
 41
1.4137931034
 42
50.0
 43
0.0
 44
0.0
 50
0.0
 51
0.0
 71
     0
 72
  2000
 73
     1
 74
     3
 75
     0
 76
     0
 77
     0
 78
     0
281
     0
 65
     1
110
0.0
120
0.0
130
0.0
111
1.0
121
0.0
131
0.0
112
0.0
122
1.0
132
0.0
 79
     0
146
0.0
  0
ENDTAB
  0
TABLE
  2
LTYPE
  5
5
330
0
100
AcDbSymbolTable
 70
     6
  0
LTYPE
  5
14
330
5
100
AcDbSymbolTableRecord
100
AcDbLinetypeTableRecord
  2
ByBlock
 70
     0
  3

 72
    65
 73
     0
 40
0.0
  0
LTYPE
  5
15
330
5
100
AcDbSymbolTableRecord
100
AcDbLinetypeTableRecord
  2
ByLayer
 70
     0
  3

 72
    65
 73
     0
 40
0.0
  0
LTYPE
  5
16
330
5
100
AcDbSymbolTableRecord
100
AcDbLinetypeTableRecord
  2
Continuous
 70
     0
  3
Solid line
 72
    65
 73
     0
 40
0.0
  0
LTYPE
  5
6E
330
5
100
AcDbSymbolTableRecord
100
AcDbLinetypeTableRecord
  2
HIDDEN
 70
     0
  3
Hidden __ __ __ __ __ __ __ __ __ __ __ __ __ __
 72
    65
 73
     2
 40
1.905
 49
1.27
 74
     0
 49
-0.635
 74
     0
  0
LTYPE
  5
6F
330
5
100
AcDbSymbolTableRecord
100
AcDbLinetypeTableRecord
  2
PHANTOM
 70
     0
  3
Phantom ______  __  __  ______  __  __  ______
 72
    65
 73
     6
 40
12.7
 49
6.35
 74
     0
 49
-1.27
 74
     0
 49
1.27
 74
     0
 49
-1.27
 74
     0
 49
1.27
 74
     0
 49
-1.27
 74
     0
  0
LTYPE
  5
70
330
5
100
AcDbSymbolTableRecord
100
AcDbLinetypeTableRecord
  2
CENTER
 70
     0
  3
Center ____ _ ____ _ ____ _ ____ _ ____ _ ____
 72
    65
 73
     4
 40
10.16
 49
6.35
 74
     0
 49
-1.27
 74
     0
 49
1.27
 74
     0
 49
-1.27
 74
     0
  0
LTYPE
  5
71
330
5
100
AcDbSymbolTableRecord
100
AcDbLinetypeTableRecord
  2
CENTERX2
 70
     0
  3
Center (2x) ________  __  ________  __  _____
 72
    65
 73
     4
 40
20.32
 49
12.7
 74
     0
 49
-2.54
 74
     0
 49
2.54
 74
     0
 49
-2.54
 74
     0
  0
LTYPE
  5
72
330
5
100
AcDbSymbolTableRecord
100
AcDbLinetypeTableRecord
  2
DOT2
 70
     0
  3
Dot (.5x) ........................................
 72
    65
 73
     2
 40
0.635
 49
0.0
 74
     0
 49
-0.635
 74
     0
  0
ENDTAB
  0
TABLE
  2
LAYER
  5
2
330
0
100
AcDbSymbolTable
 70
     1
  0
LAYER
  5
10
330
2
100
AcDbSymbolTableRecord
100
AcDbLayerTableRecord
  2
0
 70
     0
 62
     7
  6
Continuous
370
    -3
390
F
  0
ENDTAB
  0
TABLE
  2
STYLE
  5
3
330
0
100
AcDbSymbolTable
 70
     5
  0
STYLE
  5
11
330
3
100
AcDbSymbolTableRecord
100
AcDbTextStyleTableRecord
  2
Standard
 70
     0
 40
0.0
 41
1.0
 50
0.0
 71
     0
 42
3.0
  3
txt
  4

  0
STYLE
  5
102
330
3
100
AcDbSymbolTableRecord
100
AcDbTextStyleTableRecord
  2
SLDTEXTSTYLE0
 70
     0
 40
0.0
 41
0.8435443038
 50
0.0
 71
     0
 42
3.0
  3
ISOCP
  4

  0
STYLE
  5
155
330
3
100
AcDbSymbolTableRecord
100
AcDbTextStyleTableRecord
  2
SLDTEXTSTYLE1
 70
     0
 40
0.0
 41
0.5316086498
 50
0.0
 71
     0
 42
3.0
  3
TXT
  4

  0
STYLE
  5
172
330
3
100
AcDbSymbolTableRecord
100
AcDbTextStyleTableRecord
  2
SLDTEXTSTYLE2
 70
     0
 40
0.0
 41
1.0126582278
 50
0.0
 71
     0
 42
3.0
  3
ISOCP
  4

  0
STYLE
  5
1A3
330
3
100
AcDbSymbolTableRecord
100
AcDbTextStyleTableRecord
  2
SLDTEXTSTYLE3
 70
     0
 40
0.0
 41
0.96
 50
0.0
 71
     0
 42
3.0
  3
ISOCP
  4

  0
ENDTAB
  0
TABLE
  2
VIEW
  5
6
330
0
100
AcDbSymbolTable
 70
     0
  0
ENDTAB
  0
TABLE
  2
UCS
  5
7
330
0
100
AcDbSymbolTable
 70
     0
  0
ENDTAB
  0
TABLE
  2
APPID
  5
9
330
0
100
AcDbSymbolTable
 70
     1
  0
APPID
  5
12
330
9
100
AcDbSymbolTableRecord
100
AcDbRegAppTableRecord
  2
ACAD
 70
     0
  0
ENDTAB
  0
TABLE
  2
DIMSTYLE
  5
A
330
0
100
AcDbSymbolTable
 70
     1
100
AcDbDimStyleTable
  0
DIMSTYLE
105
27
330
A
100
AcDbSymbolTableRecord
100
AcDbDimStyleTableRecord
  2
ISO-25
 70
     0
 41
2.5
 42
0.625
 43
3.75
 44
1.25
 73
     0
 74
     0
 77
     1
 78
     8
140
2.5
141
2.5
143
0.0393700787
147
0.625
171
     3
172
     1
178
     0
271
     2
272
     2
274
     3
278
    44
283
     0
284
     8
340
11
  0
ENDTAB
  0
TABLE
  2
BLOCK_RECORD
  5
1
330
0
100
AcDbSymbolTable
 70
     4
  0
BLOCK_RECORD
  5
1F
330
1
100
AcDbSymbolTableRecord
100
AcDbBlockTableRecord
  2
*Model_Space
340
22
  0
BLOCK_RECORD
  5
1B
330
1
100
AcDbSymbolTableRecord
100
AcDbBlockTableRecord
  2
*Paper_Space
340
1E
  0
BLOCK_RECORD
  5
23
330
1
100
AcDbSymbolTableRecord
100
AcDbBlockTableRecord
  2
*Paper_Space0
340
26
  0
BLOCK_RECORD
  5
73
330
1
100
AcDbSymbolTableRecord
100
AcDbBlockTableRecord
  2
A0H
340
0
  0
BLOCK_RECORD
  5
15E
330
1
100
AcDbSymbolTableRecord
100
AcDbBlockTableRecord
  2
ISO2768
340
0
  0
BLOCK_RECORD
  5
1A0
330
1
100
AcDbSymbolTableRecord
100
AcDbBlockTableRecord
  2
Nota legale
340
0
  0
ENDTAB
  0
ENDSEC
  0
SECTION
  2
BLOCKS
  0
BLOCK
  5
20
330
1F
100
AcDbEntity
  8
0
100
AcDbBlockBegin
  2
*Model_Space
 70
     0
 10
0.0
 20
0.0
 30
0.0
  3
*Model_Space
  1

  0
ENDBLK
  5
21
330
1F
100
AcDbEntity
  8
0
100
AcDbBlockEnd
  0
BLOCK
  5
1C
330
1B
100
AcDbEntity
 67
     1
  8
0
100
AcDbBlockBegin
  2
*Paper_Space
 70
     0
 10
0.0
 20
0.0
 30
0.0
  3
*Paper_Space
  1

  0
ENDBLK
  5
1D
330
1B
100
AcDbEntity
 67
     1
  8
0
100
AcDbBlockEnd
  0
BLOCK
  5
24
330
23
100
AcDbEntity
  8
0
100
AcDbBlockBegin
  2
*Paper_Space0
 70
     0
 10
0.0
 20
0.0
 30
0.0
  3
*Paper_Space0
  1

  0
ENDBLK
  5
25
330
23
100
AcDbEntity
  8
0
100
AcDbBlockEnd
  0
BLOCK
  5
74
330
73
100
AcDbEntity
  8
0
100
AcDbBlockBegin
  2
A0H
 70
     0
 10
0.0
 20
0.0
 30
0.0
  3
A0H
  1

  0
LINE
  5
76
330
73
100
AcDbEntity
  8
0
  6
Continuous
 62
     7
370
     0
100
AcDbLine
 10
139.0
 20
830.9999999407
 30
0.0
 11
139.0
 21
836.0
 31
0.0
  0
LINE
  5
77
330
73
100
AcDbEntity
  8
0
  6
Continuous
 62
     7
370
     0
100
AcDbLine
 10
349.0
 20
830.9999999407
 30
0.0
 11
349.0
 21
836.0
 31
0.0
  0
LINE
  5
78
330
73
100
AcDbEntity
  8
0
  6
Continuous
 62
     7
370
     0
100
AcDbLine
 10
559.0
 20
830.9999999407
 30
0.0
 11
559.0
 21
836.0
 31
0.0
  0
LINE
  5
79
330
73
100
AcDbEntity
  8
0
  6
Continuous
 62
     7
370
     0
100
AcDbLine
 10
769.0
 20
830.9999999407
 30
0.0
 11
769.0
 21
836.0
 31
0.0
  0
LINE
  5
7A
330
73
100
AcDbEntity
  8
0
  6
Continuous
 62
     7
370
     0
100
AcDbLine
 10
979.0
 20
830.9999999407
 30
0.0
 11
979.0
 21
836.0
 31
0.0
  0
LINE
  5
7B
330
73
100
AcDbEntity
  8
0
  6
Continuous
 62
     7
370
     0
100
AcDbLine
 10
329.4999999291
 20
830.9999999407
 30
0.0
 11
327.3865971476
 21
836.0
 31
0.0
  0
LINE
  5
7C
330
73
100
AcDbEntity
  8
0
  6
Continuous
 62
     7
370
     0
100
AcDbLine
 10
329.4999999291
 20
830.9999999407
 30
0.0
 11
331.6134037388
 21
836.0
 31
0.0
  0
LINE
  5
7D
330
73
100
AcDbEntity
  8
0
  6
Continuous
 62
     7
370
     0
100
AcDbLine
 10
263.9999999307
 20
830.9999999407
 30
0.0
 11
261.8865971369
 21
836.0
 31
0.0
  0
LINE
  5
7E
330
73
100
AcDbEntity
  8
0
  6
Continuous
 62
     7
370
     0
100
AcDbLine
 10
263.9999999307
 20
830.9999999407
 30
0.0
 11
266.1134037507
 21
836.0
 31
0.0
  0
LINE
  5
7F
330
73
100
AcDbEntity
  8
0
  6
Continuous
 62
     7
370
     0
100
AcDbLine
 10
634.0
 20
830.9999999407
 30
0.0
 11
631.8865971264
 21
836.0
 31
0.0
  0
LINE
  5
80
330
73
100
AcDbEntity
  8
0
  6
Continuous
 62
     7
370
     0
100
AcDbLine
 10
634.0
 20
830.9999999407
 30
0.0
 11
636.1134038095
 21
836.0
 31
0.0
  0
LINE
  5
81
330
73
100
AcDbEntity
  8
0
  6
Continuous
 62
     7
370
     0
100
AcDbLine
 10
1004.0
 20
830.9999999407
 30
0.0
 11
1001.8865971264
 21
836.0
 31
0.0
  0
LINE
  5
82
330
73
100
AcDbEntity
  8
0
  6
Continuous
 62
     7
370
     0
100
AcDbLine
 10
1004.0
 20
830.9999999407
 30
0.0
 11
1006.1134038095
 21
836.0
 31
0.0
  0
LINE
  5
83
330
73
100
AcDbEntity
  8
0
  6
Continuous
 62
     7
370
     0
100
AcDbLine
 10
1179.0
 20
297.0
 30
0.0
 11
1183.9999314379
 21
299.1133751678
 31
0.0
  0
LINE
  5
84
330
73
100
AcDbEntity
  8
0
  6
Continuous
 62
     7
370
     0
100
AcDbLine
 10
1179.0
 20
297.0
 30
0.0
 11
1183.9999314379
 21
294.8866264869
 31
0.0
  0
LINE
  5
85
330
73
100
AcDbEntity
  8
0
  6
Continuous
 62
     7
370
     0
100
AcDbLine
 10
1179.0
 20
594.0
 30
0.0
 11
1183.9999314379
 21
596.1133751678
 31
0.0
  0
LINE
  5
86
330
73
100
AcDbEntity
  8
0
  6
Continuous
 62
     7
370
     0
100
AcDbLine
 10
1179.0
 20
594.0
 30
0.0
 11
1183.9999314379
 21
591.8866264868
 31
0.0
  0
LINE
  5
87
330
73
100
AcDbEntity
  8
0
  6
Continuous
 62
     7
370
     0
100
AcDbLine
 10
979.0
 20
5.0
 30
0.0
 11
979.0
 21
10.0
 31
0.0
  0
LINE
  5
88
330
73
100
AcDbEntity
  8
0
  6
Continuous
 62
     7
370
     0
100
AcDbLine
 10
769.0
 20
5.0
 30
0.0
 11
769.0
 21
10.0
 31
0.0
  0
LINE
  5
89
330
73
100
AcDbEntity
  8
0
  6
Continuous
 62
     7
370
     0
100
AcDbLine
 10
559.0
 20
5.0
 30
0.0
 11
559.0
 21
10.0
 31
0.0
  0
LINE
  5
8A
330
73
100
AcDbEntity
  8
0
  6
Continuous
 62
     7
370
     0
100
AcDbLine
 10
349.0
 20
5.0
 30
0.0
 11
349.0
 21
10.0
 31
0.0
  0
LINE
  5
8B
330
73
100
AcDbEntity
  8
0
  6
Continuous
 62
     7
370
     0
100
AcDbLine
 10
139.0
 20
5.0
 30
0.0
 11
139.0
 21
10.0
 31
0.0
  0
LINE
  5
8C
330
73
100
AcDbEntity
  8
0
  6
Continuous
 62
     7
370
     0
100
AcDbLine
 10
264.0
 20
10.0
 30
0.0
 11
266.1134033203
 21
5.0
 31
0.0
  0
LINE
  5
8D
330
73
100
AcDbEntity
  8
0
  6
Continuous
 62
     7
370
     0
100
AcDbLine
 10
264.0
 20
10.0
 30
0.0
 11
261.8865966797
 21
5.0
 31
0.0
  0
LINE
  5
8E
330
73
100
AcDbEntity
  8
0
  6
Continuous
 62
     7
370
     0
100
AcDbLine
 10
329.5
 20
10.0
 30
0.0
 11
331.6134033203
 21
5.0
 31
0.0
  0
LINE
  5
8F
330
73
100
AcDbEntity
  8
0
  6
Continuous
 62
     7
370
     0
100
AcDbLine
 10
329.5
 20
10.0
 30
0.0
 11
327.3865966797
 21
5.0
 31
0.0
  0
LINE
  5
90
330
73
100
AcDbEntity
  8
0
  6
Continuous
 62
     7
370
     0
100
AcDbLine
 10
634.0
 20
10.0
 30
0.0
 11
636.1134033203
 21
5.0
 31
0.0
  0
LINE
  5
91
330
73
100
AcDbEntity
  8
0
  6
Continuous
 62
     7
370
     0
100
AcDbLine
 10
634.0
 20
10.0
 30
0.0
 11
631.8865966797
 21
5.0
 31
0.0
  0
LINE
  5
92
330
73
100
AcDbEntity
  8
0
  6
Continuous
 62
     7
370
     0
100
AcDbLine
 10
1004.0
 20
10.0
 30
0.0
 11
1006.1134033203
 21
5.0
 31
0.0
  0
LINE
  5
93
330
73
100
AcDbEntity
  8
0
  6
Continuous
 62
     7
370
     0
100
AcDbLine
 10
1004.0
 20
10.0
 30
0.0
 11
1001.8865966797
 21
5.0
 31
0.0
  0
LINE
  5
94
330
73
100
AcDbEntity
  8
0
  6
Continuous
 62
     7
370
     0
100
AcDbLine
 10
1034.124999986
 20
5.0
 30
0.0
 11
1034.124999986
 21
10.0
 31
0.0
  0
LINE
  5
95
330
73
100
AcDbEntity
  8
0
  6
Continuous
 62
     7
370
     0
100
AcDbLine
 10
985.83333332
 20
5.0
 30
0.0
 11
985.83333332
 21
10.0
 31
0.0
  0
LINE
  5
96
330
73
100
AcDbEntity
  8
0
  6
Continuous
 62
     7
370
     0
100
AcDbLine
 10
937.541666654
 20
5.0
 30
0.0
 11
937.541666654
 21
10.0
 31
0.0
  0
LINE
  5
97
330
73
100
AcDbEntity
  8
0
  6
Continuous
 62
     7
370
     0
100
AcDbLine
 10
889.249999988
 20
5.0
 30
0.0
 11
889.249999988
 21
10.0
 31
0.0
  0
LINE
  5
98
330
73
100
AcDbEntity
  8
0
  6
Continuous
 62
     7
370
     0
100
AcDbLine
 10
840.958333322
 20
5.0
 30
0.0
 11
840.958333322
 21
10.0
 31
0.0
  0
LINE
  5
99
330
73
100
AcDbEntity
  8
0
  6
Continuous
 62
     7
370
     0
100
AcDbLine
 10
792.666666656
 20
5.0
 30
0.0
 11
792.666666656
 21
10.0
 31
0.0
  0
LINE
  5
9A
330
73
100
AcDbEntity
  8
0
  6
Continuous
 62
     7
370
     0
100
AcDbLine
 10
744.37499999
 20
5.0
 30
0.0
 11
744.37499999
 21
10.0
 31
0.0
  0
LINE
  5
9B
330
73
100
AcDbEntity
  8
0
  6
Continuous
 62
     7
370
     0
100
AcDbLine
 10
696.083333324
 20
5.0
 30
0.0
 11
696.083333324
 21
10.0
 31
0.0
  0
LINE
  5
9C
330
73
100
AcDbEntity
  8
0
  6
Continuous
 62
     7
370
     0
100
AcDbLine
 10
647.791666658
 20
5.0
 30
0.0
 11
647.791666658
 21
10.0
 31
0.0
  0
LINE
  5
9D
330
73
100
AcDbEntity
  8
0
  6
Continuous
 62
     7
370
     0
100
AcDbLine
 10
599.499999992
 20
5.0
 30
0.0
 11
599.499999992
 21
10.0
 31
0.0
  0
LINE
  5
9E
330
73
100
AcDbEntity
  8
0
  6
Continuous
 62
     7
370
     0
100
AcDbLine
 10
551.208333326
 20
5.0
 30
0.0
 11
551.208333326
 21
10.0
 31
0.0
  0
LINE
  5
9F
330
73
100
AcDbEntity
  8
0
  6
Continuous
 62
     7
370
     0
100
AcDbLine
 10
502.91666666
 20
5.0
 30
0.0
 11
502.91666666
 21
10.0
 31
0.0
  0
LINE
  5
A0
330
73
100
AcDbEntity
  8
0
  6
Continuous
 62
     7
370
     0
100
AcDbLine
 10
454.624999994
 20
5.0
 30
0.0
 11
454.624999994
 21
10.0
 31
0.0
  0
LINE
  5
A1
330
73
100
AcDbEntity
  8
0
  6
Continuous
 62
     7
370
     0
100
AcDbLine
 10
406.333333328
 20
5.0
 30
0.0
 11
406.333333328
 21
10.0
 31
0.0
  0
LINE
  5
A2
330
73
100
AcDbEntity
  8
0
  6
Continuous
 62
     7
370
     0
100
AcDbLine
 10
358.041666662
 20
5.0
 30
0.0
 11
358.041666662
 21
10.0
 31
0.0
  0
LINE
  5
A3
330
73
100
AcDbEntity
  8
0
  6
Continuous
 62
     7
370
     0
100
AcDbLine
 10
309.749999996
 20
5.0
 30
0.0
 11
309.749999996
 21
10.0
 31
0.0
  0
LINE
  5
A4
330
73
100
AcDbEntity
  8
0
  6
Continuous
 62
     7
370
     0
100
AcDbLine
 10
261.45833333
 20
5.0
 30
0.0
 11
261.45833333
 21
10.0
 31
0.0
  0
LINE
  5
A5
330
73
100
AcDbEntity
  8
0
  6
Continuous
 62
     7
370
     0
100
AcDbLine
 10
213.166666664
 20
5.0
 30
0.0
 11
213.166666664
 21
10.0
 31
0.0
  0
LINE
  5
A6
330
73
100
AcDbEntity
  8
0
  6
Continuous
 62
     7
370
     0
100
AcDbLine
 10
164.874999998
 20
5.0
 30
0.0
 11
164.874999998
 21
10.0
 31
0.0
  0
LINE
  5
A7
330
73
100
AcDbEntity
  8
0
  6
Continuous
 62
     7
370
     0
100
AcDbLine
 10
116.583333332
 20
5.0
 30
0.0
 11
116.583333332
 21
10.0
 31
0.0
  0
LINE
  5
A8
330
73
100
AcDbEntity
  8
0
  6
Continuous
 62
     7
370
     0
100
AcDbLine
 10
68.291666666
 20
5.0
 30
0.0
 11
68.291666666
 21
10.0
 31
0.0
  0
LINE
  5
A9
330
73
100
AcDbEntity
  8
0
  6
Continuous
 62
     7
370
     0
100
AcDbLine
 10
1183.9999314379
 20
55.61111113
 30
0.0
 11
1179.0
 21
55.61111113
 31
0.0
  0
LINE
  5
AA
330
73
100
AcDbEntity
  8
0
  6
Continuous
 62
     7
370
     0
100
AcDbLine
 10
1183.9999314379
 20
101.22222224
 30
0.0
 11
1179.0
 21
101.22222224
 31
0.0
  0
LINE
  5
AB
330
73
100
AcDbEntity
  8
0
  6
Continuous
 62
     7
370
     0
100
AcDbLine
 10
1183.9999314379
 20
146.83333335
 30
0.0
 11
1179.0
 21
146.83333335
 31
0.0
  0
LINE
  5
AC
330
73
100
AcDbEntity
  8
0
  6
Continuous
 62
     7
370
     0
100
AcDbLine
 10
1183.9999314379
 20
192.44444446
 30
0.0
 11
1179.0
 21
192.44444446
 31
0.0
  0
LINE
  5
AD
330
73
100
AcDbEntity
  8
0
  6
Continuous
 62
     7
370
     0
100
AcDbLine
 10
1183.9999314379
 20
238.05555557
 30
0.0
 11
1179.0
 21
238.05555557
 31
0.0
  0
LINE
  5
AE
330
73
100
AcDbEntity
  8
0
  6
Continuous
 62
     7
370
     0
100
AcDbLine
 10
1183.9999314379
 20
283.66666668
 30
0.0
 11
1179.0
 21
283.66666668
 31
0.0
  0
LINE
  5
AF
330
73
100
AcDbEntity
  8
0
  6
Continuous
 62
     7
370
     0
100
AcDbLine
 10
1183.9999314379
 20
329.27777779
 30
0.0
 11
1179.0
 21
329.27777779
 31
0.0
  0
LINE
  5
B0
330
73
100
AcDbEntity
  8
0
  6
Continuous
 62
     7
370
     0
100
AcDbLine
 10
1183.9999314379
 20
374.8888889
 30
0.0
 11
1179.0
 21
374.8888889
 31
0.0
  0
LINE
  5
B1
330
73
100
AcDbEntity
  8
0
  6
Continuous
 62
     7
370
     0
100
AcDbLine
 10
1183.9999314379
 20
420.50000001
 30
0.0
 11
1179.0
 21
420.50000001
 31
0.0
  0
LINE
  5
B2
330
73
100
AcDbEntity
  8
0
  6
Continuous
 62
     7
370
     0
100
AcDbLine
 10
1183.9999314379
 20
466.11111112
 30
0.0
 11
1179.0
 21
466.11111112
 31
0.0
  0
LINE
  5
B3
330
73
100
AcDbEntity
  8
0
  6
Continuous
 62
     7
370
     0
100
AcDbLine
 10
1183.9999314379
 20
511.72222223
 30
0.0
 11
1179.0
 21
511.72222223
 31
0.0
  0
LINE
  5
B4
330
73
100
AcDbEntity
  8
0
  6
Continuous
 62
     7
370
     0
100
AcDbLine
 10
1183.9999314379
 20
557.33333334
 30
0.0
 11
1179.0
 21
557.33333334
 31
0.0
  0
LINE
  5
B5
330
73
100
AcDbEntity
  8
0
  6
Continuous
 62
     7
370
     0
100
AcDbLine
 10
1183.9999314379
 20
602.94444445
 30
0.0
 11
1179.0
 21
602.94444445
 31
0.0
  0
LINE
  5
B6
330
73
100
AcDbEntity
  8
0
  6
Continuous
 62
     7
370
     0
100
AcDbLine
 10
1183.9999314379
 20
648.55555556
 30
0.0
 11
1179.0
 21
648.55555556
 31
0.0
  0
LINE
  5
B7
330
73
100
AcDbEntity
  8
0
  6
Continuous
 62
     7
370
     0
100
AcDbLine
 10
1183.9999314379
 20
694.16666667
 30
0.0
 11
1179.0
 21
694.16666667
 31
0.0
  0
LINE
  5
B8
330
73
100
AcDbEntity
  8
0
  6
Continuous
 62
     7
370
     0
100
AcDbLine
 10
1183.9999314379
 20
739.77777778
 30
0.0
 11
1179.0
 21
739.77777778
 31
0.0
  0
LINE
  5
B9
330
73
100
AcDbEntity
  8
0
  6
Continuous
 62
     7
370
     0
100
AcDbLine
 10
1183.9999314379
 20
785.38888889
 30
0.0
 11
1179.0
 21
785.38888889
 31
0.0
  0
LINE
  5
BA
330
73
100
AcDbEntity
  8
0
  6
Continuous
 62
     7
370
     0
100
AcDbLine
 10
20.0
 20
10.0
 30
0.0
 11
15.0
 21
10.0
 31
0.0
  0
LINE
  5
BB
330
73
100
AcDbEntity
  8
0
  6
Continuous
 62
     7
370
     0
100
AcDbLine
 10
20.0
 20
55.61111113
 30
0.0
 11
15.0
 21
55.61111113
 31
0.0
  0
LINE
  5
BC
330
73
100
AcDbEntity
  8
0
  6
Continuous
 62
     7
370
     0
100
AcDbLine
 10
20.0
 20
101.22222224
 30
0.0
 11
15.0
 21
101.22222224
 31
0.0
  0
LINE
  5
BD
330
73
100
AcDbEntity
  8
0
  6
Continuous
 62
     7
370
     0
100
AcDbLine
 10
20.0
 20
146.83333335
 30
0.0
 11
15.0
 21
146.83333335
 31
0.0
  0
LINE
  5
BE
330
73
100
AcDbEntity
  8
0
  6
Continuous
 62
     7
370
     0
100
AcDbLine
 10
20.0
 20
192.44444446
 30
0.0
 11
15.0
 21
192.44444446
 31
0.0
  0
LINE
  5
BF
330
73
100
AcDbEntity
  8
0
  6
Continuous
 62
     7
370
     0
100
AcDbLine
 10
20.0
 20
238.05555557
 30
0.0
 11
15.0
 21
238.05555557
 31
0.0
  0
LINE
  5
C0
330
73
100
AcDbEntity
  8
0
  6
Continuous
 62
     7
370
     0
100
AcDbLine
 10
20.0
 20
283.66666668
 30
0.0
 11
15.0
 21
283.66666668
 31
0.0
  0
LINE
  5
C1
330
73
100
AcDbEntity
  8
0
  6
Continuous
 62
     7
370
     0
100
AcDbLine
 10
20.0
 20
329.27777779
 30
0.0
 11
15.0
 21
329.27777779
 31
0.0
  0
LINE
  5
C2
330
73
100
AcDbEntity
  8
0
  6
Continuous
 62
     7
370
     0
100
AcDbLine
 10
20.0
 20
374.8888889
 30
0.0
 11
15.0
 21
374.8888889
 31
0.0
  0
LINE
  5
C3
330
73
100
AcDbEntity
  8
0
  6
Continuous
 62
     7
370
     0
100
AcDbLine
 10
20.0
 20
420.50000001
 30
0.0
 11
15.0
 21
420.50000001
 31
0.0
  0
LINE
  5
C4
330
73
100
AcDbEntity
  8
0
  6
Continuous
 62
     7
370
     0
100
AcDbLine
 10
20.0
 20
466.11111112
 30
0.0
 11
15.0
 21
466.11111112
 31
0.0
  0
LINE
  5
C5
330
73
100
AcDbEntity
  8
0
  6
Continuous
 62
     7
370
     0
100
AcDbLine
 10
20.0
 20
511.72222223
 30
0.0
 11
15.0
 21
511.72222223
 31
0.0
  0
LINE
  5
C6
330
73
100
AcDbEntity
  8
0
  6
Continuous
 62
     7
370
     0
100
AcDbLine
 10
20.0
 20
557.33333334
 30
0.0
 11
15.0
 21
557.33333334
 31
0.0
  0
LINE
  5
C7
330
73
100
AcDbEntity
  8
0
  6
Continuous
 62
     7
370
     0
100
AcDbLine
 10
20.0
 20
602.94444445
 30
0.0
 11
15.0
 21
602.94444445
 31
0.0
  0
LINE
  5
C8
330
73
100
AcDbEntity
  8
0
  6
Continuous
 62
     7
370
     0
100
AcDbLine
 10
20.0
 20
648.55555556
 30
0.0
 11
15.0
 21
648.55555556
 31
0.0
  0
LINE
  5
C9
330
73
100
AcDbEntity
  8
0
  6
Continuous
 62
     7
370
     0
100
AcDbLine
 10
20.0
 20
694.16666667
 30
0.0
 11
15.0
 21
694.16666667
 31
0.0
  0
LINE
  5
CA
330
73
100
AcDbEntity
  8
0
  6
Continuous
 62
     7
370
     0
100
AcDbLine
 10
20.0
 20
739.77777778
 30
0.0
 11
15.0
 21
739.77777778
 31
0.0
  0
LINE
  5
CB
330
73
100
AcDbEntity
  8
0
  6
Continuous
 62
     7
370
     0
100
AcDbLine
 10
1179.0
 20
830.9999999407
 30
0.0
 11
1179.0
 21
836.0
 31
0.0
  0
LINE
  5
CC
330
73
100
AcDbEntity
  8
0
  6
Continuous
 62
     7
370
     0
100
AcDbLine
 10
1130.708333318
 20
830.9999999407
 30
0.0
 11
1130.708333318
 21
836.0
 31
0.0
  0
LINE
  5
CD
330
73
100
AcDbEntity
  8
0
  6
Continuous
 62
     7
370
     0
100
AcDbLine
 10
1082.416666652
 20
830.9999999407
 30
0.0
 11
1082.416666652
 21
836.0
 31
0.0
  0
LINE
  5
CE
330
73
100
AcDbEntity
  8
0
  6
Continuous
 62
     7
370
     0
100
AcDbLine
 10
1034.124999986
 20
830.9999999407
 30
0.0
 11
1034.124999986
 21
836.0
 31
0.0
  0
LINE
  5
CF
330
73
100
AcDbEntity
  8
0
  6
Continuous
 62
     7
370
     0
100
AcDbLine
 10
985.83333332
 20
830.9999999407
 30
0.0
 11
985.83333332
 21
836.0
 31
0.0
  0
LINE
  5
D0
330
73
100
AcDbEntity
  8
0
  6
Continuous
 62
     7
370
     0
100
AcDbLine
 10
937.541666654
 20
830.9999999407
 30
0.0
 11
937.541666654
 21
836.0
 31
0.0
  0
LINE
  5
D1
330
73
100
AcDbEntity
  8
0
  6
Continuous
 62
     7
370
     0
100
AcDbLine
 10
889.249999988
 20
830.9999999407
 30
0.0
 11
889.249999988
 21
836.0
 31
0.0
  0
LINE
  5
D2
330
73
100
AcDbEntity
  8
0
  6
Continuous
 62
     7
370
     0
100
AcDbLine
 10
840.958333322
 20
830.9999999407
 30
0.0
 11
840.958333322
 21
836.0
 31
0.0
  0
LINE
  5
D3
330
73
100
AcDbEntity
  8
0
  6
Continuous
 62
     7
370
     0
100
AcDbLine
 10
792.666666656
 20
830.9999999407
 30
0.0
 11
792.666666656
 21
836.0
 31
0.0
  0
LINE
  5
D4
330
73
100
AcDbEntity
  8
0
  6
Continuous
 62
     7
370
     0
100
AcDbLine
 10
744.37499999
 20
830.9999999407
 30
0.0
 11
744.37499999
 21
836.0
 31
0.0
  0
LINE
  5
D5
330
73
100
AcDbEntity
  8
0
  6
Continuous
 62
     7
370
     0
100
AcDbLine
 10
696.083333324
 20
830.9999999407
 30
0.0
 11
696.083333324
 21
836.0
 31
0.0
  0
LINE
  5
D6
330
73
100
AcDbEntity
  8
0
  6
Continuous
 62
     7
370
     0
100
AcDbLine
 10
647.791666658
 20
830.9999999407
 30
0.0
 11
647.791666658
 21
836.0
 31
0.0
  0
LINE
  5
D7
330
73
100
AcDbEntity
  8
0
  6
Continuous
 62
     7
370
     0
100
AcDbLine
 10
599.499999992
 20
830.9999999407
 30
0.0
 11
599.499999992
 21
836.0
 31
0.0
  0
LINE
  5
D8
330
73
100
AcDbEntity
  8
0
  6
Continuous
 62
     7
370
     0
100
AcDbLine
 10
551.208333326
 20
830.9999999407
 30
0.0
 11
551.208333326
 21
836.0
 31
0.0
  0
LINE
  5
D9
330
73
100
AcDbEntity
  8
0
  6
Continuous
 62
     7
370
     0
100
AcDbLine
 10
502.91666666
 20
830.9999999407
 30
0.0
 11
502.91666666
 21
836.0
 31
0.0
  0
LINE
  5
DA
330
73
100
AcDbEntity
  8
0
  6
Continuous
 62
     7
370
     0
100
AcDbLine
 10
454.624999994
 20
830.9999999407
 30
0.0
 11
454.624999994
 21
836.0
 31
0.0
  0
LINE
  5
DB
330
73
100
AcDbEntity
  8
0
  6
Continuous
 62
     7
370
     0
100
AcDbLine
 10
406.333333328
 20
830.9999999407
 30
0.0
 11
406.333333328
 21
836.0
 31
0.0
  0
LINE
  5
DC
330
73
100
AcDbEntity
  8
0
  6
Continuous
 62
     7
370
     0
100
AcDbLine
 10
358.041666662
 20
830.9999999407
 30
0.0
 11
358.041666662
 21
836.0
 31
0.0
  0
LINE
  5
DD
330
73
100
AcDbEntity
  8
0
  6
Continuous
 62
     7
370
     0
100
AcDbLine
 10
309.749999996
 20
830.9999999407
 30
0.0
 11
309.749999996
 21
836.0
 31
0.0
  0
LINE
  5
DE
330
73
100
AcDbEntity
  8
0
  6
Continuous
 62
     7
370
     0
100
AcDbLine
 10
261.45833333
 20
830.9999999407
 30
0.0
 11
261.45833333
 21
836.0
 31
0.0
  0
LINE
  5
DF
330
73
100
AcDbEntity
  8
0
  6
Continuous
 62
     7
370
     0
100
AcDbLine
 10
213.166666664
 20
830.9999999407
 30
0.0
 11
213.166666664
 21
836.0
 31
0.0
  0
LINE
  5
E0
330
73
100
AcDbEntity
  8
0
  6
Continuous
 62
     7
370
     0
100
AcDbLine
 10
164.874999998
 20
830.9999999407
 30
0.0
 11
164.874999998
 21
836.0
 31
0.0
  0
LINE
  5
E1
330
73
100
AcDbEntity
  8
0
  6
Continuous
 62
     7
370
     0
100
AcDbLine
 10
116.583333332
 20
830.9999999407
 30
0.0
 11
116.583333332
 21
836.0
 31
0.0
  0
LINE
  5
E2
330
73
100
AcDbEntity
  8
0
  6
Continuous
 62
     7
370
     0
100
AcDbLine
 10
1169.0
 20
10.0
 30
0.0
 11
1169.0
 21
5.0
 31
0.0
  0
LINE
  5
E3
330
73
100
AcDbEntity
  8
0
  6
Continuous
 62
     7
370
     0
100
AcDbLine
 10
1159.0
 20
10.0
 30
0.0
 11
1159.0
 21
5.0
 31
0.0
  0
LINE
  5
E4
330
73
100
AcDbEntity
  8
0
  6
Continuous
 62
     7
370
     0
100
AcDbLine
 10
1149.0
 20
10.0
 30
0.0
 11
1149.0
 21
5.0
 31
0.0
  0
LINE
  5
E5
330
73
100
AcDbEntity
  8
0
  6
Continuous
 62
     7
370
     0
100
AcDbLine
 10
1139.0
 20
10.0
 30
0.0
 11
1139.0
 21
5.0
 31
0.0
  0
LINE
  5
E6
330
73
100
AcDbEntity
  8
0
  6
Continuous
 62
     7
370
     0
100
AcDbLine
 10
1129.0
 20
10.0
 30
0.0
 11
1129.0
 21
5.0
 31
0.0
  0
LINE
  5
E7
330
73
100
AcDbEntity
  8
0
  6
Continuous
 62
     7
370
     0
100
AcDbLine
 10
1119.0
 20
10.0
 30
0.0
 11
1119.0
 21
5.0
 31
0.0
  0
LINE
  5
E8
330
73
100
AcDbEntity
  8
0
  6
Continuous
 62
     7
370
     0
100
AcDbLine
 10
1109.0
 20
10.0
 30
0.0
 11
1109.0
 21
5.0
 31
0.0
  0
LINE
  5
E9
330
73
100
AcDbEntity
  8
0
  6
Continuous
 62
     7
370
     0
100
AcDbLine
 10
1099.0
 20
10.0
 30
0.0
 11
1099.0
 21
5.0
 31
0.0
  0
LINE
  5
EA
330
73
100
AcDbEntity
  8
0
  6
Continuous
 62
     7
370
     0
100
AcDbLine
 10
1089.0
 20
10.0
 30
0.0
 11
1089.0
 21
5.0
 31
0.0
  0
LINE
  5
EB
330
73
100
AcDbEntity
  8
0
  6
Continuous
 62
     7
370
     0
100
AcDbLine
 10
1079.0
 20
10.0
 30
0.0
 11
1079.0
 21
5.0
 31
0.0
  0
LINE
  5
EC
330
73
100
AcDbEntity
  8
0
  6
Continuous
 62
     7
370
     0
100
AcDbLine
 10
20.0
 20
785.38888889
 30
0.0
 11
15.0
 21
785.38888889
 31
0.0
  0
LINE
  5
ED
330
73
100
AcDbEntity
  8
0
  6
Continuous
 62
     7
370
     0
100
AcDbLine
 10
68.291666666
 20
830.9999999407
 30
0.0
 11
68.291666666
 21
836.0
 31
0.0
  0
LINE
  5
EE
330
73
100
AcDbEntity
  8
0
  6
Continuous
 62
     7
370
     0
100
AcDbLine
 10
1183.9999314379
 20
5.0
 30
0.0
 11
1183.9999314379
 21
836.0
 31
0.0
  0
LINE
  5
EF
330
73
100
AcDbEntity
  8
0
  6
Continuous
 62
     7
370
     0
100
AcDbLine
 10
1183.9999314379
 20
5.0
 30
0.0
 11
15.0
 21
5.0
 31
0.0
  0
LINE
  5
F0
330
73
100
AcDbEntity
  8
0
  6
Continuous
 62
     7
370
     0
100
AcDbLine
 10
15.0
 20
836.0
 30
0.0
 11
15.0
 21
5.0
 31
0.0
  0
LINE
  5
F1
330
73
100
AcDbEntity
  8
0
  6
Continuous
 62
     7
370
     0
100
AcDbLine
 10
1179.0
 20
830.9999999407
 30
0.0
 11
1179.0
 21
836.0
 31
0.0
  0
LINE
  5
F2
330
73
100
AcDbEntity
  8
0
  6
Continuous
 62
     7
370
     0
100
AcDbLine
 10
1179.0
 20
10.0
 30
0.0
 11
1179.0
 21
830.9999999407
 31
0.0
  0
LINE
  5
F3
330
73
100
AcDbEntity
  8
0
  6
Continuous
 62
     7
370
     0
100
AcDbLine
 10
1179.0
 20
5.0
 30
0.0
 11
1179.0
 21
10.0
 31
0.0
  0
LINE
  5
F4
330
73
100
AcDbEntity
  8
0
  6
Continuous
 62
     7
370
     0
100
AcDbLine
 10
20.0
 20
10.0
 30
0.0
 11
15.0
 21
10.0
 31
0.0
  0
LINE
  5
F5
330
73
100
AcDbEntity
  8
0
  6
Continuous
 62
     7
370
     0
100
AcDbLine
 10
1179.0
 20
10.0
 30
0.0
 11
20.0
 21
10.0
 31
0.0
  0
LINE
  5
F6
330
73
100
AcDbEntity
  8
0
  6
Continuous
 62
     7
370
     0
100
AcDbLine
 10
1183.9999314379
 20
10.0
 30
0.0
 11
1179.0
 21
10.0
 31
0.0
  0
LINE
  5
F7
330
73
100
AcDbEntity
  8
0
  6
Continuous
 62
     7
370
     0
100
AcDbLine
 10
20.0
 20
10.0
 30
0.0
 11
20.0
 21
5.0
 31
0.0
  0
LINE
  5
F8
330
73
100
AcDbEntity
  8
0
  6
Continuous
 62
     7
370
     0
100
AcDbLine
 10
20.0
 20
830.9999999407
 30
0.0
 11
20.0
 21
10.0
 31
0.0
  0
LINE
  5
F9
330
73
100
AcDbEntity
  8
0
  6
Continuous
 62
     7
370
     0
100
AcDbLine
 10
20.0
 20
836.0
 30
0.0
 11
20.0
 21
830.9999999407
 31
0.0
  0
LINE
  5
FA
330
73
100
AcDbEntity
  8
0
  6
Continuous
 62
     7
370
     0
100
AcDbLine
 10
1179.0
 20
830.9999999407
 30
0.0
 11
1183.9999314379
 21
830.9999999407
 31
0.0
  0
LINE
  5
FB
330
73
100
AcDbEntity
  8
0
  6
Continuous
 62
     7
370
     0
100
AcDbLine
 10
20.0
 20
830.9999999407
 30
0.0
 11
1179.0
 21
830.9999999407
 31
0.0
  0
LINE
  5
FC
330
73
100
AcDbEntity
  8
0
  6
Continuous
 62
     7
370
     0
100
AcDbLine
 10
15.0
 20
830.9999999407
 30
0.0
 11
20.0
 21
830.9999999407
 31
0.0
  0
LINE
  5
FD
330
73
100
AcDbEntity
  8
0
  6
Continuous
 62
     7
370
     0
100
AcDbLine
 10
15.0
 20
836.0
 30
0.0
 11
1183.9999314379
 21
836.0
 31
0.0
  0
LINE
  5
FE
330
73
100
AcDbEntity
  8
0
  6
Continuous
 62
     7
370
     0
100
AcDbLine
 10
0.0
 20
841.0
 30
0.0
 11
1189.0
 21
841.0
 31
0.0
  0
LINE
  5
FF
330
73
100
AcDbEntity
  8
0
  6
Continuous
 62
     7
370
     0
100
AcDbLine
 10
1189.0
 20
0.0
 30
0.0
 11
1189.0
 21
841.0
 31
0.0
  0
LINE
  5
100
330
73
100
AcDbEntity
  8
0
  6
Continuous
 62
     7
370
     0
100
AcDbLine
 10
1189.0
 20
0.0
 30
0.0
 11
0.0
 21
0.0
 31
0.0
  0
LINE
  5
101
330
73
100
AcDbEntity
  8
0
  6
Continuous
 62
     7
370
     0
100
AcDbLine
 10
0.0
 20
841.0
 30
0.0
 11
0.0
 21
0.0
 31
0.0
  0
MTEXT
  5
103
330
73
100
AcDbEntity
  8
0
  6
Continuous
 62
     7
370
     0
100
AcDbMText
 10
43.2001861591
 20
834.6449155598
 30
0.0
 40
3.0
 41
0.0
 71
     1
 72
     1
  1
1
  7
SLDTEXTSTYLE0
 73
     1
 44
1.0
  0
MTEXT
  5
104
330
73
100
AcDbEntity
  8
0
  6
Continuous
 62
     7
370
     0
100
AcDbMText
 10
16.3587006522
 20
809.3393600048
 30
0.0
 40
3.0
 41
0.0
 71
     1
 72
     1
  1
A
  7
SLDTEXTSTYLE0
 73
     1
 44
1.0
  0
MTEXT
  5
105
330
73
100
AcDbEntity
  8
0
  6
Continuous
 62
     7
370
     0
100
AcDbMText
 10
91.4918528251
 20
834.6449155598
 30
0.0
 40
3.0
 41
0.0
 71
     1
 72
     1
  1
2
  7
SLDTEXTSTYLE0
 73
     1
 44
1.0
  0
MTEXT
  5
106
330
73
100
AcDbEntity
  8
0
  6
Continuous
 62
     7
370
     0
100
AcDbMText
 10
139.7835194911
 20
834.6449155598
 30
0.0
 40
3.0
 41
0.0
 71
     1
 72
     1
  1
3
  7
SLDTEXTSTYLE0
 73
     1
 44
1.0
  0
MTEXT
  5
107
330
73
100
AcDbEntity
  8
0
  6
Continuous
 62
     7
370
     0
100
AcDbMText
 10
188.0751861571
 20
834.6449155598
 30
0.0
 40
3.0
 41
0.0
 71
     1
 72
     1
  1
4
  7
SLDTEXTSTYLE0
 73
     1
 44
1.0
  0
MTEXT
  5
108
330
73
100
AcDbEntity
  8
0
  6
Continuous
 62
     7
370
     0
100
AcDbMText
 10
236.3668528231
 20
834.6449155598
 30
0.0
 40
3.0
 41
0.0
 71
     1
 72
     1
  1
5
  7
SLDTEXTSTYLE0
 73
     1
 44
1.0
  0
MTEXT
  5
109
330
73
100
AcDbEntity
  8
0
  6
Continuous
 62
     7
370
     0
100
AcDbMText
 10
284.6585194891
 20
834.6449155598
 30
0.0
 40
3.0
 41
0.0
 71
     1
 72
     1
  1
6
  7
SLDTEXTSTYLE0
 73
     1
 44
1.0
  0
MTEXT
  5
10A
330
73
100
AcDbEntity
  8
0
  6
Continuous
 62
     7
370
     0
100
AcDbMText
 10
332.9501861551
 20
834.6449155598
 30
0.0
 40
3.0
 41
0.0
 71
     1
 72
     1
  1
7
  7
SLDTEXTSTYLE0
 73
     1
 44
1.0
  0
MTEXT
  5
10B
330
73
100
AcDbEntity
  8
0
  6
Continuous
 62
     7
370
     0
100
AcDbMText
 10
381.2418528211
 20
834.6449155598
 30
0.0
 40
3.0
 41
0.0
 71
     1
 72
     1
  1
8
  7
SLDTEXTSTYLE0
 73
     1
 44
1.0
  0
MTEXT
  5
10C
330
73
100
AcDbEntity
  8
0
  6
Continuous
 62
     7
370
     0
100
AcDbMText
 10
429.5335194871
 20
834.6449155598
 30
0.0
 40
3.0
 41
0.0
 71
     1
 72
     1
  1
9
  7
SLDTEXTSTYLE0
 73
     1
 44
1.0
  0
MTEXT
  5
10D
330
73
100
AcDbEntity
  8
0
  6
Continuous
 62
     7
370
     0
100
AcDbMText
 10
476.8795339792
 20
834.6449155598
 30
0.0
 40
3.0
 41
0.0
 71
     1
 72
     1
  1
10
  7
SLDTEXTSTYLE0
 73
     1
 44
1.0
  0
MTEXT
  5
10E
330
73
100
AcDbEntity
  8
0
  6
Continuous
 62
     7
370
     0
100
AcDbMText
 10
525.1712006452
 20
834.6449155598
 30
0.0
 40
3.0
 41
0.0
 71
     1
 72
     1
  1
11
  7
SLDTEXTSTYLE0
 73
     1
 44
1.0
  0
MTEXT
  5
10F
330
73
100
AcDbEntity
  8
0
  6
Continuous
 62
     7
370
     0
100
AcDbMText
 10
573.4628673112
 20
834.6449155598
 30
0.0
 40
3.0
 41
0.0
 71
     1
 72
     1
  1
12
  7
SLDTEXTSTYLE0
 73
     1
 44
1.0
  0
MTEXT
  5
110
330
73
100
AcDbEntity
  8
0
  6
Continuous
 62
     7
370
     0
100
AcDbMText
 10
621.7545339772
 20
834.6449155598
 30
0.0
 40
3.0
 41
0.0
 71
     1
 72
     1
  1
13
  7
SLDTEXTSTYLE0
 73
     1
 44
1.0
  0
MTEXT
  5
111
330
73
100
AcDbEntity
  8
0
  6
Continuous
 62
     7
370
     0
100
AcDbMText
 10
670.0462006432
 20
834.6449155598
 30
0.0
 40
3.0
 41
0.0
 71
     1
 72
     1
  1
14
  7
SLDTEXTSTYLE0
 73
     1
 44
1.0
  0
MTEXT
  5
112
330
73
100
AcDbEntity
  8
0
  6
Continuous
 62
     7
370
     0
100
AcDbMText
 10
718.3378673092
 20
834.6449155598
 30
0.0
 40
3.0
 41
0.0
 71
     1
 72
     1
  1
15
  7
SLDTEXTSTYLE0
 73
     1
 44
1.0
  0
MTEXT
  5
113
330
73
100
AcDbEntity
  8
0
  6
Continuous
 62
     7
370
     0
100
AcDbMText
 10
761.6295339752
 20
834.6449155598
 30
0.0
 40
3.0
 41
0.0
 71
     1
 72
     1
  1
16
  7
SLDTEXTSTYLE0
 73
     1
 44
1.0
  0
MTEXT
  5
114
330
73
100
AcDbEntity
  8
0
  6
Continuous
 62
     7
370
     0
100
AcDbMText
 10
814.9212006412
 20
834.6449155598
 30
0.0
 40
3.0
 41
0.0
 71
     1
 72
     1
  1
17
  7
SLDTEXTSTYLE0
 73
     1
 44
1.0
  0
MTEXT
  5
115
330
73
100
AcDbEntity
  8
0
  6
Continuous
 62
     7
370
     0
100
AcDbMText
 10
863.2128673072
 20
834.6449155598
 30
0.0
 40
3.0
 41
0.0
 71
     1
 72
     1
  1
18
  7
SLDTEXTSTYLE0
 73
     1
 44
1.0
  0
MTEXT
  5
116
330
73
100
AcDbEntity
  8
0
  6
Continuous
 62
     7
370
     0
100
AcDbMText
 10
911.5045339732
 20
834.6449155598
 30
0.0
 40
3.0
 41
0.0
 71
     1
 72
     1
  1
19
  7
SLDTEXTSTYLE0
 73
     1
 44
1.0
  0
MTEXT
  5
117
330
73
100
AcDbEntity
  8
0
  6
Continuous
 62
     7
370
     0
100
AcDbMText
 10
959.7962006392
 20
834.6449155598
 30
0.0
 40
3.0
 41
0.0
 71
     1
 72
     1
  1
20
  7
SLDTEXTSTYLE0
 73
     1
 44
1.0
  0
MTEXT
  5
118
330
73
100
AcDbEntity
  8
0
  6
Continuous
 62
     7
370
     0
100
AcDbMText
 10
1008.0878673052
 20
834.6449155598
 30
0.0
 40
3.0
 41
0.0
 71
     1
 72
     1
  1
21
  7
SLDTEXTSTYLE0
 73
     1
 44
1.0
  0
MTEXT
  5
119
330
73
100
AcDbEntity
  8
0
  6
Continuous
 62
     7
370
     0
100
AcDbMText
 10
1056.3795339712
 20
834.6449155598
 30
0.0
 40
3.0
 41
0.0
 71
     1
 72
     1
  1
22
  7
SLDTEXTSTYLE0
 73
     1
 44
1.0
  0
MTEXT
  5
11A
330
73
100
AcDbEntity
  8
0
  6
Continuous
 62
     7
370
     0
100
AcDbMText
 10
1104.6712006372
 20
834.6449155598
 30
0.0
 40
3.0
 41
0.0
 71
     1
 72
     1
  1
23
  7
SLDTEXTSTYLE0
 73
     1
 44
1.0
  0
MTEXT
  5
11B
330
73
100
AcDbEntity
  8
0
  6
Continuous
 62
     7
370
     0
100
AcDbMText
 10
1152.9628673032
 20
834.6449155598
 30
0.0
 40
3.0
 41
0.0
 71
     1
 72
     1
  1
24
  7
SLDTEXTSTYLE0
 73
     1
 44
1.0
  0
MTEXT
  5
11C
330
73
100
AcDbEntity
  8
0
  6
Continuous
 62
     7
370
     0
100
AcDbMText
 10
16.3587006522
 20
763.7282488948
 30
0.0
 40
3.0
 41
0.0
 71
     1
 72
     1
  1
B
  7
SLDTEXTSTYLE0
 73
     1
 44
1.0
  0
MTEXT
  5
11D
330
73
100
AcDbEntity
  8
0
  6
Continuous
 62
     7
370
     0
100
AcDbMText
 10
16.2934832609
 20
718.1171377848
 30
0.0
 40
3.0
 41
0.0
 71
     1
 72
     1
  1
C
  7
SLDTEXTSTYLE0
 73
     1
 44
1.0
  0
MTEXT
  5
11E
330
73
100
AcDbEntity
  8
0
  6
Continuous
 62
     7
370
     0
100
AcDbMText
 10
16.2934832609
 20
672.5060266748
 30
0.0
 40
3.0
 41
0.0
 71
     1
 72
     1
  1
D
  7
SLDTEXTSTYLE0
 73
     1
 44
1.0
  0
MTEXT
  5
11F
330
73
100
AcDbEntity
  8
0
  6
Continuous
 62
     7
370
     0
100
AcDbMText
 10
16.3587006522
 20
626.8949155648
 30
0.0
 40
3.0
 41
0.0
 71
     1
 72
     1
  1
E
  7
SLDTEXTSTYLE0
 73
     1
 44
1.0
  0
MTEXT
  5
120
330
73
100
AcDbEntity
  8
0
  6
Continuous
 62
     7
370
     0
100
AcDbMText
 10
16.4565267391
 20
581.2838044548
 30
0.0
 40
3.0
 41
0.0
 71
     1
 72
     1
  1
F
  7
SLDTEXTSTYLE0
 73
     1
 44
1.0
  0
MTEXT
  5
121
330
73
100
AcDbEntity
  8
0
  6
Continuous
 62
     7
370
     0
100
AcDbMText
 10
16.1956571739
 20
535.6726933448
 30
0.0
 40
3.0
 41
0.0
 71
     1
 72
     1
  1
G
  7
SLDTEXTSTYLE0
 73
     1
 44
1.0
  0
MTEXT
  5
122
330
73
100
AcDbEntity
  8
0
  6
Continuous
 62
     7
370
     0
100
AcDbMText
 10
16.2934832609
 20
490.0615822348
 30
0.0
 40
3.0
 41
0.0
 71
     1
 72
     1
  1
H
  7
SLDTEXTSTYLE0
 73
     1
 44
1.0
  0
MTEXT
  5
123
330
73
100
AcDbEntity
  8
0
  6
Continuous
 62
     7
370
     0
100
AcDbMText
 10
17.0434832609
 20
444.4504711248
 30
0.0
 40
3.0
 41
0.0
 71
     1
 72
     1
  1
I
  7
SLDTEXTSTYLE0
 73
     1
 44
1.0
  0
MTEXT
  5
124
330
73
100
AcDbEntity
  8
0
  6
Continuous
 62
     7
370
     0
100
AcDbMText
 10
16.652178913
 20
398.8393600148
 30
0.0
 40
3.0
 41
0.0
 71
     1
 72
     1
  1
J
  7
SLDTEXTSTYLE0
 73
     1
 44
1.0
  0
MTEXT
  5
125
330
73
100
AcDbEntity
  8
0
  6
Continuous
 62
     7
370
     0
100
AcDbMText
 10
16.3587006522
 20
353.2282489048
 30
0.0
 40
3.0
 41
0.0
 71
     1
 72
     1
  1
K
  7
SLDTEXTSTYLE0
 73
     1
 44
1.0
  0
MTEXT
  5
126
330
73
100
AcDbEntity
  8
0
  6
Continuous
 62
     7
370
     0
100
AcDbMText
 10
16.5543528261
 20
307.6171377948
 30
0.0
 40
3.0
 41
0.0
 71
     1
 72
     1
  1
L
  7
SLDTEXTSTYLE0
 73
     1
 44
1.0
  0
MTEXT
  5
127
330
73
100
AcDbEntity
  8
0
  6
Continuous
 62
     7
370
     0
100
AcDbMText
 10
16.097831087
 20
262.0060266848
 30
0.0
 40
3.0
 41
0.0
 71
     1
 72
     1
  1
M
  7
SLDTEXTSTYLE0
 73
     1
 44
1.0
  0
MTEXT
  5
128
330
73
100
AcDbEntity
  8
0
  6
Continuous
 62
     7
370
     0
100
AcDbMText
 10
16.2934832609
 20
216.3949155748
 30
0.0
 40
3.0
 41
0.0
 71
     1
 72
     1
  1
N
  7
SLDTEXTSTYLE0
 73
     1
 44
1.0
  0
MTEXT
  5
129
330
73
100
AcDbEntity
  8
0
  6
Continuous
 62
     7
370
     0
100
AcDbMText
 10
16.1956571739
 20
170.7838044648
 30
0.0
 40
3.0
 41
0.0
 71
     1
 72
     1
  1
O
  7
SLDTEXTSTYLE0
 73
     1
 44
1.0
  0
MTEXT
  5
12A
330
73
100
AcDbEntity
  8
0
  6
Continuous
 62
     7
370
     0
100
AcDbMText
 10
16.3587006522
 20
125.1726933548
 30
0.0
 40
3.0
 41
0.0
 71
     1
 72
     1
  1
P
  7
SLDTEXTSTYLE0
 73
     1
 44
1.0
  0
MTEXT
  5
12B
330
73
100
AcDbEntity
  8
0
  6
Continuous
 62
     7
370
     0
100
AcDbMText
 10
16.1956571739
 20
79.5615822448
 30
0.0
 40
3.0
 41
0.0
 71
     1
 72
     1
  1
Q
  7
SLDTEXTSTYLE0
 73
     1
 44
1.0
  0
MTEXT
  5
12C
330
73
100
AcDbEntity
  8
0
  6
Continuous
 62
     7
370
     0
100
AcDbMText
 10
16.2934832609
 20
33.9504711348
 30
0.0
 40
3.0
 41
0.0
 71
     1
 72
     1
  1
R
  7
SLDTEXTSTYLE0
 73
     1
 44
1.0
  0
MTEXT
  5
12D
330
73
100
AcDbEntity
  8
0
  6
Continuous
 62
     7
370
     0
100
AcDbMText
 10
1180.3587006522
 20
809.3393600048
 30
0.0
 40
3.0
 41
0.0
 71
     1
 72
     1
  1
A
  7
SLDTEXTSTYLE0
 73
     1
 44
1.0
  0
MTEXT
  5
12E
330
73
100
AcDbEntity
  8
0
  6
Continuous
 62
     7
370
     0
100
AcDbMText
 10
1180.3587006522
 20
763.7282488948
 30
0.0
 40
3.0
 41
0.0
 71
     1
 72
     1
  1
B
  7
SLDTEXTSTYLE0
 73
     1
 44
1.0
  0
MTEXT
  5
12F
330
73
100
AcDbEntity
  8
0
  6
Continuous
 62
     7
370
     0
100
AcDbMText
 10
1180.2934832609
 20
718.1171377848
 30
0.0
 40
3.0
 41
0.0
 71
     1
 72
     1
  1
C
  7
SLDTEXTSTYLE0
 73
     1
 44
1.0
  0
MTEXT
  5
130
330
73
100
AcDbEntity
  8
0
  6
Continuous
 62
     7
370
     0
100
AcDbMText
 10
1180.2934832609
 20
672.5060266748
 30
0.0
 40
3.0
 41
0.0
 71
     1
 72
     1
  1
D
  7
SLDTEXTSTYLE0
 73
     1
 44
1.0
  0
MTEXT
  5
131
330
73
100
AcDbEntity
  8
0
  6
Continuous
 62
     7
370
     0
100
AcDbMText
 10
1180.3587006522
 20
626.8949155648
 30
0.0
 40
3.0
 41
0.0
 71
     1
 72
     1
  1
E
  7
SLDTEXTSTYLE0
 73
     1
 44
1.0
  0
MTEXT
  5
132
330
73
100
AcDbEntity
  8
0
  6
Continuous
 62
     7
370
     0
100
AcDbMText
 10
1180.4565267391
 20
581.2838044548
 30
0.0
 40
3.0
 41
0.0
 71
     1
 72
     1
  1
F
  7
SLDTEXTSTYLE0
 73
     1
 44
1.0
  0
MTEXT
  5
133
330
73
100
AcDbEntity
  8
0
  6
Continuous
 62
     7
370
     0
100
AcDbMText
 10
1180.1956571739
 20
535.6726933448
 30
0.0
 40
3.0
 41
0.0
 71
     1
 72
     1
  1
G
  7
SLDTEXTSTYLE0
 73
     1
 44
1.0
  0
MTEXT
  5
134
330
73
100
AcDbEntity
  8
0
  6
Continuous
 62
     7
370
     0
100
AcDbMText
 10
1180.2934832609
 20
490.0615822348
 30
0.0
 40
3.0
 41
0.0
 71
     1
 72
     1
  1
H
  7
SLDTEXTSTYLE0
 73
     1
 44
1.0
  0
MTEXT
  5
135
330
73
100
AcDbEntity
  8
0
  6
Continuous
 62
     7
370
     0
100
AcDbMText
 10
1181.0434832609
 20
444.4504711248
 30
0.0
 40
3.0
 41
0.0
 71
     1
 72
     1
  1
I
  7
SLDTEXTSTYLE0
 73
     1
 44
1.0
  0
MTEXT
  5
136
330
73
100
AcDbEntity
  8
0
  6
Continuous
 62
     7
370
     0
100
AcDbMText
 10
1180.652178913
 20
398.8393600148
 30
0.0
 40
3.0
 41
0.0
 71
     1
 72
     1
  1
J
  7
SLDTEXTSTYLE0
 73
     1
 44
1.0
  0
MTEXT
  5
137
330
73
100
AcDbEntity
  8
0
  6
Continuous
 62
     7
370
     0
100
AcDbMText
 10
1180.3587006522
 20
353.2282489048
 30
0.0
 40
3.0
 41
0.0
 71
     1
 72
     1
  1
K
  7
SLDTEXTSTYLE0
 73
     1
 44
1.0
  0
MTEXT
  5
138
330
73
100
AcDbEntity
  8
0
  6
Continuous
 62
     7
370
     0
100
AcDbMText
 10
1180.5543528261
 20
307.6171377948
 30
0.0
 40
3.0
 41
0.0
 71
     1
 72
     1
  1
L
  7
SLDTEXTSTYLE0
 73
     1
 44
1.0
  0
MTEXT
  5
139
330
73
100
AcDbEntity
  8
0
  6
Continuous
 62
     7
370
     0
100
AcDbMText
 10
1180.097831087
 20
262.0060266848
 30
0.0
 40
3.0
 41
0.0
 71
     1
 72
     1
  1
M
  7
SLDTEXTSTYLE0
 73
     1
 44
1.0
  0
MTEXT
  5
13A
330
73
100
AcDbEntity
  8
0
  6
Continuous
 62
     7
370
     0
100
AcDbMText
 10
1180.2934832609
 20
216.3949155748
 30
0.0
 40
3.0
 41
0.0
 71
     1
 72
     1
  1
N
  7
SLDTEXTSTYLE0
 73
     1
 44
1.0
  0
MTEXT
  5
13B
330
73
100
AcDbEntity
  8
0
  6
Continuous
 62
     7
370
     0
100
AcDbMText
 10
1180.1956571739
 20
170.7838044648
 30
0.0
 40
3.0
 41
0.0
 71
     1
 72
     1
  1
O
  7
SLDTEXTSTYLE0
 73
     1
 44
1.0
  0
MTEXT
  5
13C
330
73
100
AcDbEntity
  8
0
  6
Continuous
 62
     7
370
     0
100
AcDbMText
 10
1180.3587006522
 20
125.1726933548
 30
0.0
 40
3.0
 41
0.0
 71
     1
 72
     1
  1
P
  7
SLDTEXTSTYLE0
 73
     1
 44
1.0
  0
MTEXT
  5
13D
330
73
100
AcDbEntity
  8
0
  6
Continuous
 62
     7
370
     0
100
AcDbMText
 10
1180.1956571739
 20
79.5615822448
 30
0.0
 40
3.0
 41
0.0
 71
     1
 72
     1
  1
Q
  7
SLDTEXTSTYLE0
 73
     1
 44
1.0
  0
MTEXT
  5
13E
330
73
100
AcDbEntity
  8
0
  6
Continuous
 62
     7
370
     0
100
AcDbMText
 10
1180.2934832609
 20
33.9504711348
 30
0.0
 40
3.0
 41
0.0
 71
     1
 72
     1
  1
R
  7
SLDTEXTSTYLE0
 73
     1
 44
1.0
  0
MTEXT
  5
13F
330
73
100
AcDbEntity
  8
0
  6
Continuous
 62
     7
370
     0
100
AcDbMText
 10
43.2001861591
 20
8.6449155598
 30
0.0
 40
3.0
 41
0.0
 71
     1
 72
     1
  1
1
  7
SLDTEXTSTYLE0
 73
     1
 44
1.0
  0
MTEXT
  5
140
330
73
100
AcDbEntity
  8
0
  6
Continuous
 62
     7
370
     0
100
AcDbMText
 10
91.4918528251
 20
8.6449155598
 30
0.0
 40
3.0
 41
0.0
 71
     1
 72
     1
  1
2
  7
SLDTEXTSTYLE0
 73
     1
 44
1.0
  0
MTEXT
  5
141
330
73
100
AcDbEntity
  8
0
  6
Continuous
 62
     7
370
     0
100
AcDbMText
 10
139.7835194911
 20
8.6449155598
 30
0.0
 40
3.0
 41
0.0
 71
     1
 72
     1
  1
3
  7
SLDTEXTSTYLE0
 73
     1
 44
1.0
  0
MTEXT
  5
142
330
73
100
AcDbEntity
  8
0
  6
Continuous
 62
     7
370
     0
100
AcDbMText
 10
188.0751861571
 20
8.6449155598
 30
0.0
 40
3.0
 41
0.0
 71
     1
 72
     1
  1
4
  7
SLDTEXTSTYLE0
 73
     1
 44
1.0
  0
MTEXT
  5
143
330
73
100
AcDbEntity
  8
0
  6
Continuous
 62
     7
370
     0
100
AcDbMText
 10
236.3668528231
 20
8.6449155598
 30
0.0
 40
3.0
 41
0.0
 71
     1
 72
     1
  1
5
  7
SLDTEXTSTYLE0
 73
     1
 44
1.0
  0
MTEXT
  5
144
330
73
100
AcDbEntity
  8
0
  6
Continuous
 62
     7
370
     0
100
AcDbMText
 10
284.6585194891
 20
8.6449155598
 30
0.0
 40
3.0
 41
0.0
 71
     1
 72
     1
  1
6
  7
SLDTEXTSTYLE0
 73
     1
 44
1.0
  0
MTEXT
  5
145
330
73
100
AcDbEntity
  8
0
  6
Continuous
 62
     7
370
     0
100
AcDbMText
 10
332.9501861551
 20
8.6449155598
 30
0.0
 40
3.0
 41
0.0
 71
     1
 72
     1
  1
7
  7
SLDTEXTSTYLE0
 73
     1
 44
1.0
  0
MTEXT
  5
146
330
73
100
AcDbEntity
  8
0
  6
Continuous
 62
     7
370
     0
100
AcDbMText
 10
381.2418528211
 20
8.6449155598
 30
0.0
 40
3.0
 41
0.0
 71
     1
 72
     1
  1
8
  7
SLDTEXTSTYLE0
 73
     1
 44
1.0
  0
MTEXT
  5
147
330
73
100
AcDbEntity
  8
0
  6
Continuous
 62
     7
370
     0
100
AcDbMText
 10
429.5335194871
 20
8.6449155598
 30
0.0
 40
3.0
 41
0.0
 71
     1
 72
     1
  1
9
  7
SLDTEXTSTYLE0
 73
     1
 44
1.0
  0
MTEXT
  5
148
330
73
100
AcDbEntity
  8
0
  6
Continuous
 62
     7
370
     0
100
AcDbMText
 10
476.8795339792
 20
8.6449155598
 30
0.0
 40
3.0
 41
0.0
 71
     1
 72
     1
  1
10
  7
SLDTEXTSTYLE0
 73
     1
 44
1.0
  0
MTEXT
  5
149
330
73
100
AcDbEntity
  8
0
  6
Continuous
 62
     7
370
     0
100
AcDbMText
 10
525.1712006452
 20
8.6449155598
 30
0.0
 40
3.0
 41
0.0
 71
     1
 72
     1
  1
11
  7
SLDTEXTSTYLE0
 73
     1
 44
1.0
  0
MTEXT
  5
14A
330
73
100
AcDbEntity
  8
0
  6
Continuous
 62
     7
370
     0
100
AcDbMText
 10
573.4628673112
 20
8.6449155598
 30
0.0
 40
3.0
 41
0.0
 71
     1
 72
     1
  1
12
  7
SLDTEXTSTYLE0
 73
     1
 44
1.0
  0
MTEXT
  5
14B
330
73
100
AcDbEntity
  8
0
  6
Continuous
 62
     7
370
     0
100
AcDbMText
 10
621.7545339772
 20
8.6449155598
 30
0.0
 40
3.0
 41
0.0
 71
     1
 72
     1
  1
13
  7
SLDTEXTSTYLE0
 73
     1
 44
1.0
  0
MTEXT
  5
14C
330
73
100
AcDbEntity
  8
0
  6
Continuous
 62
     7
370
     0
100
AcDbMText
 10
670.0462006432
 20
8.6449155598
 30
0.0
 40
3.0
 41
0.0
 71
     1
 72
     1
  1
14
  7
SLDTEXTSTYLE0
 73
     1
 44
1.0
  0
MTEXT
  5
14D
330
73
100
AcDbEntity
  8
0
  6
Continuous
 62
     7
370
     0
100
AcDbMText
 10
718.3378673092
 20
8.6449155598
 30
0.0
 40
3.0
 41
0.0
 71
     1
 72
     1
  1
15
  7
SLDTEXTSTYLE0
 73
     1
 44
1.0
  0
MTEXT
  5
14E
330
73
100
AcDbEntity
  8
0
  6
Continuous
 62
     7
370
     0
100
AcDbMText
 10
761.6295339752
 20
8.6449155598
 30
0.0
 40
3.0
 41
0.0
 71
     1
 72
     1
  1
16
  7
SLDTEXTSTYLE0
 73
     1
 44
1.0
  0
MTEXT
  5
14F
330
73
100
AcDbEntity
  8
0
  6
Continuous
 62
     7
370
     0
100
AcDbMText
 10
814.9212006412
 20
8.6449155598
 30
0.0
 40
3.0
 41
0.0
 71
     1
 72
     1
  1
17
  7
SLDTEXTSTYLE0
 73
     1
 44
1.0
  0
MTEXT
  5
150
330
73
100
AcDbEntity
  8
0
  6
Continuous
 62
     7
370
     0
100
AcDbMText
 10
863.2128673072
 20
8.6449155598
 30
0.0
 40
3.0
 41
0.0
 71
     1
 72
     1
  1
18
  7
SLDTEXTSTYLE0
 73
     1
 44
1.0
  0
MTEXT
  5
151
330
73
100
AcDbEntity
  8
0
  6
Continuous
 62
     7
370
     0
100
AcDbMText
 10
911.5045339732
 20
8.6449155598
 30
0.0
 40
3.0
 41
0.0
 71
     1
 72
     1
  1
19
  7
SLDTEXTSTYLE0
 73
     1
 44
1.0
  0
MTEXT
  5
152
330
73
100
AcDbEntity
  8
0
  6
Continuous
 62
     7
370
     0
100
AcDbMText
 10
959.7962006392
 20
8.6449155598
 30
0.0
 40
3.0
 41
0.0
 71
     1
 72
     1
  1
20
  7
SLDTEXTSTYLE0
 73
     1
 44
1.0
  0
MTEXT
  5
153
330
73
100
AcDbEntity
  8
0
  6
Continuous
 62
     7
370
     0
100
AcDbMText
 10
1008.0878673052
 20
8.6449155598
 30
0.0
 40
3.0
 41
0.0
 71
     1
 72
     1
  1
21
  7
SLDTEXTSTYLE0
 73
     1
 44
1.0
  0
MTEXT
  5
154
330
73
100
AcDbEntity
  8
0
  6
Continuous
 62
     7
370
     0
100
AcDbMText
 10
1056.3795339712
 20
8.6449155598
 30
0.0
 40
3.0
 41
0.0
 71
     1
 72
     1
  1
22
  7
SLDTEXTSTYLE0
 73
     1
 44
1.0
  0
MTEXT
  5
156
330
73
100
AcDbEntity
  8
0
  6
Continuous
 62
     7
370
     0
100
AcDbMText
 10
1003.527178913
 20
7.389386302
 30
0.0
 40
1.5
 41
0.0
 71
     1
 72
     1
  1
1
  7
SLDTEXTSTYLE1
 73
     1
 44
1.0
  0
MTEXT
  5
157
330
73
100
AcDbEntity
  8
0
  6
Continuous
 62
     7
370
     0
100
AcDbMText
 10
633.527178913
 20
7.389386302
 30
0.0
 40
1.5
 41
0.0
 71
     1
 72
     1
  1
2
  7
SLDTEXTSTYLE1
 73
     1
 44
1.0
  0
MTEXT
  5
158
330
73
100
AcDbEntity
  8
0
  6
Continuous
 62
     7
370
     0
100
AcDbMText
 10
329.027178913
 20
7.389386302
 30
0.0
 40
1.5
 41
0.0
 71
     1
 72
     1
  1
4
  7
SLDTEXTSTYLE1
 73
     1
 44
1.0
  0
MTEXT
  5
159
330
73
100
AcDbEntity
  8
0
  6
Continuous
 62
     7
370
     0
100
AcDbMText
 10
263.527178913
 20
7.389386302
 30
0.0
 40
1.5
 41
0.0
 71
     1
 72
     1
  1
3
  7
SLDTEXTSTYLE1
 73
     1
 44
1.0
  0
MTEXT
  5
15A
330
73
100
AcDbEntity
  8
0
  6
Continuous
 62
     7
370
     0
100
AcDbMText
 10
1003.527178913
 20
835.1028068642
 30
0.0
 40
1.5
 41
0.0
 71
     1
 72
     1
  1
1
  7
SLDTEXTSTYLE1
 73
     1
 44
1.0
  0
MTEXT
  5
15B
330
73
100
AcDbEntity
  8
0
  6
Continuous
 62
     7
370
     0
100
AcDbMText
 10
633.527178913
 20
835.1028068642
 30
0.0
 40
1.5
 41
0.0
 71
     1
 72
     1
  1
2
  7
SLDTEXTSTYLE1
 73
     1
 44
1.0
  0
MTEXT
  5
15C
330
73
100
AcDbEntity
  8
0
  6
Continuous
 62
     7
370
     0
100
AcDbMText
 10
263.527178913
 20
835.1028068642
 30
0.0
 40
1.5
 41
0.0
 71
     1
 72
     1
  1
3
  7
SLDTEXTSTYLE1
 73
     1
 44
1.0
  0
MTEXT
  5
15D
330
73
100
AcDbEntity
  8
0
  6
Continuous
 62
     7
370
     0
100
AcDbMText
 10
329.027178913
 20
835.1028068642
 30
0.0
 40
1.5
 41
0.0
 71
     1
 72
     1
  1
4
  7
SLDTEXTSTYLE1
 73
     1
 44
1.0
  0
ENDBLK
  5
75
330
73
100
AcDbEntity
  8
0
100
AcDbBlockEnd
  0
BLOCK
  5
15F
330
15E
100
AcDbEntity
  8
0
100
AcDbBlockBegin
  2
ISO2768
 70
     0
 10
0.0
 20
0.0
 30
0.0
  3
ISO2768
  1

  0
LINE
  5
161
330
15E
100
AcDbEntity
  8
0
  6
Continuous
 62
     7
370
     0
100
AcDbLine
 10
-25.0
 20
0.0
 30
0.0
 11
-25.0
 21
-20.0
 31
0.0
  0
LINE
  5
162
330
15E
100
AcDbEntity
  8
0
  6
Continuous
 62
     7
370
     0
100
AcDbLine
 10
-50.0
 20
0.0
 30
0.0
 11
-50.0
 21
-20.0
 31
0.0
  0
LINE
  5
163
330
15E
100
AcDbEntity
  8
0
  6
Continuous
 62
     7
370
     0
100
AcDbLine
 10
-75.0
 20
0.0
 30
0.0
 11
-75.0
 21
-20.0
 31
0.0
  0
LINE
  5
164
330
15E
100
AcDbEntity
  8
0
  6
Continuous
 62
     7
370
     0
100
AcDbLine
 10
-95.0
 20
0.0
 30
0.0
 11
-95.0
 21
-20.0
 31
0.0
  0
LINE
  5
165
330
15E
100
AcDbEntity
  8
0
  6
Continuous
 62
     7
370
     0
100
AcDbLine
 10
-115.0
 20
0.0
 30
0.0
 11
-115.0
 21
-20.0
 31
0.0
  0
LINE
  5
166
330
15E
100
AcDbEntity
  8
0
  6
Continuous
 62
     7
370
     0
100
AcDbLine
 10
-130.0
 20
0.0
 30
0.0
 11
-130.0
 21
-20.0
 31
0.0
  0
LINE
  5
167
330
15E
100
AcDbEntity
  8
0
  6
Continuous
 62
     7
370
     0
100
AcDbLine
 10
-145.0
 20
0.0
 30
0.0
 11
-145.0
 21
-20.0
 31
0.0
  0
LINE
  5
168
330
15E
100
AcDbEntity
  8
0
  6
Continuous
 62
     7
370
     0
100
AcDbLine
 10
-155.0
 20
-4.0
 30
0.0
 11
-155.0
 21
-20.0
 31
0.0
  0
LINE
  5
169
330
15E
100
AcDbEntity
  8
0
  6
Continuous
 62
     7
370
     0
100
AcDbLine
 10
-175.0
 20
-16.0
 30
0.0
 11
0.0
 21
-16.0
 31
0.0
  0
LINE
  5
16A
330
15E
100
AcDbEntity
  8
0
  6
Continuous
 62
     7
370
     0
100
AcDbLine
 10
-175.0
 20
-12.0
 30
0.0
 11
0.0
 21
-12.0
 31
0.0
  0
LINE
  5
16B
330
15E
100
AcDbEntity
  8
0
  6
Continuous
 62
     7
370
     0
100
AcDbLine
 10
-175.0
 20
-8.0
 30
0.0
 11
0.0
 21
-8.0
 31
0.0
  0
LINE
  5
16C
330
15E
100
AcDbEntity
  8
0
  6
Continuous
 62
     7
370
     0
100
AcDbLine
 10
-175.0
 20
-4.0
 30
0.0
 11
0.0
 21
-4.0
 31
0.0
  0
LINE
  5
16D
330
15E
100
AcDbEntity
  8
0
  6
Continuous
 62
     7
370
     0
100
AcDbLine
 10
-175.0
 20
0.0
 30
0.0
 11
-175.0
 21
-20.0
 31
0.0
  0
LINE
  5
16E
330
15E
100
AcDbEntity
  8
0
  6
Continuous
 62
     7
370
     0
100
AcDbLine
 10
-180.0
 20
-20.0
 30
0.0
 11
-180.0
 21
0.0
 31
0.0
  0
LINE
  5
16F
330
15E
100
AcDbEntity
  8
0
  6
Continuous
 62
     7
370
     0
100
AcDbLine
 10
0.0
 20
-20.0
 30
0.0
 11
-180.0
 21
-20.0
 31
0.0
  0
LINE
  5
170
330
15E
100
AcDbEntity
  8
0
  6
Continuous
 62
     7
370
     0
100
AcDbLine
 10
0.0
 20
0.0
 30
0.0
 11
0.0
 21
-20.0
 31
0.0
  0
LINE
  5
171
330
15E
100
AcDbEntity
  8
0
  6
Continuous
 62
     7
370
     0
100
AcDbLine
 10
-180.0
 20
0.0
 30
0.0
 11
0.0
 21
0.0
 31
0.0
  0
MTEXT
  5
173
330
15E
100
AcDbEntity
  8
0
  6
Continuous
 62
   179
370
     0
100
AcDbMText
 10
-152.1594291518
 20
-12.9932672184
 30
0.0
 40
2.5
 41
0.0
 71
     1
 72
     1
  1
(c)
  7
SLDTEXTSTYLE2
 73
     1
 44
1.0
  0
MTEXT
  5
174
330
15E
100
AcDbEntity
  8
0
  6
Continuous
 62
   179
370
     0
100
AcDbMText
 10
-14.4385313988
 20
-13.1021223902
 30
0.0
 40
2.5
 41
0.0
 71
     1
 72
     1
  1
±4
  7
SLDTEXTSTYLE2
 73
     1
 44
1.0
  0
MTEXT
  5
175
330
15E
100
AcDbEntity
  8
0
  6
Continuous
 62
   179
370
     0
100
AcDbMText
 10
-14.4385313988
 20
-17.1021223902
 30
0.0
 40
2.5
 41
0.0
 71
     1
 72
     1
  1
±8
  7
SLDTEXTSTYLE2
 73
     1
 44
1.0
  0
MTEXT
  5
176
330
15E
100
AcDbEntity
  8
0
  6
Continuous
 62
   179
370
     0
100
AcDbMText
 10
-23.8407053118
 20
-1.1021223902
 30
0.0
 40
2.5
 41
0.0
 71
     1
 72
     1
  1
>2000 <=4000
  7
SLDTEXTSTYLE2
 73
     1
 44
1.0
  0
MTEXT
  5
177
330
15E
100
AcDbEntity
  8
0
  6
Continuous
 62
   179
370
     0
100
AcDbMText
 10
-13.0798357466
 20
-5.1021223902
 30
0.0
 40
2.5
 41
0.0
 71
     1
 72
     1
  1
-
  7
SLDTEXTSTYLE2
 73
     1
 44
1.0
  0
MTEXT
  5
178
330
15E
100
AcDbEntity
  8
0
  6
Continuous
 62
   179
370
     0
100
AcDbMText
 10
-14.4385313988
 20
-9.1021223902
 30
0.0
 40
2.5
 41
0.0
 71
     1
 72
     1
  1
±2
  7
SLDTEXTSTYLE2
 73
     1
 44
1.0
  0
MTEXT
  5
179
330
15E
100
AcDbEntity
  8
0
  6
Continuous
 62
   179
370
     0
100
AcDbMText
 10
-39.4385313988
 20
-17.1021223902
 30
0.0
 40
2.5
 41
0.0
 71
     1
 72
     1
  1
±6
  7
SLDTEXTSTYLE2
 73
     1
 44
1.0
  0
MTEXT
  5
17A
330
15E
100
AcDbEntity
  8
0
  6
Continuous
 62
   179
370
     0
100
AcDbMText
 10
-39.4385313988
 20
-13.1021223902
 30
0.0
 40
2.5
 41
0.0
 71
     1
 72
     1
  1
±3
  7
SLDTEXTSTYLE2
 73
     1
 44
1.0
  0
MTEXT
  5
17B
330
15E
100
AcDbEntity
  8
0
  6
Continuous
 62
   179
370
     0
100
AcDbMText
 10
-72.8624444423
 20
-1.1021223902
 30
0.0
 40
2.5
 41
0.0
 71
     1
 72
     1
  1
>400 <=1000
  7
SLDTEXTSTYLE2
 73
     1
 44
1.0
  0
MTEXT
  5
17C
330
15E
100
AcDbEntity
  8
0
  6
Continuous
 62
   179
370
     0
100
AcDbMText
 10
-40.9059227031
 20
-9.1021223902
 30
0.0
 40
2.5
 41
0.0
 71
     1
 72
     1
  1
±1.2
  7
SLDTEXTSTYLE2
 73
     1
 44
1.0
  0
MTEXT
  5
17D
330
15E
100
AcDbEntity
  8
0
  6
Continuous
 62
   179
370
     0
100
AcDbMText
 10
-40.9059227031
 20
-5.1021223902
 30
0.0
 40
2.5
 41
0.0
 71
     1
 72
     1
  1
±0.5
  7
SLDTEXTSTYLE2
 73
     1
 44
1.0
  0
MTEXT
  5
17E
330
15E
100
AcDbEntity
  8
0
  6
Continuous
 62
   179
370
     0
100
AcDbMText
 10
-64.4385313988
 20
-17.1021223902
 30
0.0
 40
2.5
 41
0.0
 71
     1
 72
     1
  1
±4
  7
SLDTEXTSTYLE2
 73
     1
 44
1.0
  0
MTEXT
  5
17F
330
15E
100
AcDbEntity
  8
0
  6
Continuous
 62
   179
370
     0
100
AcDbMText
 10
-48.8407053118
 20
-1.1021223902
 30
0.0
 40
2.5
 41
0.0
 71
     1
 72
     1
  1
>1000 <=2000
  7
SLDTEXTSTYLE2
 73
     1
 44
1.0
  0
MTEXT
  5
180
330
15E
100
AcDbEntity
  8
0
  6
Continuous
 62
   179
370
     0
100
AcDbMText
 10
-64.4385313988
 20
-13.1021223902
 30
0.0
 40
2.5
 41
0.0
 71
     1
 72
     1
  1
±2
  7
SLDTEXTSTYLE2
 73
     1
 44
1.0
  0
MTEXT
  5
181
330
15E
100
AcDbEntity
  8
0
  6
Continuous
 62
   179
370
     0
100
AcDbMText
 10
-65.9059227031
 20
-9.1021223902
 30
0.0
 40
2.5
 41
0.0
 71
     1
 72
     1
  1
±0.8
  7
SLDTEXTSTYLE2
 73
     1
 44
1.0
  0
MTEXT
  5
182
330
15E
100
AcDbEntity
  8
0
  6
Continuous
 62
   179
370
     0
100
AcDbMText
 10
-88.4059227031
 20
-9.1021223902
 30
0.0
 40
2.5
 41
0.0
 71
     1
 72
     1
  1
±0.5
  7
SLDTEXTSTYLE2
 73
     1
 44
1.0
  0
MTEXT
  5
183
330
15E
100
AcDbEntity
  8
0
  6
Continuous
 62
   179
370
     0
100
AcDbMText
 10
-108.4059227031
 20
-9.1021223902
 30
0.0
 40
2.5
 41
0.0
 71
     1
 72
     1
  1
±0.3
  7
SLDTEXTSTYLE2
 73
     1
 44
1.0
  0
MTEXT
  5
184
330
15E
100
AcDbEntity
  8
0
  6
Continuous
 62
   179
370
     0
100
AcDbMText
 10
-88.4059227031
 20
-5.1021223902
 30
0.0
 40
2.5
 41
0.0
 71
     1
 72
     1
  1
±0.2
  7
SLDTEXTSTYLE2
 73
     1
 44
1.0
  0
MTEXT
  5
185
330
15E
100
AcDbEntity
  8
0
  6
Continuous
 62
   179
370
     0
100
AcDbMText
 10
-108.4059227031
 20
-17.1021223902
 30
0.0
 40
2.5
 41
0.0
 71
     1
 72
     1
  1
±1.5
  7
SLDTEXTSTYLE2
 73
     1
 44
1.0
  0
MTEXT
  5
186
330
15E
100
AcDbEntity
  8
0
  6
Continuous
 62
   179
370
     0
100
AcDbMText
 10
-65.9059227031
 20
-5.1021223902
 30
0.0
 40
2.5
 41
0.0
 71
     1
 72
     1
  1
±0.3
  7
SLDTEXTSTYLE2
 73
     1
 44
1.0
  0
MTEXT
  5
187
330
15E
100
AcDbEntity
  8
0
  6
Continuous
 62
   179
370
     0
100
AcDbMText
 10
-88.4059227031
 20
-17.1021223902
 30
0.0
 40
2.5
 41
0.0
 71
     1
 72
     1
  1
±2.5
  7
SLDTEXTSTYLE2
 73
     1
 44
1.0
  0
MTEXT
  5
188
330
15E
100
AcDbEntity
  8
0
  6
Continuous
 62
   179
370
     0
100
AcDbMText
 10
-94.3841835727
 20
-1.1021223902
 30
0.0
 40
2.5
 41
0.0
 71
     1
 72
     1
  1
>120 <=400
  7
SLDTEXTSTYLE2
 73
     1
 44
1.0
  0
MTEXT
  5
189
330
15E
100
AcDbEntity
  8
0
  6
Continuous
 62
   179
370
     0
100
AcDbMText
 10
-88.4059227031
 20
-13.1021223902
 30
0.0
 40
2.5
 41
0.0
 71
     1
 72
     1
  1
±1.2
  7
SLDTEXTSTYLE2
 73
     1
 44
1.0
  0
MTEXT
  5
18A
330
15E
100
AcDbEntity
  8
0
  6
Continuous
 62
   179
370
     0
100
AcDbMText
 10
-109.3841835727
 20
-5.1021223902
 30
0.0
 40
2.5
 41
0.0
 71
     1
 72
     1
  1
±0.15
  7
SLDTEXTSTYLE2
 73
     1
 44
1.0
  0
MTEXT
  5
18B
330
15E
100
AcDbEntity
  8
0
  6
Continuous
 62
   179
370
     0
100
AcDbMText
 10
-113.4059227031
 20
-1.1021223902
 30
0.0
 40
2.5
 41
0.0
 71
     1
 72
     1
  1
>30 <=120
  7
SLDTEXTSTYLE2
 73
     1
 44
1.0
  0
MTEXT
  5
18C
330
15E
100
AcDbEntity
  8
0
  6
Continuous
 62
   179
370
     0
100
AcDbMText
 10
-124.4385313988
 20
-17.1021223902
 30
0.0
 40
2.5
 41
0.0
 71
     1
 72
     1
  1
±1
  7
SLDTEXTSTYLE2
 73
     1
 44
1.0
  0
MTEXT
  5
18D
330
15E
100
AcDbEntity
  8
0
  6
Continuous
 62
   179
370
     0
100
AcDbMText
 10
-125.9059227031
 20
-9.1021223902
 30
0.0
 40
2.5
 41
0.0
 71
     1
 72
     1
  1
±0.2
  7
SLDTEXTSTYLE2
 73
     1
 44
1.0
  0
MTEXT
  5
18E
330
15E
100
AcDbEntity
  8
0
  6
Continuous
 62
   179
370
     0
100
AcDbMText
 10
-108.4059227031
 20
-13.1021223902
 30
0.0
 40
2.5
 41
0.0
 71
     1
 72
     1
  1
±0.8
  7
SLDTEXTSTYLE2
 73
     1
 44
1.0
  0
MTEXT
  5
18F
330
15E
100
AcDbEntity
  8
0
  6
Continuous
 62
   179
370
     0
100
AcDbMText
 10
-125.9059227031
 20
-5.1021223902
 30
0.0
 40
2.5
 41
0.0
 71
     1
 72
     1
  1
±0.1
  7
SLDTEXTSTYLE2
 73
     1
 44
1.0
  0
MTEXT
  5
190
330
15E
100
AcDbEntity
  8
0
  6
Continuous
 62
   179
370
     0
100
AcDbMText
 10
-128.949400964
 20
-1.1021223902
 30
0.0
 40
2.5
 41
0.0
 71
     1
 72
     1
  1
>6 <=30
  7
SLDTEXTSTYLE2
 73
     1
 44
1.0
  0
MTEXT
  5
191
330
15E
100
AcDbEntity
  8
0
  6
Continuous
 62
   179
370
     0
100
AcDbMText
 10
-140.4983140075
 20
-1.1021223902
 30
0.0
 40
2.5
 41
0.0
 71
     1
 72
     1
  1
<=6
  7
SLDTEXTSTYLE2
 73
     1
 44
1.0
  0
MTEXT
  5
192
330
15E
100
AcDbEntity
  8
0
  6
Continuous
 62
   179
370
     0
100
AcDbMText
 10
-125.9059227031
 20
-13.1021223902
 30
0.0
 40
2.5
 41
0.0
 71
     1
 72
     1
  1
±0.5
  7
SLDTEXTSTYLE2
 73
     1
 44
1.0
  0
MTEXT
  5
193
330
15E
100
AcDbEntity
  8
0
  6
Continuous
 62
   179
370
     0
100
AcDbMText
 10
-140.9059227031
 20
-9.1021223902
 30
0.0
 40
2.5
 41
0.0
 71
     1
 72
     1
  1
±0.1
  7
SLDTEXTSTYLE2
 73
     1
 44
1.0
  0
MTEXT
  5
194
330
15E
100
AcDbEntity
  8
0
  6
Continuous
 62
   179
370
     0
100
AcDbMText
 10
-140.9059227031
 20
-17.1021223902
 30
0.0
 40
2.5
 41
0.0
 71
     1
 72
     1
  1
±0.5
  7
SLDTEXTSTYLE2
 73
     1
 44
1.0
  0
MTEXT
  5
195
330
15E
100
AcDbEntity
  8
0
  6
Continuous
 62
   179
370
     0
100
AcDbMText
 10
-140.9059227031
 20
-13.1021223902
 30
0.0
 40
2.5
 41
0.0
 71
     1
 72
     1
  1
±0.3
  7
SLDTEXTSTYLE2
 73
     1
 44
1.0
  0
MTEXT
  5
196
330
15E
100
AcDbEntity
  8
0
  6
Continuous
 62
   179
370
     0
100
AcDbMText
 10
-141.8841835727
 20
-5.1021223902
 30
0.0
 40
2.5
 41
0.0
 71
     1
 72
     1
  1
±0.05
  7
SLDTEXTSTYLE2
 73
     1
 44
1.0
  0
MTEXT
  5
197
330
15E
100
AcDbEntity
  8
0
  6
Continuous
 62
   179
370
     0
100
AcDbMText
 10
-174.7485158139
 20
-8.9932672184
 30
0.0
 40
2.5
 41
0.0
 71
     1
 72
     1
  1
Medium
  7
SLDTEXTSTYLE2
 73
     1
 44
1.0
  0
MTEXT
  5
198
330
15E
100
AcDbEntity
  8
0
  6
Continuous
 62
   179
370
     0
100
AcDbMText
 10
-174.7485158139
 20
-12.9932672184
 30
0.0
 40
2.5
 41
0.0
 71
     1
 72
     1
  1
Coarse
  7
SLDTEXTSTYLE2
 73
     1
 44
1.0
  0
MTEXT
  5
199
330
15E
100
AcDbEntity
  8
0
  6
Continuous
 62
   179
370
     0
100
AcDbMText
 10
-151.7789943692
 20
-4.9932672184
 30
0.0
 40
2.5
 41
0.0
 71
     1
 72
     1
  1
(f)
  7
SLDTEXTSTYLE2
 73
     1
 44
1.0
  0
MTEXT
  5
19A
330
15E
100
AcDbEntity
  8
0
  6
Continuous
 62
   179
370
     0
100
AcDbMText
 10
-152.7844291518
 20
-8.9932672184
 30
0.0
 40
2.5
 41
0.0
 71
     1
 72
     1
  1
(m)
  7
SLDTEXTSTYLE2
 73
     1
 44
1.0
  0
MTEXT
  5
19B
330
15E
100
AcDbEntity
  8
0
  6
Continuous
 62
   179
370
     0
100
AcDbMText
 10
-152.1866030649
 20
-16.9932672184
 30
0.0
 40
2.5
 41
0.0
 71
     1
 72
     1
  1
(v)
  7
SLDTEXTSTYLE2
 73
     1
 44
1.0
  0
MTEXT
  5
19C
330
15E
100
AcDbEntity
  8
0
  6
Continuous
 62
   179
370
     0
100
AcDbMText
 10
-174.7485158139
 20
-16.9932672184
 30
0.0
 40
2.5
 41
0.0
 71
     1
 72
     1
  1
Very Coarse
  7
SLDTEXTSTYLE2
 73
     1
 44
1.0
  0
MTEXT
  5
19D
330
15E
100
AcDbEntity
  8
0
  6
Continuous
 62
   179
370
     0
100
AcDbMText
 10
-178.6122169322
 20
-18.8727771349
 30
0.0
 40
2.5
 41
0.0
 71
     1
 72
     1
  1
ISO 2768
  7
SLDTEXTSTYLE2
 11
6.123233995736766E-17
 21
1.0
 31
0.0
 73
     1
 44
1.0
  0
MTEXT
  5
19E
330
15E
100
AcDbEntity
  8
0
  6
Continuous
 62
   179
370
     0
100
AcDbMText
 10
-174.565631434
 20
-0.9932672184
 30
0.0
 40
2.5
 41
0.0
 71
     1
 72
     1
  1
Tolerance Class
  7
SLDTEXTSTYLE2
 73
     1
 44
1.0
  0
MTEXT
  5
19F
330
15E
100
AcDbEntity
  8
0
  6
Continuous
 62
   179
370
     0
100
AcDbMText
 10
-174.7485158139
 20
-4.9932672184
 30
0.0
 40
2.5
 41
0.0
 71
     1
 72
     1
  1
Fine
  7
SLDTEXTSTYLE2
 73
     1
 44
1.0
  0
ENDBLK
  5
160
330
15E
100
AcDbEntity
  8
0
100
AcDbBlockEnd
  0
BLOCK
  5
1A1
330
1A0
100
AcDbEntity
  8
0
100
AcDbBlockBegin
  2
Nota legale
 70
     0
 10
0.0
 20
0.0
 30
0.0
  3
Nota legale
  1

  0
MTEXT
  5
1A4
330
1A0
100
AcDbEntity
  8
0
  6
Continuous
 62
     7
370
     0
100
AcDbMText
 10
2.8916698098
 20
-1.0663983927
 30
0.0
 40
1.5
 41
0.0
 71
     3
 72
     1
  1
BY TERM LAWS WE RESERVE THE PROPERTY OF THIS DRAWING WITH PROHIBITION OF USE AND REPRODUCTION
  7
SLDTEXTSTYLE3
 73
     1
 44
1.0
  0
ENDBLK
  5
1A2
330
1A0
100
AcDbEntity
  8
0
100
AcDbBlockEnd
  0
ENDSEC
  0
SECTION
  2
ENTITIES
  0
LINE
  5
1A5
330
1F
100
AcDbEntity
  8
0
  6
Continuous
 62
     7
370
    15
100
AcDbLine
 10
289.8937742466
 20
702.5368960747
 30
0.0
 11
271.8937742466
 21
702.5368960747
 31
0.0
  0
LINE
  5
1A6
330
1F
100
AcDbEntity
  8
0
  6
Continuous
 62
     7
370
    15
100
AcDbLine
 10
271.8937742466
 20
517.5368960747
 30
0.0
 11
289.8937742466
 21
517.5368960747
 31
0.0
  0
LINE
  5
1A7
330
1F
100
AcDbEntity
  8
0
  6
Continuous
 62
     7
370
    15
100
AcDbLine
 10
416.1794885323
 20
702.5368960747
 30
0.0
 11
398.1794885323
 21
702.5368960747
 31
0.0
  0
LINE
  5
1A8
330
1F
100
AcDbEntity
  8
0
  6
Continuous
 62
     7
370
    15
100
AcDbLine
 10
398.1794885323
 20
517.5368960747
 30
0.0
 11
416.1794885323
 21
517.5368960747
 31
0.0
  0
LINE
  5
1A9
330
1F
100
AcDbEntity
  8
0
  6
Continuous
 62
     7
370
    15
100
AcDbLine
 10
271.8937742466
 20
684.5368960747
 30
0.0
 11
269.0366313894
 21
684.5368960747
 31
0.0
  0
LINE
  5
1AA
330
1F
100
AcDbEntity
  8
0
  6
Continuous
 62
     7
370
    15
100
AcDbLine
 10
269.0366313894
 20
535.5368960747
 30
0.0
 11
271.8937742466
 21
535.5368960747
 31
0.0
  0
LINE
  5
1AB
330
1F
100
AcDbEntity
  8
0
  6
Continuous
 62
     7
370
    15
100
AcDbLine
 10
419.0366313894
 20
684.5368960747
 30
0.0
 11
416.1794885323
 21
684.5368960747
 31
0.0
  0
LINE
  5
1AC
330
1F
100
AcDbEntity
  8
0
  6
Continuous
 62
     7
370
    15
100
AcDbLine
 10
416.1794885323
 20
535.5368960747
 30
0.0
 11
419.0366313894
 21
535.5368960747
 31
0.0
  0
ARC
  5
1AD
330
1F
100
AcDbEntity
  8
0
  6
Continuous
 62
     7
370
    15
100
AcDbCircle
 10
337.5031620017
 20
665.0368960747
 30
0.0
 40
4.696734693877545
100
AcDbArc
 50
0.0
 51
180.0
  0
ARC
  5
1AE
330
1F
100
AcDbEntity
  8
0
  6
Continuous
 62
     7
370
    15
100
AcDbCircle
 10
337.5031620017
 20
555.0368960747
 30
0.0
 40
4.696734693877602
100
AcDbArc
 50
180.0
 51
0.0
  0
ARC
  5
1AF
330
1F
100
AcDbEntity
  8
0
  6
Continuous
 62
     7
370
    15
100
AcDbCircle
 10
350.5701007772
 20
665.0368960747
 30
0.0
 40
4.696734693877545
100
AcDbArc
 50
0.0
 51
180.0
  0
ARC
  5
1B0
330
1F
100
AcDbEntity
  8
0
  6
Continuous
 62
     7
370
    15
100
AcDbCircle
 10
350.5701007772
 20
555.0368960747
 30
0.0
 40
4.696734693877602
100
AcDbArc
 50
180.0
 51
0.0
  0
ARC
  5
1B1
330
1F
100
AcDbEntity
  8
0
  6
Continuous
 62
     7
370
    15
100
AcDbCircle
 10
389.7709171037
 20
665.0368960747
 30
0.0
 40
4.696734693877545
100
AcDbArc
 50
0.0
 51
180.0
  0
ARC
  5
1B2
330
1F
100
AcDbEntity
  8
0
  6
Continuous
 62
     7
370
    15
100
AcDbCircle
 10
389.7709171037
 20
555.0368960747
 30
0.0
 40
4.696734693877545
100
AcDbArc
 50
180.0
 51
0.0
  0
ARC
  5
1B3
330
1F
100
AcDbEntity
  8
0
  6
Continuous
 62
     7
370
    15
100
AcDbCircle
 10
298.3023456751
 20
665.0368960747
 30
0.0
 40
4.696734693877545
100
AcDbArc
 50
0.0
 51
180.0
  0
ARC
  5
1B4
330
1F
100
AcDbEntity
  8
0
  6
Continuous
 62
     7
370
    15
100
AcDbCircle
 10
298.3023456751
 20
555.0368960747
 30
0.0
 40
4.696734693877545
100
AcDbArc
 50
180.0
 51
0.0
  0
ARC
  5
1B5
330
1F
100
AcDbEntity
  8
0
  6
Continuous
 62
     7
370
    15
100
AcDbCircle
 10
324.4362232261
 20
665.0368960747
 30
0.0
 40
4.696734693877545
100
AcDbArc
 50
0.0
 51
180.0
  0
ARC
  5
1B6
330
1F
100
AcDbEntity
  8
0
  6
Continuous
 62
     7
370
    15
100
AcDbCircle
 10
324.4362232261
 20
555.0368960747
 30
0.0
 40
4.696734693877545
100
AcDbArc
 50
180.0
 51
0.0
  0
ARC
  5
1B7
330
1F
100
AcDbEntity
  8
0
  6
Continuous
 62
     7
370
    15
100
AcDbCircle
 10
363.6370395527
 20
665.0368960747
 30
0.0
 40
4.696734693877545
100
AcDbArc
 50
0.0
 51
180.0
  0
ARC
  5
1B8
330
1F
100
AcDbEntity
  8
0
  6
Continuous
 62
     7
370
    15
100
AcDbCircle
 10
363.6370395527
 20
555.0368960747
 30
0.0
 40
4.696734693877545
100
AcDbArc
 50
180.0
 51
0.0
  0
ARC
  5
1B9
330
1F
100
AcDbEntity
  8
0
  6
Continuous
 62
     7
370
    15
100
AcDbCircle
 10
311.3692844506
 20
665.0368960747
 30
0.0
 40
4.696734693877602
100
AcDbArc
 50
0.0
 51
180.0
  0
ARC
  5
1BA
330
1F
100
AcDbEntity
  8
0
  6
Continuous
 62
     7
370
    15
100
AcDbCircle
 10
311.3692844506
 20
555.0368960747
 30
0.0
 40
4.696734693877545
100
AcDbArc
 50
180.0
 51
0.0
  0
ARC
  5
1BB
330
1F
100
AcDbEntity
  8
0
  6
Continuous
 62
     7
370
    15
100
AcDbCircle
 10
376.7039783282
 20
665.0368960747
 30
0.0
 40
4.696734693877545
100
AcDbArc
 50
0.0
 51
180.0
  0
ARC
  5
1BC
330
1F
100
AcDbEntity
  8
0
  6
Continuous
 62
     7
370
    15
100
AcDbCircle
 10
376.7039783282
 20
555.0368960747
 30
0.0
 40
4.696734693877602
100
AcDbArc
 50
180.0
 51
0.0
  0
LINE
  5
1BD
330
1F
100
AcDbEntity
  8
0
  6
Continuous
 62
     7
370
    15
100
AcDbLine
 10
289.9321415935
 20
649.0340389319
 30
0.0
 11
289.8937742466
 21
649.6111794797
 31
0.0
  0
LINE
  5
1BE
330
1F
100
AcDbEntity
  8
0
  6
Continuous
 62
     7
370
    15
100
AcDbLine
 10
289.8937742466
 20
570.4626126697
 30
0.0
 11
289.9321415935
 21
571.0397532176
 31
0.0
  0
LINE
  5
1BF
330
1F
100
AcDbEntity
  8
0
  6
Continuous
 62
     7
370
    15
100
AcDbLine
 10
398.1794885323
 20
649.6111794797
 30
0.0
 11
398.1411211853
 21
649.0340389319
 31
0.0
  0
LINE
  5
1C0
330
1F
100
AcDbEntity
  8
0
  6
Continuous
 62
     7
370
    15
100
AcDbLine
 10
398.1411211853
 20
571.0397532176
 30
0.0
 11
398.1794885323
 21
570.4626126697
 31
0.0
  0
ARC
  5
1C1
330
1F
100
AcDbEntity
  8
0
  6
Continuous
 62
     7
370
    15
100
AcDbCircle
 10
304.8358150629
 20
641.751181789
 30
0.0
 40
1.836734693877588
100
AcDbArc
 50
180.0
 51
360.0
  0
ARC
  5
1C2
330
1F
100
AcDbEntity
  8
0
  6
Continuous
 62
     7
370
    15
100
AcDbCircle
 10
304.8358150629
 20
578.3226103604
 30
0.0
 40
1.836734693877588
100
AcDbArc
 50
0.0
 51
180.0
  0
ARC
  5
1C3
330
1F
100
AcDbEntity
  8
0
  6
Continuous
 62
     7
370
    15
100
AcDbCircle
 10
291.7688762874
 20
641.751181789
 30
0.0
 40
1.836734693877588
100
AcDbArc
 50
180.0
 51
0.0
  0
ARC
  5
1C4
330
1F
100
AcDbEntity
  8
0
  6
Continuous
 62
     7
370
    15
100
AcDbCircle
 10
291.7688762874
 20
578.3226103604
 30
0.0
 40
1.836734693877588
100
AcDbArc
 50
0.0
 51
180.0
  0
ARC
  5
1C5
330
1F
100
AcDbEntity
  8
0
  6
Continuous
 62
     7
370
    15
100
AcDbCircle
 10
317.9027538384
 20
641.751181789
 30
0.0
 40
1.836734693877588
100
AcDbArc
 50
180.0
 51
0.0
  0
ARC
  5
1C6
330
1F
100
AcDbEntity
  8
0
  6
Continuous
 62
     7
370
    15
100
AcDbCircle
 10
317.9027538384
 20
578.3226103604
 30
0.0
 40
1.836734693877588
100
AcDbArc
 50
0.0
 51
180.0
  0
ARC
  5
1C7
330
1F
100
AcDbEntity
  8
0
  6
Continuous
 62
     7
370
    15
100
AcDbCircle
 10
370.1705089404
 20
641.751181789
 30
0.0
 40
1.836734693877588
100
AcDbArc
 50
180.0
 51
0.0
  0
ARC
  5
1C8
330
1F
100
AcDbEntity
  8
0
  6
Continuous
 62
     7
370
    15
100
AcDbCircle
 10
370.1705089404
 20
578.3226103604
 30
0.0
 40
1.836734693877588
100
AcDbArc
 50
0.0
 51
180.0
  0
ARC
  5
1C9
330
1F
100
AcDbEntity
  8
0
  6
Continuous
 62
     7
370
    15
100
AcDbCircle
 10
383.2374477159
 20
641.751181789
 30
0.0
 40
1.836734693877588
100
AcDbArc
 50
180.0
 51
0.0
  0
ARC
  5
1CA
330
1F
100
AcDbEntity
  8
0
  6
Continuous
 62
     7
370
    15
100
AcDbCircle
 10
383.2374477159
 20
578.3226103604
 30
0.0
 40
1.836734693877588
100
AcDbArc
 50
0.0
 51
180.0
  0
ARC
  5
1CB
330
1F
100
AcDbEntity
  8
0
  6
Continuous
 62
     7
370
    15
100
AcDbCircle
 10
396.3043864915
 20
641.751181789
 30
0.0
 40
1.836734693877588
100
AcDbArc
 50
180.0
 51
0.0
  0
ARC
  5
1CC
330
1F
100
AcDbEntity
  8
0
  6
Continuous
 62
     7
370
    15
100
AcDbCircle
 10
396.3043864915
 20
578.3226103604
 30
0.0
 40
1.836734693877588
100
AcDbArc
 50
0.0
 51
180.0
  0
ARC
  5
1CD
330
1F
100
AcDbEntity
  8
0
  6
Continuous
 62
     7
370
    15
100
AcDbCircle
 10
357.1035701649
 20
641.751181789
 30
0.0
 40
1.836734693877588
100
AcDbArc
 50
180.0
 51
0.0
  0
ARC
  5
1CE
330
1F
100
AcDbEntity
  8
0
  6
Continuous
 62
     7
370
    15
100
AcDbCircle
 10
357.1035701649
 20
578.3226103604
 30
0.0
 40
1.836734693877588
100
AcDbArc
 50
0.0
 51
180.0
  0
ARC
  5
1CF
330
1F
100
AcDbEntity
  8
0
  6
Continuous
 62
     7
370
    15
100
AcDbCircle
 10
330.9696926139
 20
641.751181789
 30
0.0
 40
1.836734693877588
100
AcDbArc
 50
180.0
 51
0.0
  0
ARC
  5
1D0
330
1F
100
AcDbEntity
  8
0
  6
Continuous
 62
     7
370
    15
100
AcDbCircle
 10
330.9696926139
 20
578.3226103604
 30
0.0
 40
1.836734693877588
100
AcDbArc
 50
0.0
 51
180.0
  0
ARC
  5
1D1
330
1F
100
AcDbEntity
  8
0
  6
Continuous
 62
     7
370
    15
100
AcDbCircle
 10
344.0366313894
 20
641.751181789
 30
0.0
 40
1.836734693877588
100
AcDbArc
 50
180.0
 51
0.0
  0
ARC
  5
1D2
330
1F
100
AcDbEntity
  8
0
  6
Continuous
 62
     7
370
    15
100
AcDbCircle
 10
344.0366313894
 20
578.3226103604
 30
0.0
 40
1.836734693877588
100
AcDbArc
 50
0.0
 51
180.0
  0
LINE
  5
1D3
330
1F
100
AcDbEntity
  8
0
  6
Continuous
 62
     7
370
    15
100
AcDbLine
 10
289.8937742466
 20
702.5368960747
 30
0.0
 11
289.8937742466
 21
517.5368960747
 31
0.0
  0
LINE
  5
1D4
330
1F
100
AcDbEntity
  8
0
  6
Continuous
 62
     7
370
    15
100
AcDbLine
 10
271.8937742466
 20
702.5368960747
 30
0.0
 11
271.8937742466
 21
517.5368960747
 31
0.0
  0
LINE
  5
1D5
330
1F
100
AcDbEntity
  8
0
  6
Continuous
 62
     7
370
    15
100
AcDbLine
 10
416.1794885323
 20
702.5368960747
 30
0.0
 11
416.1794885323
 21
517.5368960747
 31
0.0
  0
LINE
  5
1D6
330
1F
100
AcDbEntity
  8
0
  6
Continuous
 62
     7
370
    15
100
AcDbLine
 10
398.1794885323
 20
702.5368960747
 30
0.0
 11
398.1794885323
 21
517.5368960747
 31
0.0
  0
LINE
  5
1D7
330
1F
100
AcDbEntity
  8
0
  6
Continuous
 62
     7
370
    15
100
AcDbLine
 10
269.0366313894
 20
684.5368960747
 30
0.0
 11
269.0366313894
 21
535.5368960747
 31
0.0
  0
LINE
  5
1D8
330
1F
100
AcDbEntity
  8
0
  6
Continuous
 62
     7
370
    15
100
AcDbLine
 10
419.0366313894
 20
684.5368960747
 30
0.0
 11
419.0366313894
 21
535.5368960747
 31
0.0
  0
LINE
  5
1D9
330
1F
100
AcDbEntity
  8
0
  6
Continuous
 62
     7
370
    15
100
AcDbLine
 10
342.1998966955
 20
665.0368960747
 30
0.0
 11
342.1998966955
 21
555.0368960747
 31
0.0
  0
LINE
  5
1DA
330
1F
100
AcDbEntity
  8
0
  6
Continuous
 62
     7
370
    15
100
AcDbLine
 10
332.8064273078
 20
665.0368960747
 30
0.0
 11
332.8064273078
 21
555.0368960747
 31
0.0
  0
LINE
  5
1DB
330
1F
100
AcDbEntity
  8
0
  6
Continuous
 62
     7
370
    15
100
AcDbLine
 10
355.266835471
 20
665.0368960747
 30
0.0
 11
355.266835471
 21
555.0368960747
 31
0.0
  0
LINE
  5
1DC
330
1F
100
AcDbEntity
  8
0
  6
Continuous
 62
     7
370
    15
100
AcDbLine
 10
345.8733660833
 20
665.0368960747
 30
0.0
 11
345.8733660833
 21
555.0368960747
 31
0.0
  0
LINE
  5
1DD
330
1F
100
AcDbEntity
  8
0
  6
Continuous
 62
     7
370
    15
100
AcDbLine
 10
394.4676517976
 20
665.0368960747
 30
0.0
 11
394.4676517976
 21
555.0368960747
 31
0.0
  0
LINE
  5
1DE
330
1F
100
AcDbEntity
  8
0
  6
Continuous
 62
     7
370
    15
100
AcDbLine
 10
385.0741824098
 20
665.0368960747
 30
0.0
 11
385.0741824098
 21
555.0368960747
 31
0.0
  0
LINE
  5
1DF
330
1F
100
AcDbEntity
  8
0
  6
Continuous
 62
     7
370
    15
100
AcDbLine
 10
302.999080369
 20
665.0368960747
 30
0.0
 11
302.999080369
 21
555.0368960747
 31
0.0
  0
LINE
  5
1E0
330
1F
100
AcDbEntity
  8
0
  6
Continuous
 62
     7
370
    15
100
AcDbLine
 10
293.6056109812
 20
665.0368960747
 30
0.0
 11
293.6056109812
 21
555.0368960747
 31
0.0
  0
LINE
  5
1E1
330
1F
100
AcDbEntity
  8
0
  6
Continuous
 62
     7
370
    15
100
AcDbLine
 10
329.13295792
 20
665.0368960747
 30
0.0
 11
329.13295792
 21
555.0368960747
 31
0.0
  0
LINE
  5
1E2
330
1F
100
AcDbEntity
  8
0
  6
Continuous
 62
     7
370
    15
100
AcDbLine
 10
319.7394885323
 20
665.0368960747
 30
0.0
 11
319.7394885323
 21
555.0368960747
 31
0.0
  0
LINE
  5
1E3
330
1F
100
AcDbEntity
  8
0
  6
Continuous
 62
     7
370
    15
100
AcDbLine
 10
368.3337742466
 20
665.0368960747
 30
0.0
 11
368.3337742466
 21
555.0368960747
 31
0.0
  0
LINE
  5
1E4
330
1F
100
AcDbEntity
  8
0
  6
Continuous
 62
     7
370
    15
100
AcDbLine
 10
358.9403048588
 20
665.0368960747
 30
0.0
 11
358.9403048588
 21
555.0368960747
 31
0.0
  0
LINE
  5
1E5
330
1F
100
AcDbEntity
  8
0
  6
Continuous
 62
     7
370
    15
100
AcDbLine
 10
316.0660191445
 20
665.0368960747
 30
0.0
 11
316.0660191445
 21
555.0368960747
 31
0.0
  0
LINE
  5
1E6
330
1F
100
AcDbEntity
  8
0
  6
Continuous
 62
     7
370
    15
100
AcDbLine
 10
306.6725497568
 20
665.0368960747
 30
0.0
 11
306.6725497568
 21
555.0368960747
 31
0.0
  0
LINE
  5
1E7
330
1F
100
AcDbEntity
  8
0
  6
Continuous
 62
     7
370
    15
100
AcDbLine
 10
381.4007130221
 20
665.0368960747
 30
0.0
 11
381.4007130221
 21
555.0368960747
 31
0.0
  0
LINE
  5
1E8
330
1F
100
AcDbEntity
  8
0
  6
Continuous
 62
     7
370
    15
100
AcDbLine
 10
372.0072436343
 20
665.0368960747
 30
0.0
 11
372.0072436343
 21
555.0368960747
 31
0.0
  0
LINE
  5
1E9
330
1F
100
AcDbEntity
  8
0
  6
Continuous
 62
     7
370
    15
100
AcDbLine
 10
289.9321415935
 20
649.0340389319
 30
0.0
 11
289.9321415935
 21
571.0397532176
 31
0.0
  0
LINE
  5
1EA
330
1F
100
AcDbEntity
  8
0
  6
Continuous
 62
     7
370
    15
100
AcDbLine
 10
398.1411211853
 20
649.0340389319
 30
0.0
 11
398.1411211853
 21
571.0397532176
 31
0.0
  0
CIRCLE
  5
1EB
330
1F
100
AcDbEntity
  8
0
  6
Continuous
 62
     7
370
    15
100
AcDbCircle
 10
858.0080126506
 20
610.0368960747
 30
0.0
 40
27.01755102040818
  0
CIRCLE
  5
1EC
330
1F
100
AcDbEntity
  8
0
  6
Continuous
 62
     7
370
    15
100
AcDbCircle
 10
858.0080126506
 20
610.0368960747
 30
0.0
 40
74.5
  0
CIRCLE
  5
1ED
330
1F
100
AcDbEntity
  8
0
  6
Continuous
 62
     7
370
    15
100
AcDbCircle
 10
858.0080126506
 20
610.0368960747
 30
0.0
 40
52.03669367140253
  0
CIRCLE
  5
1EE
330
1F
100
AcDbEntity
  8
0
  6
Continuous
 62
     7
370
    15
100
AcDbCircle
 10
858.0080126506
 20
610.0368960747
 30
0.0
 40
48.95370810542909
  0
CIRCLE
  5
1EF
330
1F
100
AcDbEntity
  8
0
  6
Continuous
 62
     7
370
    15
100
AcDbCircle
 10
858.0080126506
 20
610.0368960747
 30
0.0
 40
41.77701443402668
  0
CIRCLE
  5
1F0
330
1F
100
AcDbEntity
  8
0
  6
Continuous
 62
     7
370
    15
100
AcDbCircle
 10
858.0080126506
 20
610.0368960747
 30
0.0
 40
92.5
  0
CIRCLE
  5
1F1
330
1F
100
AcDbEntity
  8
0
  6
Continuous
 62
     7
370
    15
100
AcDbCircle
 10
858.0080126506
 20
692.5368960747
 30
0.0
 40
6.5
  0
CIRCLE
  5
1F2
330
1F
100
AcDbEntity
  8
0
  6
Continuous
 62
     7
370
    15
100
AcDbCircle
 10
916.3443220985
 20
668.3732055226
 30
0.0
 40
6.499999999999892
  0
CIRCLE
  5
1F3
330
1F
100
AcDbEntity
  8
0
  6
Continuous
 62
     7
370
    15
100
AcDbCircle
 10
799.6717032027
 20
668.3732055226
 30
0.0
 40
6.500000000000133
  0
CIRCLE
  5
1F4
330
1F
100
AcDbEntity
  8
0
  6
Continuous
 62
     7
370
    15
100
AcDbCircle
 10
775.5080126506
 20
610.0368960747
 30
0.0
 40
6.5
  0
CIRCLE
  5
1F5
330
1F
100
AcDbEntity
  8
0
  6
Continuous
 62
     7
370
    15
100
AcDbCircle
 10
799.6717032027
 20
551.7005866268
 30
0.0
 40
6.499999999999972
  0
CIRCLE
  5
1F6
330
1F
100
AcDbEntity
  8
0
  6
Continuous
 62
     7
370
    15
100
AcDbCircle
 10
858.0080126506
 20
527.5368960747
 30
0.0
 40
6.5
  0
CIRCLE
  5
1F7
330
1F
100
AcDbEntity
  8
0
  6
Continuous
 62
     7
370
    15
100
AcDbCircle
 10
916.3443220985
 20
551.7005866268
 30
0.0
 40
6.500000000000052
  0
CIRCLE
  5
1F8
330
1F
100
AcDbEntity
  8
0
  6
Continuous
 62
     7
370
    15
100
AcDbCircle
 10
940.5080126506
 20
610.0368960747
 30
0.0
 40
6.500000000000114
  0
CIRCLE
  5
1F9
330
1F
100
AcDbEntity
  8
0
  6
Continuous
 62
     7
370
    15
100
AcDbCircle
 10
858.0080126506
 20
610.0368960747
 30
0.0
 40
40.50000000000011
  0
CIRCLE
  5
1FA
330
1F
100
AcDbEntity
  8
0
  6
Continuous
 62
     7
370
    15
100
AcDbCircle
 10
858.0080126506
 20
610.0368960747
 30
0.0
 40
39.0
  0
CIRCLE
  5
1FB
330
1F
100
AcDbEntity
  8
0
  6
Continuous
 62
     7
370
    15
100
AcDbCircle
 10
858.0080126506
 20
610.0368960747
 30
0.0
 40
31.71428571428567
  0
LINE
  5
1FC
330
1F
100
AcDbEntity
  8
0
  6
Continuous
 62
     7
370
    15
100
AcDbLine
 10
887.6625628667
 20
277.5016821033
 30
0.0
 11
874.9346408053
 21
284.8493551097
 31
0.0
  0
LINE
  5
1FD
330
1F
100
AcDbEntity
  8
0
  6
Continuous
 62
     7
370
    15
100
AcDbLine
 10
782.4421580365
 20
124.6303155693
 30
0.0
 11
795.1700800979
 21
117.2826425629
 31
0.0
  0
LINE
  5
1FE
330
1F
100
AcDbEntity
  8
0
  6
Continuous
 62
     7
370
    15
100
AcDbLine
 10
880.6835993621
 20
260.7465052779
 30
0.0
 11
878.663294273
 21
261.9128025805
 31
0.0
  0
LINE
  5
1FF
330
1F
100
AcDbEntity
  8
0
  6
Continuous
 62
     7
370
    15
100
AcDbLine
 10
804.1693486916
 20
132.8715220857
 30
0.0
 11
806.1896537807
 21
131.7052247831
 31
0.0
  0
SPLINE
  5
200
330
1F
100
AcDbEntity
  8
0
  6
Continuous
 62
     7
370
    15
100
AcDbSpline
210
0.0
220
0.0
230
1.0
 70
     8
 71
     3
 72
    35
 73
    31
 74
     0
 42
0.000000001
 43
0.00000001
 40
0.0
 40
0.0
 40
0.0
 40
0.0
 40
0.0012261518625283
 40
0.0385228688209277
 40
0.0758416240788683
 40
0.1131995189300789
 40
0.1506059691063267
 40
0.188064940497305
 40
0.2255765995331063
 40
0.26313851122329
 40
0.3007464959723832
 40
0.3383952323686696
 40
0.3760786730608268
 40
0.4137903246798503
 40
0.451523430143464
 40
0.4892710820727299
 40
0.5270262889373906
 40
0.5647820104750547
 40
0.6025288974623492
 40
0.6402597902104831
 40
0.6779676078844872
 40
0.7156453122896757
 40
0.7532859781725975
 40
0.7908829130592417
 40
0.8284298489417008
 40
0.8659212353996785
 40
0.9033526733311732
 40
0.9407215406792105
 40
0.978027876441685
 40
1.0
 40
1.0
 40
1.0
 40
1.0
 10
807.9353372749863
 20
175.606040840289
 30
0.0
 10
807.9340402890609
 20
175.6305574978224
 30
0.0
 10
807.8932919770504
 20
176.4008144382138
 30
0.0
 10
807.9235978711474
 20
178.0035261832452
 30
0.0
 10
808.0380787753189
 20
180.4093853297717
 30
0.0
 10
808.2897090834075
 20
182.8994124641976
 30
0.0
 10
808.6610794463504
 20
185.449628499907
 30
0.0
 10
809.1567140673943
 20
188.0535236351811
 30
0.0
 10
809.7744154816843
 20
190.6994329212755
 30
0.0
 10
810.5129583024024
 20
193.3767325722155
 30
0.0
 10
811.3700396281301
 20
196.0742851233731
 30
0.0
 10
812.3428539682994
 20
198.7809528049094
 30
0.0
 10
813.4279683235069
 20
201.4855447999821
 30
0.0
 10
814.621387581742
 20
204.1769077668445
 30
0.0
 10
815.9185697418302
 20
206.8439710822683
 30
0.0
 10
817.3144546374995
 20
209.4757990907542
 30
0.0
 10
818.8034886041775
 20
212.0616377507669
 30
0.0
 10
820.3796179562996
 20
214.5909094486583
 30
0.0
 10
822.0363367096485
 20
217.0533127630609
 30
0.0
 10
823.7667137320199
 20
219.4388714287886
 30
0.0
 10
825.5634570771597
 20
221.7380252611815
 30
0.0
 10
827.4189086867533
 20
223.9416249097818
 30
0.0
 10
829.3250704668278
 20
226.0409840597786
 30
0.0
 10
831.2736302982797
 20
228.0279062598842
 30
0.0
 10
833.2560035430536
 20
229.8948239227402
 30
0.0
 10
835.2633341951409
 20
231.6345333855695
 30
0.0
 10
837.2866720920122
 20
233.2414495085116
 30
0.0
 10
839.3165317095978
 20
234.7072178372792
 30
0.0
 10
841.0679799175327
 20
235.8558050378949
 30
0.0
 10
842.1371615302235
 20
236.4861152939202
 30
0.0
 10
842.5334638425556
 20
236.7197457725821
 30
0.0
  0
SPLINE
  5
201
330
1F
100
AcDbEntity
  8
0
  6
Continuous
 62
     7
370
    15
100
AcDbSpline
210
0.0
220
0.0
230
1.0
 70
     8
 71
     3
 72
    19
 73
    15
 74
     0
 42
0.000000001
 43
0.00000001
 40
0.0
 40
0.0
 40
0.0
 40
0.0
 40
0.0279739240415124
 40
0.1205773021447207
 40
0.21312361237743
 40
0.3056257073466602
 40
0.3980970162888998
 40
0.4905513267601647
 40
0.5830026500798905
 40
0.6754632077428268
 40
0.7679444459552948
 40
0.8604606398236919
 40
0.9530260270116006
 40
1.0
 40
1.0
 40
1.0
 40
1.0
 10
792.1689403621699
 20
246.2357311563257
 30
0.0
 10
791.9553023204614
 20
245.9910278536725
 30
0.0
 10
791.0344483613792
 20
244.9362718596243
 30
0.0
 10
789.4730301491946
 20
242.9704620484267
 30
0.0
 10
787.4940967380486
 20
240.3467968882196
 30
0.0
 10
785.5996288737251
 20
237.6345298447019
 30
0.0
 10
783.789074903213
 20
234.8513463283683
 30
0.0
 10
782.0693360911151
 20
232.0030386446153
 30
0.0
 10
780.4448999403452
 20
229.0987974930005
 30
0.0
 10
778.9213132915386
 20
226.1470666772457
 30
0.0
 10
777.501065631584
 20
223.1567416296797
 30
0.0
 10
776.1964274520801
 20
220.1362464765867
 30
0.0
 10
775.1817075101591
 20
217.595593311547
 30
0.0
 10
774.649085551636
 20
216.0624986613158
 30
0.0
 10
774.4697858224336
 20
215.546403800356
 30
0.0
  0
SPLINE
  5
202
330
1F
100
AcDbEntity
  8
0
  6
Continuous
 62
     7
370
    15
100
AcDbSpline
210
0.0
220
0.0
230
1.0
 70
     8
 71
     3
 72
    18
 73
    14
 74
     0
 42
0.000000001
 43
0.00000001
 40
0.0
 40
0.0
 40
0.0
 40
0.0
 40
0.0719110219572228
 40
0.1803491989460594
 40
0.2869127985919053
 40
0.3903773647054392
 40
0.4907897538886285
 40
0.5887865341108653
 40
0.6850768575910864
 40
0.7802514818255963
 40
0.8747525948220883
 40
0.9688940639323536
 40
0.9999999999999999
 40
0.9999999999999999
 40
0.9999999999999999
 40
0.9999999999999999
 10
815.0295101582681
 20
165.8840841639132
 30
0.0
 10
814.7614976525947
 20
166.0391174723034
 30
0.0
 10
814.0893358700172
 20
166.427933153365
 30
0.0
 10
813.1198165635366
 20
167.2311220274785
 30
0.0
 10
812.1111134861842
 20
168.26995819594
 30
0.0
 10
811.2107528939978
 20
169.4592704072772
 30
0.0
 10
810.4169761425643
 20
170.7804638485969
 30
0.0
 10
809.729932380117
 20
172.2289576091057
 30
0.0
 10
809.1496337744992
 20
173.8013638264013
 30
0.0
 10
808.6743190593721
 20
175.4920800339447
 30
0.0
 10
808.3166956557759
 20
177.3061012655146
 30
0.0
 10
808.1023012894146
 20
178.7815638154596
 30
0.0
 10
808.0476266175771
 20
179.6836549964014
 30
0.0
 10
808.0340478384855
 20
179.9076946925668
 30
0.0
  0
SPLINE
  5
203
330
1F
100
AcDbEntity
  8
0
  6
Continuous
 62
     7
370
    15
100
AcDbSpline
210
0.0
220
0.0
230
1.0
 70
     8
 71
     3
 72
    19
 73
    15
 74
     0
 42
0.000000001
 43
0.00000001
 40
0.0
 40
0.0
 40
0.0
 40
0.0
 40
0.0169624045424174
 40
0.1104297392196702
 40
0.2038844831058989
 40
0.29744585045844
 40
0.3913210897472936
 40
0.4858071063548208
 40
0.5813116878801325
 40
0.6783657619359633
 40
0.7776020331105192
 40
0.8796420155527167
 40
0.9847884445931295
 40
1.0
 40
1.0
 40
1.0
 40
1.0
 10
839.9041831037872
 20
235.0685732170482
 30
0.0
 10
840.0139409806079
 20
235.1240983171896
 30
0.0
 10
840.7284937837968
 20
235.4855814025284
 30
0.0
 10
842.0175749539237
 20
236.0066995703077
 30
0.0
 10
843.7562368483306
 20
236.6216089712421
 30
0.0
 10
845.4390586426592
 20
237.0709425796889
 30
0.0
 10
847.062219075906
 20
237.3738414582585
 30
0.0
 10
848.6195433282131
 20
237.5281756219973
 30
0.0
 10
850.1085895907838
 20
237.5381029463528
 30
0.0
 10
851.5284840141916
 20
237.4035894701289
 30
0.0
 10
852.8842909045115
 20
237.1284108107662
 30
0.0
 10
854.1695207856387
 20
236.6896213781264
 30
0.0
 10
855.0562709547067
 20
236.307863489894
 30
0.0
 10
855.4912128908323
 20
236.0224522726682
 30
0.0
 10
855.5461834305146
 20
235.9863803114725
 30
0.0
  0
SPLINE
  5
204
330
1F
100
AcDbEntity
  8
0
  6
Continuous
 62
     7
370
    15
100
AcDbSpline
210
0.0
220
0.0
230
1.0
 70
     8
 71
     3
 72
    42
 73
    38
 74
     0
 42
0.000000001
 43
0.00000001
 40
0.0
 40
0.0
 40
0.0
 40
0.0
 40
0.0156421772334868
 40
0.0450654460745768
 40
0.0744678134042946
 40
0.1038481789811167
 40
0.1332013847288177
 40
0.1625252914191815
 40
0.1918199373819532
 40
0.2210868891339801
 40
0.2503287585982154
 40
0.2795488557076108
 40
0.3087509456043932
 40
0.3379390838039612
 40
0.3671175077715358
 40
0.3962905680365877
 40
0.4254626857349667
 40
0.4546377172407131
 40
0.4838192742931284
 40
0.5130118612634782
 40
0.5422199707083064
 40
0.5714480447754662
 40
0.6007004123789491
 40
0.6299811889930005
 40
0.6592941222998868
 40
0.6886423619580283
 40
0.718028125960579
 40
0.7474522303795612
 40
0.776913445974539
 40
0.8064076486878218
 40
0.835926749437313
 40
0.8654555610379473
 40
0.8949678767476353
 40
0.9244335024674207
 40
0.9538141898685942
 40
0.983064954868528
 40
1.0
 40
1.0
 40
1.0
 40
1.0
 10
801.9150230073457
 20
267.8175495063329
 30
0.0
 10
801.4833667167255
 20
267.5637616232685
 30
0.0
 10
800.2397557412629
 20
266.8325933218294
 30
0.0
 10
798.1965594745109
 20
265.5072329655738
 30
0.0
 10
795.7983180501965
 20
263.7989648123367
 30
0.0
 10
793.4308393962326
 20
261.9493454400616
 30
0.0
 10
791.1005076538095
 20
259.9674640056205
 30
0.0
 10
788.8139345732365
 20
257.8593658358018
 30
0.0
 10
786.5774861771246
 20
255.6322186370115
 30
0.0
 10
784.3973857435274
 20
253.2931552995839
 30
0.0
 10
782.2797049171443
 20
250.8495843944361
 30
0.0
 10
780.2303714436399
 20
248.3091053646341
 30
0.0
 10
778.2551626132323
 20
245.6795250277936
 30
0.0
 10
776.3596958001057
 20
242.9688418626034
 30
0.0
 10
774.5494156412838
 20
240.1852338798507
 30
0.0
 10
772.8295800400764
 20
237.3370409721066
 30
0.0
 10
771.205257310433
 20
234.4327650593974
 30
0.0
 10
769.6813137009416
 20
231.4810585241812
 30
0.0
 10
768.2623809224349
 20
228.4906710976054
 30
0.0
 10
766.9528374206548
 20
225.4704013041098
 30
0.0
 10
765.7568017777401
 20
222.4290594961325
 30
0.0
 10
764.6781437625415
 20
219.3754730289738
 30
0.0
 10
763.7204830934501
 20
216.3184637066537
 30
0.0
 10
762.8871912303956
 20
213.2668285732731
 30
0.0
 10
762.1813959482257
 20
210.2293258572689
 30
0.0
 10
761.6059877543104
 20
207.2146680907549
 30
0.0
 10
761.1636271854163
 20
204.2315253980058
 30
0.0
 10
760.8567481863273
 20
201.2885400119327
 30
0.0
 10
760.6875613185904
 20
198.3943611340196
 30
0.0
 10
760.6580206134057
 20
195.5576777122695
 30
0.0
 10
760.7698547756445
 20
192.7873972782219
 30
0.0
 10
761.024210109579
 20
190.0926379981904
 30
0.0
 10
761.4224688620086
 20
187.4834401458045
 30
0.0
 10
761.9624689603395
 20
184.9678159659598
 30
0.0
 10
762.6517842697958
 20
182.5624490830138
 30
0.0
 10
763.3460785644451
 20
180.572032091752
 30
0.0
 10
763.8681557974562
 20
179.4325490140301
 30
0.0
 10
764.0595869205221
 20
179.0147324315589
 30
0.0
  0
SPLINE
  5
205
330
1F
100
AcDbEntity
  8
0
  6
Continuous
 62
     7
370
    15
100
AcDbSpline
210
0.0
220
0.0
230
1.0
 70
     8
 71
     3
 72
    15
 73
    11
 74
     0
 42
0.000000001
 43
0.00000001
 40
0.0
 40
0.0
 40
0.0
 40
0.0
 40
0.1154380568622194
 40
0.256559988409726
 40
0.3987250189298272
 40
0.5417304999730067
 40
0.6853628177220011
 40
0.8294211297720472
 40
0.9665391424079642
 40
0.9999999999999999
 40
0.9999999999999999
 40
0.9999999999999999
 40
0.9999999999999999
 10
818.7746378354531
 20
273.5935661734763
 30
0.0
 10
818.1382223720527
 20
273.526189536989
 30
0.0
 10
816.7237950302217
 20
273.3764456003173
 30
0.0
 10
814.4966111504143
 20
272.9347068410785
 30
0.0
 10
812.1015709392315
 20
272.3098775526213
 30
0.0
 10
809.6804495915602
 20
271.506759778862
 30
0.0
 10
807.243267771195
 20
270.5351195158028
 30
0.0
 10
804.8396117015207
 20
269.4146192881634
 30
0.0
 10
803.0631920736588
 20
268.4748157109822
 30
0.0
 10
802.1033134056419
 20
267.9253358237761
 30
0.0
 10
801.9150230073457
 20
267.8175495063329
 30
0.0
  0
LINE
  5
206
330
1F
100
AcDbEntity
  8
0
  6
Continuous
 62
     7
370
    15
100
AcDbLine
 10
798.3650779283
 20
329.0520228784
 30
0.0
 11
785.6371558669
 21
336.3996958848
 31
0.0
  0
LINE
  5
207
330
1F
100
AcDbEntity
  8
0
  6
Continuous
 62
     7
370
    15
100
AcDbLine
 10
693.1446730981
 20
176.1806563444
 30
0.0
 11
705.8725951594
 21
168.832983338
 31
0.0
  0
SPLINE
  5
208
330
1F
100
AcDbEntity
  8
0
  6
Continuous
 62
     7
370
    15
100
AcDbSpline
210
0.0
220
0.0
230
1.0
 70
     8
 71
     3
 72
    48
 73
    44
 74
     0
 42
0.000000001
 43
0.00000001
 40
0.0
 40
0.0
 40
0.0
 40
0.0
 40
0.0132441022168874
 40
0.038156540828829
 40
0.063051282303794
 40
0.0879273950763772
 40
0.1127805118460571
 40
0.1376088213459801
 40
0.1624123560296218
 40
0.1871924422538568
 40
0.2119512915122652
 40
0.2366917062977291
 40
0.2614168745250621
 40
0.2861302299656421
 40
0.3108353604462604
 40
0.3355359495242708
 40
0.3602357405388662
 40
0.3849379986500849
 40
0.4096457818877494
 40
0.4343629040657906
 40
0.4590931689947162
 40
0.4838403378044092
 40
0.5086080757505755
 40
0.5333998673712548
 40
0.5582188857980559
 40
0.5830677978207389
 40
0.6079484813957816
 40
0.6328616274846204
 40
0.657806195299536
 40
0.6827786930349575
 40
0.7077722717319115
 40
0.7327740725262902
 40
0.7577619063861067
 40
0.7827102082172555
 40
0.8075865934758585
 40
0.8323529745108426
 40
0.8569683887565738
 40
0.8813936342968156
 40
0.9055971569287817
 40
0.9295609562962865
 40
0.9532850057701314
 40
0.9767890583458229
 40
1.0
 40
1.0
 40
1.0
 40
1.0
 10
792.6753019898329
 20
273.1515269128416
 30
0.0
 10
792.2436456992128
 20
272.8977390297771
 30
0.0
 10
791.0000347237502
 20
272.1665707283381
 30
0.0
 10
788.9568384569982
 20
270.8412103720825
 30
0.0
 10
786.5585970326838
 20
269.1329422188454
 30
0.0
 10
784.1911183787199
 20
267.2833228465703
 30
0.0
 10
781.8607866362968
 20
265.3014414121291
 30
0.0
 10
779.5742135557238
 20
263.1933432423106
 30
0.0
 10
777.3377651596119
 20
260.9661960435201
 30
0.0
 10
775.1576647260147
 20
258.6271327060926
 30
0.0
 10
773.0399838996316
 20
256.1835618009447
 30
0.0
 10
770.9906504261272
 20
253.6430827711428
 30
0.0
 10
769.0154415957196
 20
251.0135024343023
 30
0.0
 10
767.119974782593
 20
248.3028192691121
 30
0.0
 10
765.309694623771
 20
245.5192112863593
 30
0.0
 10
763.5898590225637
 20
242.6710183786153
 30
0.0
 10
761.9655362929201
 20
239.7667424659059
 30
0.0
 10
760.4415926834297
 20
236.8150359306905
 30
0.0
 10
759.0226599049194
 20
233.8246485041118
 30
0.0
 10
757.7131164031528
 20
230.8043787106272
 30
0.0
 10
756.5170807601875
 20
227.7630369026091
 30
0.0
 10
755.4384227451777
 20
224.7094504356029
 30
0.0
 10
754.4807620753805
 20
221.6524411127125
 30
0.0
 10
753.6474702149644
 20
218.6008059814633
 30
0.0
 10
752.9416749229315
 20
215.5633032574914
 30
0.0
 10
752.3662667658921
 20
212.5486455207671
 30
0.0
 10
751.9239060591116
 20
209.5655027166286
 30
0.0
 10
751.6170275756201
 20
206.6225177470724
 30
0.0
 10
751.4478387800781
 20
203.7283373118146
 30
0.0
 10
751.4183052811869
 20
200.8916597115462
 30
0.0
 10
751.5301125182934
 20
198.1213575264883
 30
0.0
 10
751.7845683680686
 20
195.4266794464697
 30
0.0
 10
752.1824523680094
 20
192.8171788566569
 30
0.0
 10
752.7238474125988
 20
190.3026815604325
 30
0.0
 10
753.4079805626611
 20
187.8931283581191
 30
0.0
 10
754.2329987079947
 20
185.5985285353654
 30
0.0
 10
755.195828873915
 20
183.4287188316337
 30
0.0
 10
756.2920352036771
 20
181.3928598747051
 30
0.0
 10
757.5162282696461
 20
179.4995147075369
 30
0.0
 10
758.8611669897197
 20
177.7545497252304
 30
0.0
 10
760.3223906336601
 20
176.1674669462627
 30
0.0
 10
761.8805269717238
 20
174.7297930753778
 30
0.0
 10
763.0068994888339
 20
173.905236525617
 30
0.0
 10
763.5665520630561
 20
173.4955450703875
 30
0.0
  0
SPLINE
  5
209
330
1F
100
AcDbEntity
  8
0
  6
Continuous
 62
     7
370
    15
100
AcDbSpline
210
0.0
220
0.0
230
1.0
 70
     8
 71
     3
 72
    22
 73
    18
 74
     0
 42
0.000000001
 43
0.00000001
 40
0.0
 40
0.0
 40
0.0
 40
0.0
 40
0.0204689107976949
 40
0.0918474692005134
 40
0.1634073437395601
 40
0.2353386360926547
 40
0.3077970171582833
 40
0.3808915292909015
 40
0.4546771599823844
 40
0.5291537566694829
 40
0.6042719909957139
 40
0.6799454597365329
 40
0.7560662945149341
 40
0.8325207901640118
 40
0.9092020396519647
 40
0.9821890154578022
 40
1.0
 40
1.0
 40
1.0
 40
1.0
 10
823.1329543258112
 20
276.7599007661179
 30
0.0
 10
822.9563137050402
 20
276.8489476833864
 30
0.0
 10
822.163697325196
 20
277.2485162814451
 30
0.0
 10
820.6702805149789
 20
277.7924592004342
 30
0.0
 10
818.6602152763072
 20
278.384488996217
 30
0.0
 10
816.5730855116619
 20
278.7948534490213
 30
0.0
 10
814.4214407400057
 20
279.038011550945
 30
0.0
 10
812.2078121982248
 20
279.1080251534016
 30
0.0
 10
809.9382474703789
 20
279.0044771784676
 30
0.0
 10
807.6189677988908
 20
278.7258704867724
 30
0.0
 10
805.2573881231745
 20
278.2718481731465
 30
0.0
 10
802.8617152071163
 20
277.6429990649494
 30
0.0
 10
800.4407649448598
 20
276.8409682632607
 30
0.0
 10
798.0035369156597
 20
275.8690344175308
 30
0.0
 10
795.5998932784619
 20
274.7486131782431
 30
0.0
 10
793.8234709328434
 20
273.8087923340987
 30
0.0
 10
792.8635923679087
 20
273.2593131018149
 30
0.0
 10
792.6753019898329
 20
273.1515269128416
 30
0.0
  0
SPLINE
  5
20A
330
1F
100
AcDbEntity
  8
0
  6
Continuous
 62
     7
370
    15
100
AcDbSpline
210
0.0
220
0.0
230
1.0
 70
     8
 71
     3
 72
    64
 73
    60
 74
     0
 42
0.000000001
 43
0.00000001
 40
0.0
 40
0.0
 40
0.0
 40
0.0
 40
0.003582008556558
 40
0.0206664236029407
 40
0.0377486549649116
 40
0.0548818493689302
 40
0.0721655412310883
 40
0.0897547988767502
 40
0.1078838607055755
 40
0.1268896559022133
 40
0.1471856001857199
 40
0.1689547925347052
 40
0.188351709359711
 40
0.206499977046182
 40
0.2238069992324239
 40
0.2421748663296609
 40
0.2599472343963874
 40
0.2773800286758527
 40
0.2946490878682132
 40
0.3118596759344998
 40
0.3290664186878408
 40
0.3463012694295642
 40
0.3635864514450833
 40
0.3809314056561699
 40
0.3983375333997879
 40
0.4158012655838781
 40
0.4333160394025657
 40
0.4508735553117818
 40
0.4684645560367839
 40
0.4860792893654666
 40
0.503707765148433
 40
0.521339883421837
 40
0.5389630747783711
 40
0.5565661967541505
 40
0.5741390948174236
 40
0.591671740473225
 40
0.6091544452033105
 40
0.6265782564791366
 40
0.6439356324937392
 40
0.6612215331723872
 40
0.6784351214902825
 40
0.6955823474362709
 40
0.7126797970593223
 40
0.7297603500227798
 40
0.7468605918429695
 40
0.7640602589986373
 40
0.7814865332331786
 40
0.7993342931706828
 40
0.8178916685438975
 40
0.8375491809359755
 40
0.8586702337611387
 40
0.8809469369379838
 40
0.8995175782485643
 40
0.9171013945404948
 40
0.9357733121590157
 40
0.9537213683441066
 40
0.971245868474089
 40
0.9885562151408617
 40
1.0
 40
1.0
 40
1.0
 40
1.0
 10
831.5862538051462
 20
228.2970760880232
 30
0.0
 10
831.6851994697624
 20
228.3458680615827
 30
0.0
 10
832.2560671788563
 20
228.6273736967827
 30
0.0
 10
833.2541502732685
 20
228.9976900630785
 30
0.0
 10
834.5604180110142
 20
229.4017330232859
 30
0.0
 10
835.7891613390143
 20
229.6516006756561
 30
0.0
 10
836.9381612792926
 20
229.7700396237064
 30
0.0
 10
838.004199652019
 20
229.7600558818862
 30
0.0
 10
838.9922681208334
 20
229.628205912835
 30
0.0
 10
839.9147713557277
 20
229.372957079594
 30
0.0
 10
840.7890340622143
 20
228.9807535277117
 30
0.0
 10
841.5857351870661
 20
228.4511454860611
 30
0.0
 10
842.2999717501593
 20
227.7902709059414
 30
0.0
 10
842.9187820566747
 20
227.0309492484359
 30
0.0
 10
843.4804269701795
 20
226.1334998729066
 30
0.0
 10
843.9797879598982
 20
225.0824013017392
 30
0.0
 10
844.4045589603558
 20
223.8667581417099
 30
0.0
 10
844.7338379870071
 20
222.5281537003099
 30
0.0
 10
844.9633141643019
 20
221.0703240169982
 30
0.0
 10
845.0877568177696
 20
219.4996660473541
 30
0.0
 10
845.1021467668955
 20
217.825370647208
 30
0.0
 10
845.0024104007484
 20
216.0585842689909
 30
0.0
 10
844.7856685516
 20
214.2116430626911
 30
0.0
 10
844.4503115752422
 20
212.2978203816037
 30
0.0
 10
843.99607979299
 20
210.3313124955617
 30
0.0
 10
843.4240676714076
 20
208.3269437192089
 30
0.0
 10
842.7366839046111
 20
206.2999206779079
 30
0.0
 10
841.9375890647627
 20
204.2656272728523
 30
0.0
 10
841.0316239825153
 20
202.239451773703
 30
0.0
 10
840.0247365544545
 20
200.23663818441
 30
0.0
 10
838.9239111762475
 20
198.2721548899044
 30
0.0
 10
837.7371567626429
 20
196.3606615320031
 30
0.0
 10
836.473430436345
 20
194.5163272488045
 30
0.0
 10
835.1425567400743
 20
192.7526679636678
 30
0.0
 10
833.7550969745462
 20
191.0823495444889
 30
0.0
 10
832.322316234546
 20
189.5171212656196
 30
0.0
 10
830.8561434964744
 20
188.0677114882961
 30
0.0
 10
829.3690971026366
 20
186.7436736547517
 30
0.0
 10
827.8741896605217
 20
185.5532135504548
 30
0.0
 10
826.3847995623878
 20
184.5029973040339
 30
0.0
 10
824.9144912294771
 20
183.5979438101911
 30
0.0
 10
823.4767594568044
 20
182.8410131057369
 30
0.0
 10
822.0846650490273
 20
182.2330159671989
 30
0.0
 10
820.7508593282713
 20
181.7726804831838
 30
0.0
 10
819.4865368841723
 20
181.4563258491593
 30
0.0
 10
818.3003693275574
 20
181.2780558716201
 30
0.0
 10
817.1967090282253
 20
181.2305779811205
 30
0.0
 10
816.1741428894672
 20
181.3071878588238
 30
0.0
 10
815.2237845891509
 20
181.5053733735174
 30
0.0
 10
814.3295495047037
 20
181.8324950016317
 30
0.0
 10
813.4767275231595
 20
182.3096630511608
 30
0.0
 10
812.7085897807348
 20
182.9303191130046
 30
0.0
 10
812.0324588813999
 20
183.6779193937521
 30
0.0
 10
811.4415783906793
 20
184.5325022122612
 30
0.0
 10
810.9123741945483
 20
185.5405845453288
 30
0.0
 10
810.454404302853
 20
186.7132681260595
 30
0.0
 10
810.0953849476861
 20
188.0139255033006
 30
0.0
 10
809.8496494130508
 20
189.26226923346
 30
0.0
 10
809.770620672649
 20
190.1244761309906
 30
0.0
 10
809.7391682219975
 20
190.4676236967765
 30
0.0
  0
SPLINE
  5
20B
330
1F
100
AcDbEntity
  8
0
  6
Continuous
 62
     7
370
    15
100
AcDbSpline
210
0.0
220
0.0
230
1.0
 70
     8
 71
     3
 72
    52
 73
    48
 74
     0
 42
0.000000001
 43
0.00000001
 40
0.0
 40
0.0
 40
0.0
 40
0.0
 40
0.0122481793243542
 40
0.0352872657440404
 40
0.058309985806562
 40
0.0813154779978685
 40
0.104299703427358
 40
0.1272609870308536
 40
0.1501993588214089
 40
0.1731160454172263
 40
0.1960130920131798
 40
0.2188930903617937
 40
0.2417589886547759
 40
0.2646139624526055
 40
0.2874613297865973
 40
0.310304497219939
 40
0.3331469266022107
 40
0.3559916375616958
 40
0.378841458172135
 40
0.4016999154583235
 40
0.4245705271938657
 40
0.4474567716812182
 40
0.4703620385581573
 40
0.4932895503342982
 40
0.5162422415298025
 40
0.5392225783986047
 40
0.5622322976796188
 40
0.585272038375735
 40
0.6083408379638285
 40
0.6314354672132503
 40
0.6545495921893716
 40
0.6776713209820481
 40
0.7007801331182109
 40
0.7238523859339899
 40
0.7468581301210571
 40
0.7697621421230911
 40
0.7925265396554921
 40
0.8151150686866855
 40
0.8374985478098994
 40
0.8596603302500709
 40
0.8816003913804504
 40
0.9033369988213867
 40
0.9249056927401101
 40
0.9463560402794026
 40
0.9677469826830422
 40
0.9891293047225782
 40
1.0
 40
1.0
 40
1.0
 40
1.0
 10
783.4355809723202
 20
278.4855043193502
 30
0.0
 10
783.0039246817
 20
278.2317164362858
 30
0.0
 10
781.7603137062375
 20
277.5005481348467
 30
0.0
 10
779.7171174394854
 20
276.1751877785912
 30
0.0
 10
777.318876015171
 20
274.466919625354
 30
0.0
 10
774.9513973612071
 20
272.6173002530788
 30
0.0
 10
772.621065618784
 20
270.6354188186377
 30
0.0
 10
770.334492538211
 20
268.5273206488191
 30
0.0
 10
768.0980441420991
 20
266.3001734500286
 30
0.0
 10
765.9179437085019
 20
263.9611101126012
 30
0.0
 10
763.8002628821188
 20
261.5175392074534
 30
0.0
 10
761.7509294086145
 20
258.9770601776514
 30
0.0
 10
759.7757205782069
 20
256.3474798408109
 30
0.0
 10
757.8802537650802
 20
253.6367966756207
 30
0.0
 10
756.0699736062583
 20
250.853188692868
 30
0.0
 10
754.350138005051
 20
248.004995785124
 30
0.0
 10
752.7258152754075
 20
245.1007198724147
 30
0.0
 10
751.201871665917
 20
242.1490133371994
 30
0.0
 10
749.7829388874067
 20
239.1586259106207
 30
0.0
 10
748.4733953856402
 20
236.138356117136
 30
0.0
 10
747.2773597426748
 20
233.0970143091178
 30
0.0
 10
746.1987017276651
 20
230.0434278421117
 30
0.0
 10
745.2410410578677
 20
226.9864185192212
 30
0.0
 10
744.407749197452
 20
223.9347833879725
 30
0.0
 10
743.7019539054179
 20
220.8972806639988
 30
0.0
 10
743.1265457483831
 20
217.8826229272814
 30
0.0
 10
742.6841850415852
 20
214.899480123117
 30
0.0
 10
742.3773065581577
 20
211.9564951536575
 30
0.0
 10
742.2081177623774
 20
209.0623147180379
 30
0.0
 10
742.1785842643764
 20
206.2256371191222
 30
0.0
 10
742.2903914981575
 20
203.4553349290103
 30
0.0
 10
742.5448473603469
 20
200.7606568678586
 30
0.0
 10
742.9427313140037
 20
198.1511562077044
 30
0.0
 10
743.484126530877
 20
195.6366591733123
 30
0.0
 10
744.1682590409126
 20
193.227104998304
 30
0.0
 10
744.993279558418
 20
190.9325087807123
 30
0.0
 10
745.9561009539894
 20
188.7626857480433
 30
0.0
 10
747.0523396324031
 20
186.7268759537152
 30
0.0
 10
748.2764136123359
 20
184.8333498028301
 30
0.0
 10
749.6217902403378
 20
183.0890503410734
 30
0.0
 10
751.0814036196999
 20
181.499520325831
 30
0.0
 10
752.6479357797926
 20
180.0685796857473
 30
0.0
 10
754.3147081722398
 20
178.7998628785342
 30
0.0
 10
756.0740456614316
 20
177.6922951373899
 30
0.0
 10
757.924106486024
 20
176.758671741579
 30
0.0
 10
759.5271969500417
 20
176.090274473536
 30
0.0
 10
760.5363099419731
 20
175.7988540644584
 30
0.0
 10
760.876425712475
 20
175.7006324799917
 30
0.0
  0
SPLINE
  5
20C
330
1F
100
AcDbEntity
  8
0
  6
Continuous
 62
     7
370
    15
100
AcDbSpline
210
0.0
220
0.0
230
1.0
 70
     8
 71
     3
 72
    25
 73
    21
 74
     0
 42
0.000000001
 43
0.00000001
 40
0.0
 40
0.0
 40
0.0
 40
0.0
 40
0.0467750836149249
 40
0.1041761789786837
 40
0.1612832697946508
 40
0.2182558036194751
 40
0.2752216053102113
 40
0.3323321117875265
 40
0.3897390394032463
 40
0.447566625991961
 40
0.5059018960786669
 40
0.5647887340822679
 40
0.6242270182450773
 40
0.68417738059111
 40
0.7445708644327482
 40
0.8053213821729438
 40
0.8663381879892209
 40
0.9275359615149507
 40
0.9857854090072704
 40
0.9999999999999999
 40
0.9999999999999999
 40
0.9999999999999999
 40
0.9999999999999999
 10
819.9419134563017
 20
277.9802347670573
 30
0.0
 10
819.5219469750027
 20
278.3669715852297
 30
0.0
 10
818.5866091853148
 20
279.2283011836813
 30
0.0
 10
817.0046583487248
 20
280.3824149539346
 30
0.0
 10
815.2343859629557
 20
281.4679751492793
 30
0.0
 10
813.3743230703665
 20
282.3839021619216
 30
0.0
 10
811.4345905162029
 20
283.1342534862167
 30
0.0
 10
809.419407032024
 20
283.7163580720626
 30
0.0
 10
807.3336587425622
 20
284.1294014567782
 30
0.0
 10
805.1816398894026
 20
284.3718341465565
 30
0.0
 10
802.9681128697615
 20
284.4420446189267
 30
0.0
 10
800.6985205591533
 20
284.3384431559946
 30
0.0
 10
798.3792483816035
 20
284.0598509964099
 30
0.0
 10
796.0176666718762
 20
283.6058247384666
 30
0.0
 10
793.6219943069491
 20
282.9769766990133
 30
0.0
 10
791.2010438956651
 20
282.1749456083327
 30
0.0
 10
788.7638159067161
 20
281.2030118406573
 30
0.0
 10
786.3601722586889
 20
280.0825905803691
 30
0.0
 10
784.5837499154379
 20
279.1427697408154
 30
0.0
 10
783.6238713504133
 20
278.5932905083576
 30
0.0
 10
783.4355809723202
 20
278.4855043193502
 30
0.0
  0
SPLINE
  5
20D
330
1F
100
AcDbEntity
  8
0
  6
Continuous
 62
     7
370
    15
100
AcDbSpline
210
0.0
220
0.0
230
1.0
 70
     8
 71
     3
 72
    36
 73
    32
 74
     0
 42
0.000000001
 43
0.00000001
 40
0.0
 40
0.0
 40
0.0
 40
0.0
 40
0.0093494441422625
 40
0.0449885486293583
 40
0.0802929178018528
 40
0.1154777502817073
 40
0.1506547215140959
 40
0.1858891559115292
 40
0.221226486121135
 40
0.2566860128925244
 40
0.2922706010787831
 40
0.3279729541305016
 40
0.363779655235634
 40
0.3996737370443934
 40
0.4356362742498841
 40
0.4716473297094642
 40
0.5076864798483158
 40
0.5437330765901193
 40
0.5797614233991816
 40
0.6157487409420084
 40
0.6516742695852182
 40
0.6875175073614113
 40
0.7232586473418502
 40
0.7588793872340245
 40
0.7943643087841459
 40
0.8297031082080345
 40
0.8648940743162009
 40
0.8999493710951447
 40
0.9349029065875333
 40
0.9698218990338033
 40
1.0
 40
1.0
 40
1.0
 40
1.0
 10
835.0445487412171
 20
229.4787668990003
 30
0.0
 10
835.081267493457
 20
229.3762890524072
 30
0.0
 10
835.2579542938286
 20
228.8831763587826
 30
0.0
 10
835.4901500112502
 20
227.8547505341214
 30
0.0
 10
835.7246478593988
 20
226.4062637287821
 30
0.0
 10
835.8477536837751
 20
224.8331185728141
 30
0.0
 10
835.8625014645734
 20
223.1594889227235
 30
0.0
 10
835.762669017931
 20
221.3925237856095
 30
0.0
 10
835.5459530180243
 20
219.5456306721295
 30
0.0
 10
835.2105890805648
 20
217.6317950398299
 30
0.0
 10
834.7563591732908
 20
215.6652906422068
 30
0.0
 10
834.1843465468138
 20
213.6609209264921
 30
0.0
 10
833.496962915903
 20
211.6338981380078
 30
0.0
 10
832.6978680395043
 20
209.5996046649506
 30
0.0
 10
831.7919029670956
 20
207.5734291841036
 30
0.0
 10
830.7850155363316
 20
205.5706155897923
 30
0.0
 10
829.6841901590795
 20
203.6061322970214
 30
0.0
 10
828.4974357443617
 20
201.6946389372056
 30
0.0
 10
827.2337094215583
 20
199.8503046599247
 30
0.0
 10
825.9028357124446
 20
198.0866453530686
 30
0.0
 10
824.5153759946727
 20
196.4163270146449
 30
0.0
 10
823.082595077082
 20
194.8510984354742
 30
0.0
 10
821.6164229989105
 20
193.4016897740253
 30
0.0
 10
820.129374154844
 20
192.0776477972055
 30
0.0
 10
818.6344758047146
 20
190.8872030672289
 30
0.0
 10
817.1450519829425
 20
189.8369297949787
 30
0.0
 10
815.6748687346652
 20
188.9320878161242
 30
0.0
 10
814.2366727194783
 20
188.1743720891826
 30
0.0
 10
812.8463041276614
 20
187.569293262295
 30
0.0
 10
811.5671902493191
 20
187.1195699704765
 30
0.0
 10
810.7942185909682
 20
186.9404158644209
 30
0.0
 10
810.4358797539034
 20
186.8573625295078
 30
0.0
  0
SPLINE
  5
20E
330
1F
100
AcDbEntity
  8
0
  6
Continuous
 62
     7
370
    15
100
AcDbSpline
210
0.0
220
0.0
230
1.0
 70
     8
 71
     3
 72
    52
 73
    48
 74
     0
 42
0.000000001
 43
0.00000001
 40
0.0
 40
0.0
 40
0.0
 40
0.0
 40
0.0122481793243542
 40
0.0352872657440405
 40
0.0583099858065622
 40
0.0813154779978671
 40
0.1042997034273576
 40
0.1272609870308514
 40
0.1501993588214078
 40
0.1731160454172253
 40
0.1960130920131787
 40
0.2188930903617918
 40
0.2417589886547749
 40
0.2646139624526044
 40
0.2874613297865972
 40
0.3103044972199386
 40
0.3331469266022096
 40
0.3559916375616952
 40
0.3788414581721331
 40
0.4016999154583225
 40
0.4245705271938648
 40
0.4474567716812172
 40
0.4703620385581562
 40
0.4932895503342969
 40
0.516242241529802
 40
0.5392225783986041
 40
0.5622322976796182
 40
0.5852720383757342
 40
0.6083408379638275
 40
0.6314354672132491
 40
0.6545495921893703
 40
0.6776713209820465
 40
0.7007801331182101
 40
0.7238523859339882
 40
0.746858130121056
 40
0.7697621421230909
 40
0.7925265396554917
 40
0.8151150686866859
 40
0.8374985478098981
 40
0.8596603302500698
 40
0.8816003913804495
 40
0.9033369988213849
 40
0.9249056927401088
 40
0.946356040279401
 40
0.9677469826830405
 40
0.9891293047225773
 40
1.0
 40
1.0
 40
1.0
 40
1.0
 10
774.1958599548075
 20
283.8194817258588
 30
0.0
 10
773.7642036641873
 20
283.5656938427944
 30
0.0
 10
772.5205926887248
 20
282.8345255413553
 30
0.0
 10
770.4773964219727
 20
281.5091651850998
 30
0.0
 10
768.0791549976584
 20
279.8008970318626
 30
0.0
 10
765.7116763436945
 20
277.9512776595875
 30
0.0
 10
763.3813446012714
 20
275.9693962251464
 30
0.0
 10
761.0947715206984
 20
273.8612980553278
 30
0.0
 10
758.8583231245865
 20
271.6341508565374
 30
0.0
 10
756.6782226909893
 20
269.2950875191099
 30
0.0
 10
754.5605418646062
 20
266.8515166139622
 30
0.0
 10
752.511208391102
 20
264.3110375841602
 30
0.0
 10
750.5359995606943
 20
261.6814572473197
 30
0.0
 10
748.6405327475676
 20
258.9707740821295
 30
0.0
 10
746.8302525887457
 20
256.1871660993767
 30
0.0
 10
745.1104169875384
 20
253.3389731916327
 30
0.0
 10
743.4860942578948
 20
250.4346972789235
 30
0.0
 10
741.9621506484045
 20
247.4829907437083
 30
0.0
 10
740.5432178698941
 20
244.4926033171295
 30
0.0
 10
739.2336743681276
 20
241.4723335236449
 30
0.0
 10
738.0376387251622
 20
238.4309917156267
 30
0.0
 10
736.9589807101526
 20
235.3774052486206
 30
0.0
 10
736.0013200403552
 20
232.3203959257301
 30
0.0
 10
735.1680281799394
 20
229.2687607944814
 30
0.0
 10
734.4622328879052
 20
226.2312580705077
 30
0.0
 10
733.8868247308704
 20
223.2166003337903
 30
0.0
 10
733.4444640240727
 20
220.2334575296259
 30
0.0
 10
733.137585540645
 20
217.2904725601664
 30
0.0
 10
732.9683967448648
 20
214.3962921245468
 30
0.0
 10
732.9388632468637
 20
211.5596145256311
 30
0.0
 10
733.0506704806448
 20
208.7893123355193
 30
0.0
 10
733.3051263428342
 20
206.0946342743675
 30
0.0
 10
733.703010296491
 20
203.4851336142133
 30
0.0
 10
734.2444055133642
 20
200.9706365798212
 30
0.0
 10
734.9285380233999
 20
198.5610824048129
 30
0.0
 10
735.7535585409051
 20
196.2664861872212
 30
0.0
 10
736.7163799364766
 20
194.0966631545521
 30
0.0
 10
737.8126186148904
 20
192.0608533602241
 30
0.0
 10
739.0366925948231
 20
190.1673272093389
 30
0.0
 10
740.3820692228251
 20
188.4230277475823
 30
0.0
 10
741.841682602187
 20
186.8334977323399
 30
0.0
 10
743.4082147622797
 20
185.4025570922562
 30
0.0
 10
745.0749871547268
 20
184.133840285043
 30
0.0
 10
746.8343246439186
 20
183.0262725438988
 30
0.0
 10
748.684385468511
 20
182.0926491480877
 30
0.0
 10
750.2874759325289
 20
181.4242518800448
 30
0.0
 10
751.2965889244601
 20
181.1328314709672
 30
0.0
 10
751.6367046949622
 20
181.0346098865004
 30
0.0
  0
SPLINE
  5
20F
330
1F
100
AcDbEntity
  8
0
  6
Continuous
 62
     7
370
    15
100
AcDbSpline
210
0.0
220
0.0
230
1.0
 70
     8
 71
     3
 72
    25
 73
    21
 74
     0
 42
0.000000001
 43
0.00000001
 40
0.0
 40
0.0
 40
0.0
 40
0.0
 40
0.0467750836149047
 40
0.1041761789786668
 40
0.1612832697946323
 40
0.2182558036194598
 40
0.2752216053101984
 40
0.3323321117875139
 40
0.3897390394032322
 40
0.4475666259919472
 40
0.5059018960786508
 40
0.5647887340822549
 40
0.6242270182450629
 40
0.684177380591094
 40
0.7445708644327327
 40
0.8053213821729276
 40
0.866338187989206
 40
0.927535961514937
 40
0.9857854090072592
 40
1.0
 40
1.0
 40
1.0
 40
1.0
 10
810.7021924387888
 20
283.314212173566
 30
0.0
 10
810.28222595749
 20
283.7009489917383
 30
0.0
 10
809.3468881678023
 20
284.5622785901897
 30
0.0
 10
807.7649373312124
 20
285.716392360443
 30
0.0
 10
805.9946649454433
 20
286.8019525557876
 30
0.0
 10
804.1346020528541
 20
287.7178795684301
 30
0.0
 10
802.1948694986904
 20
288.4682308927252
 30
0.0
 10
800.1796860145115
 20
289.0503354785711
 30
0.0
 10
798.0939377250498
 20
289.4633788632868
 30
0.0
 10
795.9419188718904
 20
289.7058115530651
 30
0.0
 10
793.7283918522492
 20
289.7760220254353
 30
0.0
 10
791.458799541641
 20
289.6724205625032
 30
0.0
 10
789.1395273640912
 20
289.3938284029184
 30
0.0
 10
786.7779456543641
 20
288.9398021449753
 30
0.0
 10
784.382273289437
 20
288.3109541055221
 30
0.0
 10
781.9613228781529
 20
287.5089230148416
 30
0.0
 10
779.524094889204
 20
286.5369892471661
 30
0.0
 10
777.1204512411766
 20
285.4165679868779
 30
0.0
 10
775.3440288979255
 20
284.4767471473243
 30
0.0
 10
774.3841503329008
 20
283.9272679148662
 30
0.0
 10
774.1958599548075
 20
283.8194817258588
 30
0.0
  0
SPLINE
  5
210
330
1F
100
AcDbEntity
  8
0
  6
Continuous
 62
     7
370
    15
100
AcDbSpline
210
0.0
220
0.0
230
1.0
 70
     8
 71
     3
 72
    21
 73
    17
 74
     0
 42
0.000000001
 43
0.00000001
 40
0.0
 40
0.0
 40
0.0
 40
0.0
 40
0.035506129759688
 40
0.1152813320926951
 40
0.1952896951661736
 40
0.2754933062475869
 40
0.3558498776427682
 40
0.4363148607589138
 40
0.5168426200937614
 40
0.5973870185071668
 40
0.6778906383176923
 40
0.7583025801928529
 40
0.8385764577235757
 40
0.9186664602431254
 40
0.9985283301154381
 40
0.9999999999999999
 40
0.9999999999999999
 40
0.9999999999999999
 40
0.9999999999999999
 10
825.7005361350807
 20
221.8733143277137
 30
0.0
 10
825.6352917350123
 20
221.5816361944297
 30
0.0
 10
825.4234561617641
 20
220.6346153849281
 30
0.0
 10
824.9404085642308
 20
218.9935126490523
 30
0.0
 10
824.2583762328155
 20
216.9682482189384
 30
0.0
 10
823.4578420929133
 20
214.9334821333166
 30
0.0
 10
822.5522639923478
 20
212.9074325692102
 30
0.0
 10
821.5452719401502
 20
210.904589243786
 30
0.0
 10
820.4444773012963
 20
208.9400986874602
 30
0.0
 10
819.2577046806852
 20
207.028664161121
 30
0.0
 10
817.9940203976593
 20
205.1841020034086
 30
0.0
 10
816.6629969885884
 20
203.4212939155261
 30
0.0
 10
815.2760926265438
 20
201.7478066143903
 30
0.0
 10
813.8412468615923
 20
200.1943634157437
 30
0.0
 10
812.8583983878071
 20
199.1881299858203
 30
0.0
 10
812.352430010311
 20
198.7379202219
 30
0.0
 10
812.3432748889929
 20
198.7297740112066
 30
0.0
  0
SPLINE
  5
211
330
1F
100
AcDbEntity
  8
0
  6
Continuous
 62
     7
370
    15
100
AcDbSpline
210
0.0
220
0.0
230
1.0
 70
     8
 71
     3
 72
    52
 73
    48
 74
     0
 42
0.000000001
 43
0.00000001
 40
0.0
 40
0.0
 40
0.0
 40
0.0
 40
0.0122481793243542
 40
0.0352872657440408
 40
0.0583099858065626
 40
0.0813154779978686
 40
0.1042997034273592
 40
0.1272609870308542
 40
0.1501993588214098
 40
0.1731160454172272
 40
0.1960130920131817
 40
0.2188930903617944
 40
0.241758988654778
 40
0.2646139624526072
 40
0.2874613297865995
 40
0.3103044972199424
 40
0.333146926602213
 40
0.3559916375616975
 40
0.3788414581721374
 40
0.4016999154583246
 40
0.4245705271938667
 40
0.4474567716812202
 40
0.4703620385581593
 40
0.4932895503343001
 40
0.5162422415298055
 40
0.5392225783986067
 40
0.5622322976796216
 40
0.5852720383757376
 40
0.6083408379638311
 40
0.6314354672132528
 40
0.6545495921893743
 40
0.6776713209820497
 40
0.7007801331182126
 40
0.7238523859339918
 40
0.746858130121059
 40
0.769762142123094
 40
0.7925265396554944
 40
0.8151150686866879
 40
0.8374985478099004
 40
0.8596603302500718
 40
0.8816003913804518
 40
0.9033369988213875
 40
0.9249056927401103
 40
0.9463560402794033
 40
0.9677469826830423
 40
0.9891293047225787
 40
1.0
 40
1.0
 40
1.0
 40
1.0
 10
764.9561389372948
 20
289.1534591323673
 30
0.0
 10
764.5244826466746
 20
288.899671249303
 30
0.0
 10
763.280871671212
 20
288.1685029478638
 30
0.0
 10
761.2376754044599
 20
286.8431425916083
 30
0.0
 10
758.8394339801456
 20
285.1348744383712
 30
0.0
 10
756.4719553261816
 20
283.285255066096
 30
0.0
 10
754.1416235837585
 20
281.3033736316548
 30
0.0
 10
751.8550505031855
 20
279.1952754618362
 30
0.0
 10
749.6186021070736
 20
276.9681282630459
 30
0.0
 10
747.4385016734764
 20
274.6290649256183
 30
0.0
 10
745.3208208470933
 20
272.1854940204705
 30
0.0
 10
743.271487373589
 20
269.6450149906685
 30
0.0
 10
741.2962785431814
 20
267.015434653828
 30
0.0
 10
739.4008117300547
 20
264.3047514886377
 30
0.0
 10
737.5905315712328
 20
261.5211435058849
 30
0.0
 10
735.8706959700255
 20
258.672950598141
 30
0.0
 10
734.2463732403819
 20
255.7686746854317
 30
0.0
 10
732.7224296308915
 20
252.8169681502164
 30
0.0
 10
731.3034968523813
 20
249.8265807236378
 30
0.0
 10
729.9939533506147
 20
246.8063109301531
 30
0.0
 10
728.7979177076494
 20
243.764969122135
 30
0.0
 10
727.7192596926396
 20
240.7113826551289
 30
0.0
 10
726.7615990228423
 20
237.6543733322384
 30
0.0
 10
725.9283071624266
 20
234.6027382009896
 30
0.0
 10
725.2225118703925
 20
231.5652354770159
 30
0.0
 10
724.6471037133578
 20
228.5505777402985
 30
0.0
 10
724.2047430065599
 20
225.5674349361341
 30
0.0
 10
723.8978645231323
 20
222.6244499666746
 30
0.0
 10
723.7286757273521
 20
219.730269531055
 30
0.0
 10
723.6991422293511
 20
216.8935919321393
 30
0.0
 10
723.8109494631321
 20
214.1232897420275
 30
0.0
 10
724.0654053253216
 20
211.4286116808758
 30
0.0
 10
724.4632892789783
 20
208.8191110207216
 30
0.0
 10
725.0046844958516
 20
206.3046139863296
 30
0.0
 10
725.6888170058874
 20
203.8950598113213
 30
0.0
 10
726.5138375233926
 20
201.6004635937296
 30
0.0
 10
727.4766589189641
 20
199.4306405610606
 30
0.0
 10
728.5728975973778
 20
197.3948307667325
 30
0.0
 10
729.7969715773105
 20
195.5013046158474
 30
0.0
 10
731.1423482053125
 20
193.7570051540908
 30
0.0
 10
732.6019615846745
 20
192.1674751388484
 30
0.0
 10
734.1684937447673
 20
190.7365344987647
 30
0.0
 10
735.8352661372144
 20
189.4678176915516
 30
0.0
 10
737.5946036264061
 20
188.3602499504074
 30
0.0
 10
739.4446644509985
 20
187.4266265545963
 30
0.0
 10
741.0477549150162
 20
186.7582292865534
 30
0.0
 10
742.0568679069474
 20
186.4668088774758
 30
0.0
 10
742.3969836774495
 20
186.3685872930091
 30
0.0
  0
SPLINE
  5
212
330
1F
100
AcDbEntity
  8
0
  6
Continuous
 62
     7
370
    15
100
AcDbSpline
210
0.0
220
0.0
230
1.0
 70
     8
 71
     3
 72
    25
 73
    21
 74
     0
 42
0.000000001
 43
0.00000001
 40
0.0
 40
0.0
 40
0.0
 40
0.0
 40
0.0467750836149156
 40
0.1041761789786755
 40
0.1612832697946389
 40
0.2182558036194665
 40
0.2752216053102031
 40
0.3323321117875196
 40
0.3897390394032377
 40
0.4475666259919566
 40
0.505901896078661
 40
0.564788734082261
 40
0.6242270182450671
 40
0.6841773805911029
 40
0.7445708644327396
 40
0.8053213821729344
 40
0.8663381879892156
 40
0.9275359615149454
 40
0.9857854090072637
 40
1.0
 40
1.0
 40
1.0
 40
1.0
 10
801.4624714212761
 20
288.6481895800745
 30
0.0
 10
801.0425049399771
 20
289.034926398247
 30
0.0
 10
800.1071671502895
 20
289.8962559966984
 30
0.0
 10
798.5252163136995
 20
291.0503697669517
 30
0.0
 10
796.7549439279304
 20
292.1359299622963
 30
0.0
 10
794.8948810353412
 20
293.0518569749387
 30
0.0
 10
792.9551484811775
 20
293.8022082992339
 30
0.0
 10
790.9399649969986
 20
294.3843128850798
 30
0.0
 10
788.8542167075369
 20
294.7973562697954
 30
0.0
 10
786.7021978543773
 20
295.0397889595737
 30
0.0
 10
784.4886708347361
 20
295.1099994319439
 30
0.0
 10
782.219078524128
 20
295.0063979690117
 30
0.0
 10
779.8998063465782
 20
294.727805809427
 30
0.0
 10
777.538224636851
 20
294.2737795514838
 30
0.0
 10
775.1425522719239
 20
293.6449315120306
 30
0.0
 10
772.7216018606399
 20
292.84290042135
 30
0.0
 10
770.284373871691
 20
291.8709666536745
 30
0.0
 10
767.8807302236637
 20
290.7505453933864
 30
0.0
 10
766.1043078804126
 20
289.8107245538326
 30
0.0
 10
765.144429315388
 20
289.2612453213748
 30
0.0
 10
764.9561389372948
 20
289.1534591323673
 30
0.0
  0
SPLINE
  5
213
330
1F
100
AcDbEntity
  8
0
  6
Continuous
 62
     7
370
    15
100
AcDbSpline
210
0.0
220
0.0
230
1.0
 70
     8
 71
     3
 72
    52
 73
    48
 74
     0
 42
0.000000001
 43
0.00000001
 40
0.0
 40
0.0
 40
0.0
 40
0.0
 40
0.0122481793243542
 40
0.0352872657440404
 40
0.058309985806562
 40
0.0813154779978667
 40
0.1042997034273571
 40
0.127260987030851
 40
0.1501993588214072
 40
0.1731160454172254
 40
0.196013092013179
 40
0.2188930903617937
 40
0.2417589886547746
 40
0.2646139624526049
 40
0.2874613297865959
 40
0.3103044972199394
 40
0.333146926602211
 40
0.3559916375616973
 40
0.3788414581721359
 40
0.401699915458325
 40
0.4245705271938677
 40
0.4474567716812196
 40
0.4703620385581591
 40
0.4932895503342994
 40
0.5162422415298049
 40
0.5392225783986064
 40
0.5622322976796199
 40
0.5852720383757363
 40
0.6083408379638292
 40
0.6314354672132503
 40
0.6545495921893713
 40
0.6776713209820462
 40
0.7007801331182093
 40
0.7238523859339877
 40
0.7468581301210561
 40
0.7697621421230897
 40
0.7925265396554901
 40
0.8151150686866839
 40
0.8374985478098964
 40
0.8596603302500678
 40
0.8816003913804468
 40
0.9033369988213836
 40
0.9249056927401063
 40
0.9463560402793979
 40
0.9677469826830366
 40
0.989129304722573
 40
1.0
 40
1.0
 40
1.0
 40
1.0
 10
755.7164179197821
 20
294.4874365388761
 30
0.0
 10
755.284761629162
 20
294.2336486558117
 30
0.0
 10
754.0411506536993
 20
293.5024803543727
 30
0.0
 10
751.9979543869472
 20
292.1771199981171
 30
0.0
 10
749.5997129626329
 20
290.46885184488
 30
0.0
 10
747.232234308669
 20
288.6192324726048
 30
0.0
 10
744.9019025662459
 20
286.6373510381637
 30
0.0
 10
742.6153294856729
 20
284.5292528683452
 30
0.0
 10
740.3788810895611
 20
282.3021056695546
 30
0.0
 10
738.1987806559638
 20
279.9630423321271
 30
0.0
 10
736.0810998295806
 20
277.5194714269793
 30
0.0
 10
734.0317663560763
 20
274.9789923971773
 30
0.0
 10
732.0565575256688
 20
272.3494120603368
 30
0.0
 10
730.1610907125421
 20
269.6387288951467
 30
0.0
 10
728.3508105537201
 20
266.8551209123939
 30
0.0
 10
726.6309749525128
 20
264.0069280046499
 30
0.0
 10
725.0066522228692
 20
261.1026520919405
 30
0.0
 10
723.4827086133788
 20
258.150945556725
 30
0.0
 10
722.0637758348685
 20
255.1605581301463
 30
0.0
 10
720.7542323331019
 20
252.1402883366616
 30
0.0
 10
719.5581966901366
 20
249.0989465286434
 30
0.0
 10
718.4795386751268
 20
246.0453600616373
 30
0.0
 10
717.5218780053295
 20
242.9883507387468
 30
0.0
 10
716.6885861449138
 20
239.9367156074981
 30
0.0
 10
715.9827908528796
 20
236.8992128835243
 30
0.0
 10
715.407382695845
 20
233.884555146807
 30
0.0
 10
714.965021989047
 20
230.9014123426425
 30
0.0
 10
714.6581435056195
 20
227.9584273731831
 30
0.0
 10
714.4889547098393
 20
225.0642469375636
 30
0.0
 10
714.4594212118383
 20
222.2275693386479
 30
0.0
 10
714.5712284456193
 20
219.4572671485362
 30
0.0
 10
714.8256843078087
 20
216.7625890873845
 30
0.0
 10
715.2235682614655
 20
214.1530884272303
 30
0.0
 10
715.7649634783388
 20
211.6385913928382
 30
0.0
 10
716.4490959883744
 20
209.22903721783
 30
0.0
 10
717.2741165058798
 20
206.9344410002383
 30
0.0
 10
718.2369379014513
 20
204.7646179675692
 30
0.0
 10
719.333176579865
 20
202.7288081732412
 30
0.0
 10
720.5572505597977
 20
200.835282022356
 30
0.0
 10
721.9026271877996
 20
199.0909825605995
 30
0.0
 10
723.3622405671617
 20
197.501452545357
 30
0.0
 10
724.9287727272545
 20
196.0705119052733
 30
0.0
 10
726.5955451197015
 20
194.8017950980602
 30
0.0
 10
728.3548826088931
 20
193.694227356916
 30
0.0
 10
730.2049434334856
 20
192.7606039611049
 30
0.0
 10
731.8080338975035
 20
192.092206693062
 30
0.0
 10
732.8171468894349
 20
191.8007862839843
 30
0.0
 10
733.1572626599371
 20
191.7025646995176
 30
0.0
  0
SPLINE
  5
214
330
1F
100
AcDbEntity
  8
0
  6
Continuous
 62
     7
370
    15
100
AcDbSpline
210
0.0
220
0.0
230
1.0
 70
     8
 71
     3
 72
    25
 73
    21
 74
     0
 42
0.000000001
 43
0.00000001
 40
0.0
 40
0.0
 40
0.0
 40
0.0
 40
0.0467750836149179
 40
0.1041761789786773
 40
0.1612832697946421
 40
0.218255803619471
 40
0.2752216053102089
 40
0.332332111787524
 40
0.3897390394032416
 40
0.4475666259919561
 40
0.5059018960786618
 40
0.5647887340822604
 40
0.6242270182450677
 40
0.6841773805911001
 40
0.744570864432739
 40
0.8053213821729296
 40
0.8663381879892084
 40
0.9275359615149368
 40
0.9857854090072574
 40
1.0
 40
1.0
 40
1.0
 40
1.0
 10
792.2227504037636
 20
293.9821669865831
 30
0.0
 10
791.8027839224648
 20
294.3689038047555
 30
0.0
 10
790.8674461327769
 20
295.2302334032069
 30
0.0
 10
789.2854952961869
 20
296.3843471734603
 30
0.0
 10
787.5152229104178
 20
297.469907368805
 30
0.0
 10
785.6551600178286
 20
298.3858343814474
 30
0.0
 10
783.7154274636649
 20
299.1361857057425
 30
0.0
 10
781.700243979486
 20
299.7182902915885
 30
0.0
 10
779.6144956900243
 20
300.1313336763041
 30
0.0
 10
777.4624768368648
 20
300.3737663660824
 30
0.0
 10
775.2489498172237
 20
300.4439768384527
 30
0.0
 10
772.9793575066155
 20
300.3403753755205
 30
0.0
 10
770.6600853290657
 20
300.0617832159358
 30
0.0
 10
768.2985036193385
 20
299.6077569579926
 30
0.0
 10
765.9028312544114
 20
298.9789089185393
 30
0.0
 10
763.4818808431274
 20
298.1768778278588
 30
0.0
 10
761.0446528541786
 20
297.2049440601834
 30
0.0
 10
758.6410092061512
 20
296.0845227998953
 30
0.0
 10
756.8645868629001
 20
295.1447019603416
 30
0.0
 10
755.9047082978753
 20
294.5952227278836
 30
0.0
 10
755.7164179197821
 20
294.4874365388761
 30
0.0
  0
LWPOLYLINE
  5
215
330
1F
100
AcDbEntity
  8
0
  6
Continuous
 62
     7
370
    15
100
AcDbPolyline
 90
      134
 70
   128
 43
0.0
 10
841.4163214823
 20
272.9221874325
 10
838.3274957491
 20
271.054777782
 10
835.2455623939
 20
269.0229980326
 10
832.1773984151
 20
266.8313818795
 10
829.1298500863
 20
264.4848196753
 10
826.1097176795
 20
261.9885475177
 10
823.123740291
 20
259.3481355662
 10
820.178580804
 20
256.5694756122
 10
817.2808110208
 20
253.6587679325
 10
814.4368969991
 20
250.6225074543
 10
811.6531846229
 20
247.4674692618
 10
808.9358854431
 20
244.200693479
 10
806.2910628167
 20
240.8294695599
 10
803.7246183772
 20
237.3613200235
 10
801.2422788656
 20
233.8039836674
 10
798.8495833521
 20
230.1653983001
 10
796.5518708759
 20
226.4536830282
 10
794.3542685321
 20
222.6771201399
 10
792.2616800307
 20
218.8441366238
 10
790.2787747549
 20
214.9632853648
 10
788.4099773419
 20
211.0432260597
 10
786.6594578093
 20
207.0927058934
 10
785.0311222508
 20
203.1205400214
 10
783.5286041197
 20
199.1355918988
 10
782.1552561214
 20
195.1467535031
 10
780.9141427324
 20
191.1629254926
 10
779.8080333618
 20
187.1929973452
 10
778.8393961724
 20
183.245827523
 10
778.0103925723
 20
179.3302237053
 10
777.3228723927
 20
175.4549231353
 10
776.7783697601
 20
171.6285731239
 10
776.3780996727
 20
167.8597117542
 10
776.1229552896
 20
164.1567488296
 10
776.0135059377
 20
160.5279471083
 10
776.0499958412
 20
156.981403866
 10
776.232343577
 20
153.5250328273
 10
776.5601422559
 20
150.1665465076
 10
777.0326604309
 20
146.9134390031
 10
777.6488437291
 20
143.7729692686
 10
778.4073172048
 20
140.7521449203
 10
779.306388407
 20
137.8577065983
 10
780.3440511563
 20
135.0961129264
 10
781.5179900213
 20
132.4735260999
 10
782.8255854855
 20
129.9957981355
 10
784.2639197919
 20
127.6684578131
 10
785.8297834545
 20
125.4966983391
 10
787.5196824189
 20
123.4853657581
 10
789.32984586
 20
121.6389481394
 10
791.2562345951
 20
119.9615655628
 10
793.2945500979
 20
118.4569609248
 10
795.4402440893
 20
117.1284915866
 10
797.688528687
 20
115.9791218827
 10
800.0343870891
 20
115.0114165064
 10
802.4725847681
 20
114.2275347869
 10
804.9976811515
 20
113.6292258706
 10
807.6040417621
 20
113.2178248188
 10
810.2858507901
 20
112.9942496281
 10
813.0371240709
 20
112.9589991822
 10
815.8517224381
 20
113.1121521385
 10
818.7233654221
 20
113.453366753
 10
821.6456452645
 20
113.9818816425
 10
824.6120412164
 20
114.6965174834
 10
827.6159340884
 20
115.5956796439
 10
830.6506210209
 20
116.6773617416
 10
833.7093304408
 20
117.9391501207
 10
836.7852371713
 20
119.3782292381
 10
839.8714776617
 20
120.9913879453
 10
842.9611653028
 20
122.7750266547
 10
846.0474057933
 20
124.7251653708
 10
849.1233125238
 20
126.8374525716
 10
852.1820219437
 20
129.1071749183
 10
855.2167088762
 20
131.529267773
 10
858.2206017482
 20
134.0983264993
 10
861.1869977
 20
136.8086185227
 10
864.1092775425
 20
139.6540961219
 10
866.9809205264
 20
142.6284099237
 10
869.7955188936
 20
145.724923071
 10
872.5467921745
 20
148.9367260322
 10
875.2286012025
 20
152.256652019
 10
877.834961813
 20
155.6772929782
 10
880.3600581965
 20
159.1910161225
 10
882.7982558755
 20
162.7899809615
 10
885.1441142775
 20
166.4661567973
 10
887.3923988753
 20
170.2113406443
 10
889.5380928667
 20
174.0171755328
 10
891.5764083694
 20
177.875169157
 10
893.5027971046
 20
181.7767128246
 10
895.3129605456
 20
185.713100666
 10
897.0028595101
 20
189.6755490608
 10
898.5687231726
 20
193.6552162372
 10
900.0070574791
 20
197.6432220015
 10
901.3146529432
 20
201.6306675536
 10
902.4885918083
 20
205.6086553431
 10
903.5262545575
 20
209.5683089239
 10
904.4253257597
 20
213.5007927605
 10
905.1837992354
 20
217.3973319438
 10
905.7999825337
 20
221.2492317712
 10
906.2725007087
 20
225.047897148
 10
906.6002993876
 20
228.7848517665
 10
906.7826471233
 20
232.4517570195
 10
906.8191370269
 20
236.0404306077
 10
906.7096876749
 20
239.542864797
 10
906.4545432918
 20
242.9512442873
 10
906.0542732044
 20
246.257963651
 10
905.5097705718
 20
249.4556443044
 10
904.8222503923
 20
252.5371509715
 10
903.9932467922
 20
255.495607606
 10
903.0246096027
 20
258.3244127343
 10
901.9185002322
 20
261.0172541861
 10
900.6773868432
 20
263.568123179
 10
899.3040388449
 20
265.971327727
 10
897.8015207137
 20
268.221505341
 10
896.1731851552
 20
270.3136349949
 10
894.4226656227
 20
272.2430483293
 10
892.5538682096
 20
274.0054400686
 10
890.5709629339
 20
275.5968776278
 10
888.4783744325
 20
277.0138098873
 10
886.2807720886
 20
278.2530751172
 10
883.9830596124
 20
279.3119080323
 10
881.5903640989
 20
280.1879459622
 10
879.1080245873
 20
280.8792341237
 10
876.5415801478
 20
281.3842299828
 10
873.8967575214
 20
281.7018066961
 10
871.1794583417
 20
281.8312556259
 10
868.3957459655
 20
281.7722879209
 10
865.5518319437
 20
281.5250351612
 10
862.6540621606
 20
281.0900490643
 10
859.7089026736
 20
280.4683002543
 10
856.7229252851
 20
279.661176096
 10
853.7027928783
 20
278.6704775988
 10
850.6552445495
 20
277.4984153987
 10
847.5870805707
 20
276.1476048246
 10
844.5051472155
 20
274.6210600631
 10
841.4163214823
 20
272.9221874325
  0
LWPOLYLINE
  5
216
330
1F
100
AcDbEntity
  8
0
  6
Continuous
 62
     7
370
    15
100
AcDbPolyline
 90
       16
 70
   128
 43
0.0
 10
841.4163214823
 20
258.2244528186
 10
844.196498017
 20
259.7446393174
 10
846.9689257011
 20
261.0910382795
 10
849.7258772813
 20
262.2598970495
 10
852.4596686392
 20
263.2479578083
 10
855.1626802078
 20
264.0524666535
 10
857.8273782092
 20
264.6711812746
 10
860.446335652
 20
265.1023772029
 10
863.0122530321
 20
265.344852618
 10
865.5179786777
 20
265.3979316976
 10
867.9565286818
 20
265.2614665006
 10
870.3211063683
 20
264.9358373801
 10
872.6051212351
 20
264.4219519228
 10
874.802207323
 20
263.7212424196
 10
876.9062409591
 20
262.8356618737
 10
878.663294273
 20
261.9128025805
  0
LWPOLYLINE
  5
217
330
1F
100
AcDbEntity
  8
0
  6
Continuous
 62
     7
370
    15
100
AcDbPolyline
 90
       46
 70
   128
 43
0.0
 10
804.1693486916
 20
132.8715220857
 10
802.9575781415
 20
133.618128242
 10
801.111224659
 20
134.9539778345
 10
799.3772087102
 20
136.463853846
 10
797.7603633088
 20
138.1435479811
 10
796.2651948928
 20
139.988378631
 10
794.8958707648
 20
141.9932039219
 10
793.6562074766
 20
144.1524360461
 10
792.5496601924
 20
146.4600568363
 10
791.5793130577
 20
148.9096345396
 10
790.7478706041
 20
151.4943417435
 10
790.0576502108
 20
154.2069744055
 10
789.5105756459
 20
157.0399719318
 10
789.1081717043
 20
159.9854382502
 10
788.851559958
 20
163.0351638178
 10
788.7414556299
 20
166.1806485024
 10
788.7781656005
 20
169.4131252741
 10
788.9615875526
 20
172.7235846403
 10
789.2912102563
 20
176.102799757
 10
789.766114994
 20
179.5413521456
 10
790.3849781209
 20
183.0296579438
 10
791.1460747547
 20
186.5579946178
 10
792.0472835823
 20
190.1165280604
 10
793.0860927733
 20
193.6953400006
 10
794.2596069801
 20
197.2844556478
 10
795.5645554081
 20
200.8738714928
 10
796.9973009319
 20
204.4535831899
 10
798.5538502329
 20
208.0136134405
 10
800.2298649289
 20
211.5440398019
 10
802.0206736664
 20
215.0350223425
 10
803.9212851403
 20
218.476831068
 10
805.9264020054
 20
221.8598730399
 10
808.0304356415
 20
225.1747191137
 10
810.2275217295
 20
228.4121302188
 10
812.5115365962
 20
231.5630831097
 10
814.8761142827
 20
234.6187955156
 10
817.3146642869
 20
237.570750618
 10
819.8203899324
 20
240.4107207885
 10
822.3863073126
 20
243.1307905209
 10
825.0052647554
 20
245.723378493
 10
827.6699627567
 20
248.1812586972
 10
830.3729743254
 20
250.4975805804
 10
833.1067656832
 20
252.6658881381
 10
835.8637172634
 20
254.6801379083
 10
838.6361449475
 20
256.5347158155
 10
841.4163214823
 20
258.2244528186
  0
LWPOLYLINE
  5
218
330
1F
100
AcDbEntity
  8
0
  6
Continuous
 62
     7
370
    15
100
AcDbPolyline
 90
       36
 70
   128
 43
0.0
 10
841.4163214823
 20
270.0642945909
 10
840.5956393399
 20
269.5052309206
 10
839.8013345968
 20
268.7935481085
 10
839.058936861
 20
267.9521202259
 10
838.3923074066
 20
267.0079914573
 10
837.8228722528
 20
265.9915068781
 10
837.3689335139
 20
264.935337139
 10
837.0450811545
 20
263.8734284045
 10
836.8617240559
 20
262.839911295
 10
836.8247554662
 20
261.8680039008
 10
836.9353635861
 20
260.9889441254
 10
837.1899933798
 20
260.230985673
 10
837.5804608361
 20
259.6184899521
 10
838.0942160098
 20
259.1711430791
 10
838.7147463867
 20
258.9033231505
 10
839.4221076101
 20
258.8236381193
 10
840.1935645082
 20
258.9346491278
 10
841.0043218216
 20
259.232788191
 10
841.828321143
 20
259.708472874
 10
842.6390784563
 20
260.3464142798
 10
843.4105353544
 20
261.1261084466
 10
844.1178965778
 20
262.0224953624
 10
844.7384269548
 20
263.0067644142
 10
845.2521821284
 20
264.0472803847
 10
845.6426495848
 20
265.1106002346
 10
845.8972793784
 20
266.162547989
 10
846.0078874984
 20
267.1693131815
 10
845.9709189086
 20
268.0985375504
 10
845.78756181
 20
268.92035506
 10
845.4637094507
 20
269.6083518193
 10
845.0097707118
 20
270.1404150464
 10
844.4403355579
 20
270.4994437914
 10
843.7737061036
 20
270.673898575
 10
843.0313083678
 20
270.6581722769
 10
842.2370036247
 20
270.4527703532
 10
841.4163214823
 20
270.0642945909
  0
LWPOLYLINE
  5
219
330
1F
100
AcDbEntity
  8
0
  6
Continuous
 62
     7
370
    15
100
AcDbPolyline
 90
       36
 70
   128
 43
0.0
 10
800.1663214823
 20
226.5205369658
 10
799.3456393399
 20
225.9614732955
 10
798.5513345968
 20
225.2497904834
 10
797.808936861
 20
224.4083626008
 10
797.1423074066
 20
223.4642338322
 10
796.5728722528
 20
222.447749253
 10
796.1189335139
 20
221.3915795139
 10
795.7950811545
 20
220.3296707794
 10
795.6117240559
 20
219.2961536699
 10
795.5747554662
 20
218.3242462757
 10
795.6853635861
 20
217.4451865003
 10
795.9399933798
 20
216.6872280479
 10
796.3304608361
 20
216.074732327
 10
796.8442160098
 20
215.627385454
 10
797.4647463867
 20
215.3595655254
 10
798.1721076101
 20
215.2798804942
 10
798.9435645082
 20
215.3908915027
 10
799.7543218216
 20
215.6890305659
 10
800.578321143
 20
216.1647152489
 10
801.3890784563
 20
216.8026566547
 10
802.1605353544
 20
217.5823508215
 10
802.8678965778
 20
218.4787377373
 10
803.4884269548
 20
219.4630067891
 10
804.0021821284
 20
220.5035227596
 10
804.3926495848
 20
221.5668426095
 10
804.6472793784
 20
222.6187903639
 10
804.7578874984
 20
223.6255555564
 10
804.7209189086
 20
224.5547799253
 10
804.53756181
 20
225.3765974349
 10
804.2137094507
 20
226.0645941942
 10
803.7597707118
 20
226.5966574213
 10
803.1903355579
 20
226.9556861663
 10
802.5237061036
 20
227.1301409499
 10
801.7813083678
 20
227.1144146518
 10
800.9870036247
 20
226.9090127281
 10
800.1663214823
 20
226.5205369658
  0
LWPOLYLINE
  5
21A
330
1F
100
AcDbEntity
  8
0
  6
Continuous
 62
     7
370
    15
100
AcDbPolyline
 90
       36
 70
   128
 43
0.0
 10
882.6663214823
 20
274.1467732129
 10
881.8456393399
 20
273.5877095425
 10
881.0513345968
 20
272.8760267305
 10
880.308936861
 20
272.0345988479
 10
879.6423074066
 20
271.0904700793
 10
879.0728722528
 20
270.0739855
 10
878.6189335139
 20
269.0178157609
 10
878.2950811545
 20
267.9559070264
 10
878.1117240559
 20
266.9223899169
 10
878.0747554662
 20
265.9504825228
 10
878.1853635861
 20
265.0714227473
 10
878.4399933798
 20
264.313464295
 10
878.8304608361
 20
263.7009685741
 10
879.3442160098
 20
263.253621701
 10
879.9647463867
 20
262.9858017725
 10
880.6721076101
 20
262.9061167412
 10
881.4435645082
 20
263.0171277498
 10
882.2543218216
 20
263.315266813
 10
883.078321143
 20
263.790951496
 10
883.8890784563
 20
264.4288929018
 10
884.6605353544
 20
265.2085870686
 10
885.3678965778
 20
266.1049739844
 10
885.9884269548
 20
267.0892430361
 10
886.5021821284
 20
268.1297590067
 10
886.8926495848
 20
269.1930788566
 10
887.1472793784
 20
270.245026611
 10
887.2578874984
 20
271.2517918035
 10
887.2209189086
 20
272.1810161724
 10
887.03756181
 20
273.002833682
 10
886.7137094507
 20
273.6908304413
 10
886.2597707118
 20
274.2228936684
 10
885.6903355579
 20
274.5819224134
 10
885.0237061036
 20
274.7563771969
 10
884.2813083678
 20
274.7406508988
 10
883.4870036247
 20
274.5352489752
 10
882.6663214823
 20
274.1467732129
  0
ARC
  5
21B
330
1F
100
AcDbEntity
  8
0
  6
Continuous
 62
     7
370
    15
100
AcDbCircle
 10
905.0691253677
 20
228.0424401517
 30
0.0
 40
9.885437289025923
100
AcDbArc
 50
122.5347310713
 51
157.76488084
  0
LWPOLYLINE
  5
21C
330
1F
100
AcDbEntity
  8
0
  6
Continuous
 62
     7
370
    15
100
AcDbPolyline
 90
       25
 70
   128
 43
0.0
 10
896.1102585645
 20
225.729228425
 10
896.4305254576
 20
225.4833607112
 10
897.0510558346
 20
225.2155407826
 10
897.758417058
 20
225.1358557514
 10
898.5298739561
 20
225.2468667599
 10
899.3406312695
 20
225.5450058231
 10
900.1646305909
 20
226.0206905062
 10
900.9753879042
 20
226.6586319119
 10
901.7468448023
 20
227.4383260787
 10
902.4542060257
 20
228.3347129945
 10
903.0747364027
 20
229.3189820463
 10
903.5884915763
 20
230.3594980168
 10
903.9789590327
 20
231.4228178667
 10
904.2335888263
 20
232.4747656211
 10
904.3441969463
 20
233.4815308136
 10
904.3072283565
 20
234.4107551826
 10
904.1238712579
 20
235.2325726922
 10
903.8000188985
 20
235.9205694515
 10
903.3460801597
 20
236.4526326785
 10
902.7766450058
 20
236.8116614235
 10
902.1100155514
 20
236.9861162071
 10
901.3676178157
 20
236.970389909
 10
900.5733130726
 20
236.7649879854
 10
899.7526309302
 20
236.376512223
 10
899.7526309302
 20
236.376512223
  0
LWPOLYLINE
  5
21D
330
1F
100
AcDbEntity
  8
0
  6
Continuous
 62
     7
370
    15
100
AcDbPolyline
 90
       27
 70
   128
 43
0.0
 10
878.0917678892
 20
170.4160364745
 10
878.1853635861
 20
169.8034677893
 10
878.4399933798
 20
169.045509337
 10
878.8304608361
 20
168.4330136161
 10
879.3442160098
 20
167.985666743
 10
879.9647463867
 20
167.7178468145
 10
880.6721076101
 20
167.6381617832
 10
881.4435645082
 20
167.7491727918
 10
882.2543218216
 20
168.047311855
 10
883.078321143
 20
168.522996538
 10
883.8890784563
 20
169.1609379438
 10
884.6605353544
 20
169.9406321106
 10
885.3678965778
 20
170.8370190264
 10
885.9884269548
 20
171.8212880781
 10
886.5021821284
 20
172.8618040487
 10
886.8926495848
 20
173.9251238986
 10
887.1472793784
 20
174.977071653
 10
887.2578874984
 20
175.9838368455
 10
887.2209189086
 20
176.9130612144
 10
887.03756181
 20
177.734878724
 10
886.7137094507
 20
178.4228754833
 10
886.2597707118
 20
178.9549387104
 10
885.6903355579
 20
179.3139674554
 10
885.0237061036
 20
179.4884222389
 10
884.2813083678
 20
179.4726959408
 10
883.4870036247
 20
179.2672940172
 10
883.1118476177
 20
179.1110210797
  0
LWPOLYLINE
  5
21E
330
1F
100
AcDbEntity
  8
0
  6
Continuous
 62
     7
370
    15
100
AcDbPolyline
 90
       30
 70
   128
 43
0.0
 10
838.8817257832
 20
132.9919071361
 10
838.3923074066
 20
132.2787574961
 10
837.8228722528
 20
131.2622729169
 10
837.3689335139
 20
130.2061031778
 10
837.0450811545
 20
129.1441944433
 10
836.8617240559
 20
128.1106773338
 10
836.8247554662
 20
127.1387699397
 10
836.9353635861
 20
126.2597101642
 10
837.1899933798
 20
125.5017517119
 10
837.5804608361
 20
124.889255991
 10
838.0942160098
 20
124.4419091179
 10
838.7147463867
 20
124.1740891894
 10
839.4221076101
 20
124.0944041581
 10
840.1935645082
 20
124.2054151667
 10
841.0043218216
 20
124.5035542299
 10
841.828321143
 20
124.9792389129
 10
842.6390784563
 20
125.6171803187
 10
843.4105353544
 20
126.3968744855
 10
844.1178965778
 20
127.2932614013
 10
844.7384269548
 20
128.277530453
 10
845.2521821284
 20
129.3180464236
 10
845.6426495848
 20
130.3813662735
 10
845.8972793784
 20
131.4333140279
 10
846.0078874984
 20
132.4400792204
 10
845.9709189086
 20
133.3693035893
 10
845.78756181
 20
134.1911210989
 10
845.4637094507
 20
134.8791178582
 10
845.0097707118
 20
135.4111810853
 10
844.4403355579
 20
135.7702098303
 10
844.2191436042
 20
135.8520237225
  0
LWPOLYLINE
  5
21F
330
1F
100
AcDbEntity
  8
0
  6
Continuous
 62
     7
370
    15
100
AcDbPolyline
 90
       36
 70
   128
 43
0.0
 10
800.1663214823
 20
131.2525820078
 10
799.3456393399
 20
130.6935183375
 10
798.5513345968
 20
129.9818355254
 10
797.808936861
 20
129.1404076428
 10
797.1423074066
 20
128.1962788742
 10
796.5728722528
 20
127.179794295
 10
796.1189335139
 20
126.1236245559
 10
795.7950811545
 20
125.0617158214
 10
795.6117240559
 20
124.0281987119
 10
795.5747554662
 20
123.0562913177
 10
795.6853635861
 20
122.1772315423
 10
795.9399933798
 20
121.4192730899
 10
796.3304608361
 20
120.806777369
 10
796.8442160098
 20
120.359430496
 10
797.4647463867
 20
120.0916105674
 10
798.1721076101
 20
120.0119255362
 10
798.9435645082
 20
120.1229365447
 10
799.7543218216
 20
120.4210756079
 10
800.578321143
 20
120.8967602909
 10
801.3890784563
 20
121.5347016967
 10
802.1605353544
 20
122.3143958635
 10
802.8678965778
 20
123.2107827793
 10
803.4884269548
 20
124.1950518311
 10
804.0021821284
 20
125.2355678016
 10
804.3926495848
 20
126.2988876515
 10
804.6472793784
 20
127.3508354059
 10
804.7578874984
 20
128.3576005984
 10
804.7209189086
 20
129.2868249673
 10
804.53756181
 20
130.1086424769
 10
804.2137094507
 20
130.7966392362
 10
803.7597707118
 20
131.3287024633
 10
803.1903355579
 20
131.6877312083
 10
802.5237061036
 20
131.8621859919
 10
801.7813083678
 20
131.8464596938
 10
800.9870036247
 20
131.6410577701
 10
800.1663214823
 20
131.2525820078
  0
LWPOLYLINE
  5
220
330
1F
100
AcDbEntity
  8
0
  6
Continuous
 62
     7
370
    15
100
AcDbPolyline
 90
       36
 70
   128
 43
0.0
 10
783.0800120344
 20
169.0228429977
 10
782.259329892
 20
168.4637793273
 10
781.4650251489
 20
167.7520965153
 10
780.7226274131
 20
166.9106686327
 10
780.0559979587
 20
165.966539864
 10
779.4865628049
 20
164.9500552848
 10
779.032624066
 20
163.8938855457
 10
778.7087717066
 20
162.8319768112
 10
778.525414608
 20
161.7984597017
 10
778.4884460183
 20
160.8265523076
 10
778.5990541382
 20
159.9474925321
 10
778.8536839319
 20
159.1895340797
 10
779.2441513882
 20
158.5770383588
 10
779.7579065619
 20
158.1296914858
 10
780.3784369388
 20
157.8618715573
 10
781.0857981622
 20
157.782186526
 10
781.8572550603
 20
157.8931975346
 10
782.6680123737
 20
158.1913365978
 10
783.4920116951
 20
158.6670212808
 10
784.3027690084
 20
159.3049626865
 10
785.0742259065
 20
160.0846568533
 10
785.7815871299
 20
160.9810437691
 10
786.4021175069
 20
161.9653128209
 10
786.9158726806
 20
163.0058287915
 10
787.3063401369
 20
164.0691486414
 10
787.5609699306
 20
165.1210963958
 10
787.6715780505
 20
166.1278615882
 10
787.6346094607
 20
167.0570859572
 10
787.4512523622
 20
167.8789034668
 10
787.1274000028
 20
168.5669002261
 10
786.6734612639
 20
169.0989634532
 10
786.10402611
 20
169.4579921981
 10
785.4373966557
 20
169.6324469817
 10
784.6949989199
 20
169.6167206836
 10
783.9006941768
 20
169.41131876
 10
783.0800120344
 20
169.0228429977
  0
LWPOLYLINE
  5
221
330
1F
100
AcDbEntity
  8
0
  6
Continuous
 62
     7
370
    15
100
AcDbPolyline
 90
       51
 70
   128
 43
0.0
 10
828.6883994209
 20
280.2698604389
 10
825.5995736877
 20
278.4024507884
 10
822.5176403325
 20
276.370671039
 10
819.4494763537
 20
274.1790548859
 10
816.4019280249
 20
271.8324926817
 10
813.3817956181
 20
269.3362205241
 10
810.3958182296
 20
266.6958085726
 10
807.4506587426
 20
263.9171486186
 10
804.5528889595
 20
261.0064409389
 10
801.7089749377
 20
257.9701804607
 10
798.9252625615
 20
254.8151422682
 10
796.2079633818
 20
251.5483664854
 10
793.5631407554
 20
248.1771425663
 10
790.9966963159
 20
244.7089930299
 10
788.5143568043
 20
241.1516566738
 10
786.1216612908
 20
237.5130713065
 10
783.8239488146
 20
233.8013560346
 10
781.6263464707
 20
230.0247931463
 10
779.5337579693
 20
226.1918096302
 10
777.5508526936
 20
222.3109583712
 10
775.6820552805
 20
218.3908990661
 10
773.931535748
 20
214.4403788998
 10
772.3032001895
 20
210.4682130278
 10
770.8006820583
 20
206.4832649052
 10
769.42733406
 20
202.4944265095
 10
768.186220671
 20
198.510598499
 10
767.0801113005
 20
194.5406703516
 10
766.111474111
 20
190.5935005294
 10
765.2824705109
 20
186.6778967117
 10
764.5949503314
 20
182.8025961417
 10
764.0504476988
 20
178.9762461303
 10
763.6501776114
 20
175.2073847606
 10
763.3950332283
 20
171.504421836
 10
763.2855838763
 20
167.8756201147
 10
763.3220737798
 20
164.3290768724
 10
763.5044215156
 20
160.8727058337
 10
763.8322201945
 20
157.514219514
 10
764.3047383695
 20
154.2611120095
 10
764.9209216678
 20
151.1206422751
 10
765.6793951435
 20
148.0998179267
 10
766.5784663457
 20
145.2053796047
 10
767.6161290949
 20
142.4437859328
 10
768.79006796
 20
139.8211991063
 10
770.0976634241
 20
137.3434711419
 10
771.5359977306
 20
135.0161308196
 10
773.1018613931
 20
132.8443713455
 10
774.7917603576
 20
130.8330387645
 10
776.6019237986
 20
128.9866211458
 10
778.5283125338
 20
127.3092385692
 10
780.5666280365
 20
125.8046339312
 10
782.4421580365
 20
124.6303155693
  0
LWPOLYLINE
  5
222
330
1F
100
AcDbEntity
  8
0
  6
Continuous
 62
     7
370
    15
100
AcDbPolyline
 90
       18
 70
   128
 43
0.0
 10
874.9346408053
 20
284.8493551097
 10
873.5528500273
 20
285.6007481236
 10
871.2551375511
 20
286.6595810387
 10
868.8624420376
 20
287.5356189686
 10
866.380102526
 20
288.2269071302
 10
863.8136580865
 20
288.7319029892
 10
861.1688354601
 20
289.0494797025
 10
858.4515362803
 20
289.1789286323
 10
855.6678239041
 20
289.1199609273
 10
852.8239098824
 20
288.8727081676
 10
849.9261400992
 20
288.4377220707
 10
846.9809806122
 20
287.8159732607
 10
843.9950032237
 20
287.0088491024
 10
840.9748708169
 20
286.0181506052
 10
837.9273224881
 20
284.8460884051
 10
834.8591585093
 20
283.495277831
 10
831.7772251541
 20
281.9687330695
 10
828.6883994209
 20
280.2698604389
  0
LWPOLYLINE
  5
223
330
1F
100
AcDbEntity
  8
0
  6
Continuous
 62
     7
370
    15
100
AcDbPolyline
 90
      100
 70
   128
 43
0.0
 10
843.4366265714
 20
238.7159491288
 10
841.1029118013
 20
237.2831779825
 10
838.7785940769
 20
235.6850835278
 10
836.4730326053
 20
233.9281007271
 10
834.1955110689
 20
232.0193043301
 10
831.955200243
 20
229.9663803861
 10
829.7611210686
 20
227.7775952952
 10
827.6221083282
 20
225.4617625225
 10
825.5467750711
 20
223.0282071093
 10
823.5434779319
 20
220.4867281242
 10
821.6202834812
 20
217.8475592062
 10
819.7849357441
 20
215.121327357
 10
818.0448250182
 20
212.31901015
 10
816.4069581154
 20
209.4518915276
 10
814.8779301474
 20
206.5315163646
 10
813.4638979703
 20
203.5696439809
 10
812.1705553927
 20
200.5782007914
 10
811.0031102484
 20
197.5692322818
 10
809.9662634273
 20
194.5548545065
 10
809.0641899453
 20
191.5472053008
 10
808.3005221341
 20
188.5583954065
 10
807.6783350144
 20
185.6004597062
 10
807.2001339141
 20
182.685308763
 10
806.8678443803
 20
179.8246808608
 10
806.6828044257
 20
177.0300947385
 10
806.6457591409
 20
174.3128032082
 10
806.756857694
 20
171.6837478438
 10
807.0156527305
 20
169.1535149233
 10
807.4211021742
 20
166.7322928017
 10
807.9715734231
 20
164.4298308859
 10
808.6648499239
 20
162.2554003773
 10
809.4981400968
 20
160.2177569402
 10
810.4680885763
 20
158.3251054456
 10
811.5707897223
 20
156.585066933
 10
812.8018033464
 20
155.0046479234
 10
814.1561725913
 20
153.5902122063
 10
815.62844389
 20
152.3474552151
 10
817.2126889256
 20
151.2813810936
 10
818.9025285026
 20
150.3962825461
 10
820.6911582333
 20
149.695723552
 10
822.5713759372
 20
149.182525015
 10
824.5356106411
 20
148.8587534047
 10
826.5759530652
 20
148.725712435
 10
828.6841874706
 20
148.7839378148
 10
830.8518247414
 20
149.0331950913
 10
833.0701365676
 20
149.4724805932
 10
835.3301905901
 20
150.100025473
 10
837.6228863693
 20
150.9133028288
 10
839.9389920283
 20
151.9090378798
 10
842.2691814272
 20
153.0832211524
 10
844.6040717156
 20
154.431124625
 10
846.9342611145
 20
155.9473207659
 10
849.2503667735
 20
157.6257043886
 10
851.5430625526
 20
159.4595172345
 10
853.8031165752
 20
161.4413751866
 10
856.0214284013
 20
163.5632980022
 10
858.1890656722
 20
165.8167414472
 10
860.2973000776
 20
168.1926317002
 10
862.3376425017
 20
170.6814018897
 10
864.3018772056
 20
173.2730306164
 10
866.1820949094
 20
175.9570823063
 10
867.9707246402
 20
178.7227492305
 10
869.6605642171
 20
181.5588950244
 10
871.2448092528
 20
184.4540995299
 10
872.7170805515
 20
187.3967047803
 10
874.0714497964
 20
190.3748619428
 10
875.3024634205
 20
193.3765790297
 10
876.4051645665
 20
196.3897691856
 10
877.375113046
 20
199.4022993574
 10
878.2084032189
 20
202.4020391493
 10
878.9016797197
 20
205.3769096678
 10
879.4521509686
 20
208.3149321593
 10
879.8576004122
 20
211.2042762443
 10
880.1163954488
 20
214.0333075539
 10
880.2274940019
 20
216.7906345775
 10
880.190448717
 20
219.4651545323
 10
880.0054087624
 20
222.0460980704
 10
879.6731192286
 20
224.5230726432
 10
879.1949181284
 20
226.8861043482
 10
878.5727310087
 20
229.1256780909
 10
877.8090631975
 20
231.2327758981
 10
876.9069897155
 20
233.1989132308
 10
875.8701428943
 20
235.0161731477
 10
874.7026977501
 20
236.6772381847
 10
873.4093551724
 20
238.175419819
 10
871.9953229954
 20
239.5046854021
 10
870.4662950274
 20
240.6596824505
 10
868.8284281245
 20
241.6357601987
 10
867.0883173987
 20
242.4289883263
 10
865.2529696616
 20
243.0361727835
 10
863.3297752108
 20
243.4548686527
 10
861.3264780716
 20
243.6833899936
 10
859.2511448146
 20
243.7208166312
 10
857.1121320742
 20
243.5669978618
 10
854.9180528998
 20
243.2225530593
 10
852.6777420739
 20
242.6888691812
 10
850.4002205375
 20
241.9680951843
 10
848.0946590659
 20
241.063133371
 10
845.7703413415
 20
239.9776277031
 10
843.4366265714
 20
238.7159491288
  0
LWPOLYLINE
  5
224
330
1F
100
AcDbEntity
  8
0
  6
Continuous
 62
     7
370
    15
100
AcDbPolyline
 90
      120
 70
   128
 43
0.0
 10
843.4366265714
 20
257.058155516
 10
840.6564500366
 20
255.3684185129
 10
837.8840223526
 20
253.5138406057
 10
835.1270707723
 20
251.4995908355
 10
832.3932794145
 20
249.3312832778
 10
829.6902678458
 20
247.0149613946
 10
827.0255698445
 20
244.5570811904
 10
824.4066124017
 20
241.9644932183
 10
821.8406950215
 20
239.2444234859
 10
819.334969376
 20
236.4044533154
 10
816.8964193718
 20
233.452498213
 10
814.5318416853
 20
230.3967858071
 10
812.2478268186
 20
227.2458329162
 10
810.0507407306
 20
224.0084218111
 10
807.9467070945
 20
220.6935757373
 10
805.9415902294
 20
217.3105337654
 10
804.0409787555
 20
213.8687250399
 10
802.250170018
 20
210.3777424993
 10
800.574155322
 20
206.8473161379
 10
799.017606021
 20
203.2872858873
 10
797.5848604972
 20
199.7075741902
 10
796.2799120692
 20
196.1181583452
 10
795.1063978624
 20
192.529042698
 10
794.0675886714
 20
188.9502307578
 10
793.1663798438
 20
185.3916973152
 10
792.40528321
 20
181.8633606412
 10
791.7864200831
 20
178.375054843
 10
791.3115153454
 20
174.9365024544
 10
790.9818926417
 20
171.5572873377
 10
790.7984706896
 20
168.2468279715
 10
790.761760719
 20
165.0143511998
 10
790.8718650471
 20
161.8688665152
 10
791.1284767935
 20
158.8191409476
 10
791.530880735
 20
155.8736746292
 10
792.0779552999
 20
153.0406771029
 10
792.7681756932
 20
150.3280444409
 10
793.5996181468
 20
147.743337237
 10
794.5699652815
 20
145.2937595337
 10
795.6765125657
 20
142.9861387435
 10
796.9161758539
 20
140.8269066193
 10
798.2854999819
 20
138.8220813284
 10
799.7806683979
 20
136.9772506785
 10
801.3975137993
 20
135.2975565434
 10
803.1315297481
 20
133.7876805319
 10
804.9778832306
 20
132.4518309394
 10
806.9314281287
 20
131.2937310183
 10
808.9867195624
 20
130.3166086006
 10
811.1380290657
 20
129.5231871019
 10
813.3793605532
 20
128.9156779302
 10
815.7044670321
 20
128.4957743224
 10
818.1068680136
 20
128.2646466253
 10
820.5798675752
 20
128.2229390333
 10
823.1165730237
 20
128.3707677928
 10
825.709914106
 20
128.7077208786
 10
828.3526627153
 20
129.2328591419
 10
831.0374530373
 20
129.9447189284
 10
833.7568020798
 20
130.841316157
 10
836.5031305294
 20
131.9201518505
 10
839.2687838759
 20
133.1782191003
 10
842.0460537476
 20
134.6120114473
 10
844.8271993952
 20
136.2175326552
 10
847.6044692668
 20
137.9903078483
 10
850.3701226134
 20
139.9253959842
 10
853.1164510629
 20
142.0174036252
 10
855.8358001054
 20
144.2604999708
 10
858.5205904275
 20
146.6484331092
 10
861.1633390368
 20
149.1745474424
 10
863.756680119
 20
151.8318022368
 10
866.2933855675
 20
154.6127912465
 10
868.7663851292
 20
157.5097633564
 10
871.1687861107
 20
160.5146441857
 10
873.4938925896
 20
163.6190585925
 10
875.7352240771
 20
166.8143540172
 10
877.8865335804
 20
170.0916245982
 10
879.941825014
 20
173.4417359946
 10
881.8953699121
 20
176.8553508452
 10
883.7417233947
 20
180.322954793
 10
885.4757393434
 20
183.8348830039
 10
887.0925847449
 20
187.3813471042
 10
888.5877531609
 20
190.9524624623
 10
889.9570772889
 20
194.5382757391
 10
891.196740577
 20
198.12879263
 10
892.3032878613
 20
201.7140057203
 10
893.273634996
 20
205.2839223782
 10
894.1050774496
 20
208.8285926057
 10
894.7952978428
 20
212.338136771
 10
895.3423724077
 20
215.8027731451
 10
895.7447763493
 20
219.2128451651
 10
896.0013880956
 20
222.5588483485
 10
896.1114924237
 20
225.8314567845
 10
896.0747824531
 20
229.0215491262
 10
895.891360501
 20
232.1202340143
 10
895.5617377974
 20
235.1188748581
 10
895.0868330597
 20
238.0091139077
 10
894.4679699327
 20
240.7828955487
 10
893.706873299
 20
243.4324887539
 10
892.8056644713
 20
245.950508632
 10
891.7668552803
 20
248.32993701
 10
890.5933410736
 20
250.5641419941
 10
889.2883926456
 20
252.6468964543
 10
887.8556471218
 20
254.5723953805
 10
886.2990978208
 20
256.3352720617
 10
884.6230831248
 20
257.9306130445
 10
882.8322743872
 20
259.3539718274
 10
880.9316629134
 20
260.6013812542
 10
878.9265460482
 20
261.6693645711
 10
876.8225124121
 20
262.554945117
 10
874.6254263242
 20
263.2556546202
 10
872.3414114574
 20
263.7695400775
 10
869.9768337709
 20
264.095169198
 10
867.5382837668
 20
264.231634395
 10
865.0325581212
 20
264.1785553154
 10
862.4666407411
 20
263.9360799002
 10
859.8476832983
 20
263.5048839719
 10
857.1829852969
 20
262.8861693509
 10
854.4799737283
 20
262.0816605057
 10
851.7461823705
 20
261.0935997469
 10
848.9892307902
 20
259.9247409769
 10
846.2168031061
 20
258.5783420148
 10
843.4366265714
 20
257.058155516
  0
LINE
  5
225
330
1F
100
AcDbEntity
  8
0
  6
Continuous
 62
     7
370
    15
100
AcDbLine
 10
807.9181420398
 20
176.7640453014
 30
0.0
 11
807.9339853631
 21
175.5639399642
 31
0.0
  0
LWPOLYLINE
  5
226
330
1F
100
AcDbEntity
  8
0
  6
Continuous
 62
     7
370
    15
100
AcDbPolyline
 90
       56
 70
   128
 43
0.0
 10
752.1188365439
 20
306.5484616052
 10
749.418088878
 20
304.9048690635
 10
746.7252629703
 20
303.0971292601
 10
744.0482573433
 20
301.1305446076
 10
741.3949241156
 20
299.0108834375
 10
738.7730459707
 20
296.7443630811
 10
736.190313329
 20
294.3376316334
 10
733.6543017904
 20
291.7977484521
 10
731.1724499136
 20
289.1321634525
 10
728.7520373978
 20
286.3486952544
 10
726.40016373
 20
283.4555082498
 10
724.1237273608
 20
280.4610886546
 10
721.9294054703
 20
277.3742196174
 10
719.8236343827
 20
274.2039554569
 10
717.8125906875
 20
270.9595951043
 10
715.9021731222
 20
267.6506548273
 10
714.0979852708
 20
264.2868403179
 10
712.4053191271
 20
260.8780182237
 10
710.8291395725
 20
257.4341872073
 10
709.3740698133
 20
253.9654486182
 10
708.0443778197
 20
250.4819768645
 10
706.8439638075
 20
246.9939895691
 10
705.7763487978
 20
243.5117175996
 10
704.8446642893
 20
240.0453750597
 10
704.0516430733
 20
236.6051293293
 10
703.3996112176
 20
233.2010712419
 10
702.890481244
 20
229.8431854864
 10
702.5257465185
 20
226.5413213203
 10
702.3064768708
 20
223.30516368
 10
702.2333154565
 20
220.1442047735
 10
702.3064768708
 20
217.0677162379
 10
702.5257465185
 20
214.0847219441
 10
702.890481244
 20
211.2039715284
 10
703.3996112176
 20
208.4339147281
 10
704.0516430733
 20
205.7826765971
 10
704.8446642893
 20
203.2580336736
 10
705.7763487978
 20
200.8673911702
 10
706.8439638075
 20
198.6177612534
 10
708.0443778197
 20
196.5157424753
 10
709.3740698133
 20
194.5675004191
 10
710.8291395725
 20
192.7787496145
 10
712.4053191271
 20
191.1547367758
 10
714.0979852708
 20
189.7002254125
 10
715.9021731222
 20
188.419481857
 10
717.8125906875
 20
187.3162627507
 10
719.8236343827
 20
186.3938040255
 10
721.9294054703
 20
185.6548114117
 10
724.1237273608
 20
185.101452502
 10
726.40016373
 20
184.7353503934
 10
728.7520373978
 20
184.5575789264
 10
731.1724499136
 20
184.5686595354
 10
733.6543017904
 20
184.7685597191
 10
736.190313329
 20
185.1566931358
 10
738.7730459707
 20
185.7319213233
 10
741.3949241156
 20
186.4925570382
 10
741.6190913092
 20
186.5656103698
  0
LWPOLYLINE
  5
227
330
1F
100
AcDbEntity
  8
0
  6
Continuous
 62
     7
370
    15
100
AcDbPolyline
 90
       27
 70
   128
 43
0.0
 10
800.871988597
 20
289.2913319037
 10
800.8380618701
 20
289.4510914882
 10
800.1860300144
 20
292.1023296193
 10
799.3930087984
 20
294.6269725428
 10
798.46132429
 20
297.0176150462
 10
797.3937092802
 20
299.267244963
 10
796.193295268
 20
301.3692637411
 10
794.8636032744
 20
303.3175057972
 10
793.4085335152
 20
305.1062566018
 10
791.8323539606
 20
306.7302694405
 10
790.1396878169
 20
308.1847808039
 10
788.3354999655
 20
309.4655243594
 10
786.4250824003
 20
310.5687434657
 10
784.414038705
 20
311.4912021909
 10
782.3082676174
 20
312.2301948047
 10
780.113945727
 20
312.7835537144
 10
777.8375093577
 20
313.149655823
 10
775.4856356899
 20
313.32742729
 10
773.0652231741
 20
313.3163466809
 10
770.5833712973
 20
313.1164464972
 10
768.0473597587
 20
312.7283130805
 10
765.464627117
 20
312.153084893
 10
762.8427489722
 20
311.3924491781
 10
760.1894157445
 20
310.4486370114
 10
757.5124101174
 20
309.3244167566
 10
754.8195842097
 20
308.0230859454
 10
752.1188365439
 20
306.5484616052
  0
LWPOLYLINE
  5
228
330
1F
100
AcDbEntity
  8
0
  6
Continuous
 62
     7
370
    15
100
AcDbPolyline
 90
       70
 70
   128
 43
0.0
 10
752.1188365439
 20
324.4725282076
 10
749.0300108106
 20
322.6051185571
 10
745.9480774554
 20
320.5733388077
 10
742.8799134767
 20
318.3817226546
 10
739.8323651479
 20
316.0351604504
 10
736.8122327411
 20
313.5388882928
 10
733.8262553526
 20
310.8984763413
 10
730.8810958655
 20
308.1198163873
 10
727.9833260824
 20
305.2091087076
 10
725.1394120606
 20
302.1728482294
 10
722.3556996845
 20
299.0178100369
 10
719.6384005047
 20
295.7510342541
 10
716.9935778783
 20
292.379810335
 10
714.4271334388
 20
288.9116607986
 10
711.9447939272
 20
285.3543244425
 10
709.5520984137
 20
281.7157390751
 10
707.2543859375
 20
278.0040238033
 10
705.0567835936
 20
274.227460915
 10
702.9641950923
 20
270.3944773989
 10
700.9812898165
 20
266.5136261399
 10
699.1124924035
 20
262.5935668348
 10
697.3619728709
 20
258.6430466685
 10
695.7336373124
 20
254.6708807965
 10
694.2311191813
 20
250.6859326739
 10
692.857771183
 20
246.6970942782
 10
691.6166577939
 20
242.7132662677
 10
690.5105484234
 20
238.7433381203
 10
689.541911234
 20
234.7961682981
 10
688.7129076339
 20
230.8805644804
 10
688.0253874543
 20
227.0052639104
 10
687.4808848217
 20
223.178913899
 10
687.0806147343
 20
219.4100525293
 10
686.8254703512
 20
215.7070896047
 10
686.7160209993
 20
212.0782878834
 10
686.7525109028
 20
208.5317446411
 10
686.9348586386
 20
205.0753736024
 10
687.2626573174
 20
201.7168872827
 10
687.7351754924
 20
198.4637797782
 10
688.3513587907
 20
195.3233100437
 10
689.1098322664
 20
192.3024856954
 10
690.0089034686
 20
189.4080473734
 10
691.0465662179
 20
186.6464537015
 10
692.2205050829
 20
184.023866875
 10
693.5281005471
 20
181.5461389106
 10
694.9664348535
 20
179.2187985882
 10
696.532298516
 20
177.0470391142
 10
698.2221974805
 20
175.0357065332
 10
700.0323609216
 20
173.1892889145
 10
701.9587496567
 20
171.5119063379
 10
703.9970651594
 20
170.0073016999
 10
706.1427591509
 20
168.6788323617
 10
708.3910437486
 20
167.5294626578
 10
710.7369021507
 20
166.5617572815
 10
713.1750998297
 20
165.777875562
 10
715.7001962131
 20
165.1795666457
 10
718.3065568237
 20
164.7681655939
 10
720.9883658517
 20
164.5445904032
 10
723.7396391325
 20
164.5093399573
 10
726.5542374997
 20
164.6624929136
 10
729.4258804837
 20
165.0037075281
 10
732.3481603261
 20
165.5322224176
 10
735.314556278
 20
166.2468582585
 10
738.3184491499
 20
167.146020419
 10
741.3531360825
 20
168.2277025167
 10
744.4118455023
 20
169.4894908958
 10
747.4877522328
 20
170.9285700132
 10
750.5739927233
 20
172.5417287204
 10
753.6636803644
 20
174.3253674298
 10
756.7499208549
 20
176.2755061459
 10
757.6525718814
 20
176.8778376168
  0
LWPOLYLINE
  5
229
330
1F
100
AcDbEntity
  8
0
  6
Continuous
 62
     7
370
    15
100
AcDbPolyline
 90
       37
 70
   128
 43
0.0
 10
817.2899738391
 20
280.1513471328
 10
817.3028144492
 20
280.3351925416
 10
817.4851621849
 20
284.0020977946
 10
817.5216520885
 20
287.5907713828
 10
817.4122027365
 20
291.0932055721
 10
817.1570583534
 20
294.5015850624
 10
816.756788266
 20
297.8083044261
 10
816.2122856334
 20
301.0059850795
 10
815.5247654539
 20
304.0874917466
 10
814.6957618538
 20
307.0459483811
 10
813.7271246643
 20
309.8747535094
 10
812.6210152938
 20
312.5675949611
 10
811.3799019048
 20
315.1184639541
 10
810.0065539065
 20
317.5216685021
 10
808.5040357753
 20
319.7718461161
 10
806.8757002168
 20
321.86397577
 10
805.1251806842
 20
323.7933891044
 10
803.2563832712
 20
325.5557808437
 10
801.2734779955
 20
327.1472184029
 10
799.1808894941
 20
328.5641506624
 10
796.9832871502
 20
329.8034158923
 10
794.685574674
 20
330.8622488074
 10
792.2928791605
 20
331.7382867373
 10
789.8105396489
 20
332.4295748988
 10
787.2440952094
 20
332.9345707579
 10
784.599272583
 20
333.2521474712
 10
781.8819734033
 20
333.381596401
 10
779.0982610271
 20
333.322628696
 10
776.2543470053
 20
333.0753759363
 10
773.3565772222
 20
332.6403898394
 10
770.4114177351
 20
332.0186410294
 10
767.4254403466
 20
331.211516871
 10
764.4053079398
 20
330.2208183739
 10
761.3577596111
 20
329.0487561738
 10
758.2895956323
 20
327.6979455997
 10
755.2076622771
 20
326.1714008382
 10
752.1188365439
 20
324.4725282076
  0
LWPOLYLINE
  5
22A
330
1F
100
AcDbEntity
  8
0
  6
Continuous
 62
     7
370
    15
100
AcDbPolyline
 90
       36
 70
   128
 43
0.0
 10
752.1188365439
 20
321.614635366
 10
751.2981544015
 20
321.0555716957
 10
750.5038496584
 20
320.3438888836
 10
749.7614519226
 20
319.502461001
 10
749.0948224682
 20
318.5583322324
 10
748.5253873144
 20
317.5418476532
 10
748.0714485755
 20
316.4856779141
 10
747.7475962161
 20
315.4237691795
 10
747.5642391175
 20
314.3902520701
 10
747.5272705277
 20
313.4183446759
 10
747.6378786477
 20
312.5392849004
 10
747.8925084414
 20
311.7813264481
 10
748.2829758977
 20
311.1688307272
 10
748.7967310713
 20
310.7214838542
 10
749.4172614483
 20
310.4536639256
 10
750.1246226717
 20
310.3739788944
 10
750.8960795698
 20
310.4849899029
 10
751.7068368832
 20
310.7831289661
 10
752.5308362046
 20
311.2588136491
 10
753.3415935179
 20
311.8967550549
 10
754.113050416
 20
312.6764492217
 10
754.8204116394
 20
313.5728361375
 10
755.4409420164
 20
314.5571051893
 10
755.95469719
 20
315.5976211598
 10
756.3451646464
 20
316.6609410097
 10
756.59979444
 20
317.7128887641
 10
756.71040256
 20
318.7196539566
 10
756.6734339702
 20
319.6488783255
 10
756.4900768716
 20
320.4706958351
 10
756.1662245122
 20
321.1586925944
 10
755.7122857734
 20
321.6907558215
 10
755.1428506195
 20
322.0497845665
 10
754.4762211651
 20
322.2242393501
 10
753.7338234294
 20
322.208513052
 10
752.9395186863
 20
322.0031111283
 10
752.1188365439
 20
321.614635366
  0
LWPOLYLINE
  5
22B
330
1F
100
AcDbEntity
  8
0
  6
Continuous
 62
     7
370
    15
100
AcDbPolyline
 90
       36
 70
   128
 43
0.0
 10
710.8688365439
 20
278.0708777409
 10
710.0481544015
 20
277.5118140705
 10
709.2538496584
 20
276.8001312585
 10
708.5114519226
 20
275.9587033759
 10
707.8448224682
 20
275.0145746073
 10
707.2753873144
 20
273.998090028
 10
706.8214485755
 20
272.941920289
 10
706.4975962161
 20
271.8800115544
 10
706.3142391175
 20
270.846494445
 10
706.2772705277
 20
269.8745870508
 10
706.3878786477
 20
268.9955272753
 10
706.6425084414
 20
268.237568823
 10
707.0329758977
 20
267.6250731021
 10
707.5467310713
 20
267.1777262291
 10
708.1672614483
 20
266.9099063005
 10
708.8746226717
 20
266.8302212693
 10
709.6460795698
 20
266.9412322778
 10
710.4568368832
 20
267.239371341
 10
711.2808362046
 20
267.715056024
 10
712.0915935179
 20
268.3529974298
 10
712.863050416
 20
269.1326915966
 10
713.5704116394
 20
270.0290785124
 10
714.1909420164
 20
271.0133475642
 10
714.70469719
 20
272.0538635347
 10
715.0951646464
 20
273.1171833846
 10
715.34979444
 20
274.169131139
 10
715.46040256
 20
275.1758963315
 10
715.4234339702
 20
276.1051207004
 10
715.2400768716
 20
276.92693821
 10
714.9162245122
 20
277.6149349693
 10
714.4622857734
 20
278.1469981964
 10
713.8928506195
 20
278.5060269414
 10
713.2262211651
 20
278.680481725
 10
712.4838234294
 20
278.6647554269
 10
711.6895186863
 20
278.4593535032
 10
710.8688365439
 20
278.0708777409
  0
LWPOLYLINE
  5
22C
330
1F
100
AcDbEntity
  8
0
  6
Continuous
 62
     7
370
    15
100
AcDbPolyline
 90
       36
 70
   128
 43
0.0
 10
793.3688365439
 20
325.697113988
 10
792.5481544015
 20
325.1380503176
 10
791.7538496584
 20
324.4263675056
 10
791.0114519226
 20
323.584939623
 10
790.3448224682
 20
322.6408108543
 10
789.7753873144
 20
321.6243262751
 10
789.3214485755
 20
320.568156536
 10
788.9975962161
 20
319.5062478015
 10
788.8142391175
 20
318.472730692
 10
788.7772705277
 20
317.5008232979
 10
788.8878786477
 20
316.6217635224
 10
789.1425084414
 20
315.8638050701
 10
789.5329758977
 20
315.2513093492
 10
790.0467310713
 20
314.8039624761
 10
790.6672614483
 20
314.5361425476
 10
791.3746226717
 20
314.4564575163
 10
792.1460795698
 20
314.5674685249
 10
792.9568368832
 20
314.8656075881
 10
793.7808362046
 20
315.3412922711
 10
794.5915935179
 20
315.9792336768
 10
795.363050416
 20
316.7589278436
 10
796.0704116394
 20
317.6553147594
 10
796.6909420164
 20
318.6395838112
 10
797.20469719
 20
319.6800997818
 10
797.5951646464
 20
320.7434196317
 10
797.84979444
 20
321.7953673861
 10
797.96040256
 20
322.8021325785
 10
797.9234339702
 20
323.7313569475
 10
797.7400768716
 20
324.5531744571
 10
797.4162245122
 20
325.2411712164
 10
796.9622857734
 20
325.7732344435
 10
796.3928506195
 20
326.1322631884
 10
795.7262211651
 20
326.306717972
 10
794.9838234294
 20
326.2909916739
 10
794.1895186863
 20
326.0855897503
 10
793.3688365439
 20
325.697113988
  0
ARC
  5
22D
330
1F
100
AcDbEntity
  8
0
  6
Continuous
 62
     7
370
    15
100
AcDbCircle
 10
815.0950441119
 20
280.365529632
 30
0.0
 40
8.871429738889141
100
AcDbArc
 50
121.5347651828
 51
143.9588814201
  0
LWPOLYLINE
  5
22E
330
1F
100
AcDbEntity
  8
0
  6
Continuous
 62
     7
370
    15
100
AcDbPolyline
 90
       13
 70
   128
 43
0.0
 10
814.2923504267
 20
281.9129667149
 10
814.6814740942
 20
282.9731586418
 10
814.9361038879
 20
284.0251063962
 10
815.0467120079
 20
285.0318715887
 10
815.0097434181
 20
285.9610959576
 10
814.8263863195
 20
286.7829134672
 10
814.5025339601
 20
287.4709102266
 10
814.0485952212
 20
288.0029734536
 10
813.4791600674
 20
288.3620021986
 10
812.812530613
 20
288.5364569822
 10
812.0701328773
 20
288.5207306841
 10
811.2758281342
 20
288.3153287604
 10
810.4551459918
 20
287.9268529981
  0
LWPOLYLINE
  5
22F
330
1F
100
AcDbEntity
  8
0
  6
Continuous
 62
     7
370
    15
100
AcDbPolyline
 90
       17
 70
   128
 43
0.0
 10
748.2931724279
 20
182.3110314628
 10
748.0714485755
 20
181.7564439529
 10
747.7475962161
 20
180.6945352184
 10
747.5642391175
 20
179.6610181089
 10
747.5272705277
 20
178.6891107148
 10
747.6378786477
 20
177.8100509393
 10
747.8925084414
 20
177.052092487
 10
748.2829758977
 20
176.4395967661
 10
748.7967310713
 20
175.992249893
 10
749.4172614483
 20
175.7244299645
 10
750.1246226717
 20
175.6447449332
 10
750.8960795698
 20
175.7557559418
 10
751.7068368832
 20
176.053895005
 10
752.5308362046
 20
176.529579688
 10
753.3415935179
 20
177.1675210937
 10
754.113050416
 20
177.9472152605
 10
754.6480874163
 20
178.606364978
  0
LWPOLYLINE
  5
230
330
1F
100
AcDbEntity
  8
0
  6
Continuous
 62
     7
370
    15
100
AcDbPolyline
 90
       36
 70
   128
 43
0.0
 10
710.8688365439
 20
182.8029227829
 10
710.0481544015
 20
182.2438591126
 10
709.2538496584
 20
181.5321763005
 10
708.5114519226
 20
180.6907484179
 10
707.8448224682
 20
179.7466196493
 10
707.2753873144
 20
178.7301350701
 10
706.8214485755
 20
177.673965331
 10
706.4975962161
 20
176.6120565964
 10
706.3142391175
 20
175.578539487
 10
706.2772705277
 20
174.6066320928
 10
706.3878786477
 20
173.7275723173
 10
706.6425084414
 20
172.969613865
 10
707.0329758977
 20
172.3571181441
 10
707.5467310713
 20
171.9097712711
 10
708.1672614483
 20
171.6419513425
 10
708.8746226717
 20
171.5622663113
 10
709.6460795698
 20
171.6732773198
 10
710.4568368832
 20
171.971416383
 10
711.2808362046
 20
172.447101066
 10
712.0915935179
 20
173.0850424718
 10
712.863050416
 20
173.8647366386
 10
713.5704116394
 20
174.7611235544
 10
714.1909420164
 20
175.7453926062
 10
714.70469719
 20
176.7859085767
 10
715.0951646464
 20
177.8492284266
 10
715.34979444
 20
178.901176181
 10
715.46040256
 20
179.9079413735
 10
715.4234339702
 20
180.8371657424
 10
715.2400768716
 20
181.658983252
 10
714.9162245122
 20
182.3469800113
 10
714.4622857734
 20
182.8790432384
 10
713.8928506195
 20
183.2380719834
 10
713.2262211651
 20
183.412526767
 10
712.4838234294
 20
183.3968004689
 10
711.6895186863
 20
183.1913985452
 10
710.8688365439
 20
182.8029227829
  0
LWPOLYLINE
  5
231
330
1F
100
AcDbEntity
  8
0
  6
Continuous
 62
     7
370
    15
100
AcDbPolyline
 90
       36
 70
   128
 43
0.0
 10
693.782527096
 20
220.5731837728
 10
692.9618449536
 20
220.0141201024
 10
692.1675402105
 20
219.3024372903
 10
691.4251424747
 20
218.4610094078
 10
690.7585130203
 20
217.5168806391
 10
690.1890778665
 20
216.5003960599
 10
689.7351391276
 20
215.4442263208
 10
689.4112867682
 20
214.3823175863
 10
689.2279296696
 20
213.3488004768
 10
689.1909610799
 20
212.3768930827
 10
689.3015691998
 20
211.4978333072
 10
689.5561989935
 20
210.7398748548
 10
689.9466664498
 20
210.1273791339
 10
690.4604216234
 20
209.6800322609
 10
691.0809520004
 20
209.4122123324
 10
691.7883132238
 20
209.3325273011
 10
692.5597701219
 20
209.4435383097
 10
693.3705274353
 20
209.7416773729
 10
694.1945267567
 20
210.2173620559
 10
695.00528407
 20
210.8553034616
 10
695.7767409681
 20
211.6349976284
 10
696.4841021915
 20
212.5313845442
 10
697.1046325685
 20
213.515653596
 10
697.6183877421
 20
214.5561695666
 10
698.0088551985
 20
215.6194894165
 10
698.2634849921
 20
216.6714371708
 10
698.3740931121
 20
217.6782023633
 10
698.3371245223
 20
218.6074267323
 10
698.1537674237
 20
219.4292442419
 10
697.8299150644
 20
220.1172410012
 10
697.3759763255
 20
220.6493042283
 10
696.8065411716
 20
221.0083329732
 10
696.1399117172
 20
221.1827877568
 10
695.3975139815
 20
221.1670614587
 10
694.6032092384
 20
220.9616595351
 10
693.782527096
 20
220.5731837728
  0
LWPOLYLINE
  5
232
330
1F
100
AcDbEntity
  8
0
  6
Continuous
 62
     7
370
    15
100
AcDbPolyline
 90
       51
 70
   128
 43
0.0
 10
739.3909144825
 20
331.820201214
 10
736.3020887493
 20
329.9527915635
 10
733.2201553941
 20
327.9210118141
 10
730.1519914153
 20
325.729395661
 10
727.1044430865
 20
323.3828334568
 10
724.0843106797
 20
320.8865612992
 10
721.0983332912
 20
318.2461493477
 10
718.1531738042
 20
315.4674893937
 10
715.2554040211
 20
312.556781714
 10
712.4114899993
 20
309.5205212358
 10
709.6277776231
 20
306.3654830433
 10
706.9104784433
 20
303.0987072605
 10
704.265655817
 20
299.7274833414
 10
701.6992113774
 20
296.259333805
 10
699.2168718659
 20
292.7019974489
 10
696.8241763523
 20
289.0634120816
 10
694.5264638762
 20
285.3516968097
 10
692.3288615323
 20
281.5751339214
 10
690.2362730309
 20
277.7421504053
 10
688.2533677552
 20
273.8612991463
 10
686.3845703421
 20
269.9412398412
 10
684.6340508096
 20
265.9907196749
 10
683.005715251
 20
262.0185538029
 10
681.5031971199
 20
258.0336056803
 10
680.1298491216
 20
254.0447672846
 10
678.8887357326
 20
250.0609392741
 10
677.7826263621
 20
246.0910111267
 10
676.8139891726
 20
242.1438413045
 10
675.9849855725
 20
238.2282374868
 10
675.297465393
 20
234.3529369168
 10
674.7529627604
 20
230.5265869054
 10
674.352692673
 20
226.7577255357
 10
674.0975482898
 20
223.0547626111
 10
673.9880989379
 20
219.4259608898
 10
674.0245888414
 20
215.8794176475
 10
674.2069365772
 20
212.4230466088
 10
674.5347352561
 20
209.0645602891
 10
675.0072534311
 20
205.8114527846
 10
675.6234367294
 20
202.6709830501
 10
676.3819102051
 20
199.6501587018
 10
677.2809814072
 20
196.7557203798
 10
678.3186441565
 20
193.9941267079
 10
679.4925830216
 20
191.3715398814
 10
680.8001784857
 20
188.893811917
 10
682.2385127922
 20
186.5664715946
 10
683.8043764547
 20
184.3947121206
 10
685.4942754192
 20
182.3833795396
 10
687.3044388602
 20
180.5369619209
 10
689.2308275953
 20
178.8595793443
 10
691.2691430981
 20
177.3549747063
 10
693.1446730981
 20
176.1806563444
  0
LWPOLYLINE
  5
233
330
1F
100
AcDbEntity
  8
0
  6
Continuous
 62
     7
370
    15
100
AcDbPolyline
 90
       18
 70
   128
 43
0.0
 10
785.6371558669
 20
336.3996958848
 10
784.2553650889
 20
337.1510888987
 10
781.9576526127
 20
338.2099218138
 10
779.5649570991
 20
339.0859597437
 10
777.0826175876
 20
339.7772479052
 10
774.516173148
 20
340.2822437643
 10
771.8713505217
 20
340.5998204776
 10
769.1540513419
 20
340.7292694074
 10
766.3703389657
 20
340.6703017024
 10
763.526424944
 20
340.4230489427
 10
760.6286551608
 20
339.9880628458
 10
757.6834956738
 20
339.3663140358
 10
754.6975182853
 20
338.5591898774
 10
751.6773858785
 20
337.5684913803
 10
748.6298375497
 20
336.3964291802
 10
745.5616735709
 20
335.0456186061
 10
742.4797402157
 20
333.5190738446
 10
739.3909144825
 20
331.820201214
  0
ARC
  5
234
330
1F
100
AcDbEntity
  8
0
  6
Continuous
 62
     7
370
    15
100
AcDbCircle
 10
755.3310311709
 20
290.844589621
 30
0.0
 40
33.30253709544126
100
AcDbArc
 50
11.0520749016
 51
41.0447022024
  0
ARC
  5
235
330
1F
100
AcDbEntity
  8
0
  6
Continuous
 62
     7
370
    15
100
AcDbCircle
 10
717.4400998917
 20
225.2163837054
 30
0.0
 40
33.3126038330789
100
AcDbArc
 50
258.961931449
 51
289.0069171663
  0
LWPOLYLINE
  5
236
330
1F
100
AcDbEntity
  8
0
  6
Continuous
 62
     8
370
    15
100
AcDbPolyline
 90
       74
 70
   128
 43
0.0
 10
807.9339853631
 20
175.5639399642
 10
807.9922564803
 20
174.1924909566
 10
808.2142824321
 20
171.7175191139
 10
808.5832691462
 20
169.3497279825
 10
809.0976365647
 20
167.0992568076
 10
809.7551820874
 20
164.9757424523
 10
810.5530900034
 20
162.9882781311
 10
811.4879435486
 20
161.1453744713
 10
812.5557395365
 20
159.4549230692
 10
813.7519055008
 20
157.9241626974
 10
815.0713192752
 20
156.5596483068
 10
816.5083309273
 20
155.3672229573
 10
818.0567869527
 20
154.3519927976
 10
819.7100566249
 20
153.5183051989
 10
821.4610603893
 20
152.8697301396
 10
823.302300179
 20
152.4090449176
 10
825.2258915226
 20
152.1382222578
 10
827.2235973066
 20
152.0584218643
 10
829.2868630482
 20
152.1699854548
 10
831.4068535267
 20
152.4724352968
 10
833.5744906174
 20
152.9644762536
 10
835.7804921655
 20
153.6440013303
 10
838.0154117336
 20
154.5081006963
 10
840.2696790532
 20
155.5530741453
 10
842.5336410054
 20
156.7744469407
 10
844.7976029576
 20
158.1669889766
 10
847.0518702772
 20
159.7247371742
 10
849.2867898454
 20
161.4410210167
 10
851.4927913934
 20
163.308491113
 10
853.6604284841
 20
165.3191506696
 10
855.7804189626
 20
167.4643897336
 10
857.8436847042
 20
169.7350220619
 10
859.8413904882
 20
172.1213244583
 10
861.7649818318
 20
174.6130784096
 10
863.6062216215
 20
177.1996138428
 10
865.357225386
 20
179.8698548162
 10
867.0104950581
 20
182.6123669479
 10
868.5589510835
 20
185.4154063799
 10
869.9959627356
 20
188.2669700671
 10
871.31537651
 20
191.154847176
 10
872.5115424743
 20
194.0666713734
 10
873.5793384622
 20
196.9899737811
 10
874.5141920074
 20
199.9122363694
 10
875.3120999234
 20
202.8209455613
 10
875.9696454461
 20
205.7036458174
 10
876.4840128647
 20
208.5479929727
 10
876.8529995787
 20
211.3418070959
 10
877.0750255306
 20
214.0731246462
 10
877.149139971
 20
216.7302497025
 10
877.0750255306
 20
219.3018040472
 10
876.8529995787
 20
221.77677589
 10
876.4840128647
 20
224.1445670213
 10
875.9696454461
 20
226.3950381962
 10
875.3120999234
 20
228.5185525515
 10
874.5141920074
 20
230.5060168727
 10
873.5793384622
 20
232.3489205326
 10
872.5115424743
 20
234.0393719346
 10
871.31537651
 20
235.5701323064
 10
869.9959627356
 20
236.9346466971
 10
868.5589510835
 20
238.1270720465
 10
867.0104950581
 20
239.1423022062
 10
865.357225386
 20
239.9759898049
 10
863.6062216215
 20
240.6245648643
 10
861.7649818318
 20
241.0852500863
 10
859.8413904882
 20
241.3560727461
 10
857.8436847042
 20
241.4358731395
 10
855.7804189626
 20
241.324309549
 10
853.6604284841
 20
241.0218597071
 10
851.4927913934
 20
240.5298187503
 10
849.2867898454
 20
239.8502936735
 10
847.0518702772
 20
238.9861943076
 10
844.7976029576
 20
237.9412208585
 10
842.5336410054
 20
236.7198480631
 10
842.5336410054
 20
236.7198480631
  0
LWPOLYLINE
  5
237
330
1F
100
AcDbEntity
  8
0
  6
Continuous
 62
     8
370
    15
100
AcDbPolyline
 90
       66
 70
   128
 43
0.0
 10
807.9920994756
 20
180.2535136952
 10
808.1433043784
 20
178.5493804805
 10
808.4731164814
 20
176.3623192645
 10
808.9473345602
 20
174.2914091353
 10
809.5635960841
 20
172.3469672631
 10
810.3188308693
 20
170.5386807594
 10
811.2092763739
 20
168.8755584166
 10
812.2304964433
 20
167.3658858267
 10
813.3774034105
 20
166.0171841025
 10
814.6442834426
 20
164.8361724081
 10
816.0248250071
 20
163.8287344845
 10
817.5121503153
 20
162.9998893366
 10
819.0988495874
 20
162.3537662293
 10
820.7770179674
 20
161.8935841155
 10
822.5382949047
 20
161.6216355992
 10
824.3739058065
 20
161.5392755143
 10
826.2747057514
 20
161.6469141746
 10
828.2312250497
 20
161.9440153297
 10
830.2337164207
 20
162.4290988366
 10
832.2722035532
 20
163.0997480337
 10
834.3365308067
 20
163.9526217803
 10
836.4164138068
 20
164.9834711025
 10
838.5014906809
 20
166.1871603607
 10
840.581373681
 20
167.5576928356
 10
842.6457009345
 20
169.0882406033
 10
844.684188067
 20
170.7711785519
 10
846.686679438
 20
172.5981223691
 10
848.6431987364
 20
174.5599703127
 10
850.5439986812
 20
176.646948555
 10
852.379609583
 20
178.8486598754
 10
854.1408865204
 20
181.1541354588
 10
855.8190549003
 20
183.5518895417
 10
857.4057541724
 20
186.0299766341
 10
858.8930794806
 20
188.5760510306
 10
860.2736210451
 20
191.1774283166
 10
861.5405010772
 20
193.8211485615
 10
862.6874080444
 20
196.4940408838
 10
863.7086281138
 20
199.1827890686
 10
864.5990736184
 20
201.8739979075
 10
865.3543084036
 20
204.5542599336
 10
865.9705699275
 20
207.2102222162
 10
866.4447880063
 20
209.8286528848
 10
866.7746001094
 20
212.3965070497
 10
866.9583631294
 20
214.9009917904
 10
866.9951615682
 20
217.32962989
 10
866.8848120979
 20
219.6703219956
 10
866.627864474
 20
221.9114068969
 10
866.2255987966
 20
224.0417196217
 10
865.6800191331
 20
226.0506470591
 10
864.9938435339
 20
227.9281808337
 10
864.1704904913
 20
229.6649671667
 10
863.2140619089
 20
231.2523534759
 10
862.1293226656
 20
232.6824314825
 10
860.9216768778
 20
233.9480766099
 10
859.5971409761
 20
235.0429834777
 10
858.1623137317
 20
235.961697315
 10
856.6243433818
 20
236.6996411356
 10
854.9908920173
 20
237.2531385406
 10
853.2700974107
 20
237.6194320337
 10
851.4705324742
 20
237.7966967592
 10
849.6011625498
 20
237.7840495931
 10
847.6713007445
 20
237.581553543
 10
845.6905615326
 20
237.1902174339
 10
843.6688128573
 20
236.6119908828
 10
841.6161269688
 20
235.8497545852
 10
839.7878507939
 20
235.0276108044
  0
LWPOLYLINE
  5
238
330
1F
100
AcDbEntity
  8
0
  6
Continuous
 62
     8
370
    15
100
AcDbPolyline
 90
       25
 70
   128
 43
0.0
 10
817.5728062968
 20
181.1800199846
 10
818.7058617424
 20
181.6391223471
 10
820.5291741796
 20
182.5195079639
 10
822.3585737932
 20
183.5755978812
 10
824.1818862304
 20
184.8003639951
 10
825.9869776479
 20
186.185655689
 10
827.7618354601
 20
187.7222540753
 10
829.4946482811
 20
189.3999333452
 10
831.1738845274
 20
191.20752882
 10
832.788369159
 20
193.1330112501
 10
834.3273580468
 20
195.1635668675
 10
835.7806094739
 20
197.2856826597
 10
837.1384522917
 20
199.4852362961
 10
838.3918502802
 20
201.7475901102
 10
839.5324622828
 20
204.0576885107
 10
840.5526977147
 20
206.4001581738
 10
841.4457670774
 20
208.7594103504
 10
842.2057271416
 20
211.1197446066
 10
842.8275204986
 20
213.4654533072
 10
843.3070092161
 20
215.7809261478
 10
843.6410023757
 20
218.0507540389
 10
843.8272773083
 20
220.2598316501
 10
843.8645943847
 20
222.3934579346
 10
843.752705266
 20
224.4374339614
 10
843.5298901284
 20
226.1601271223
  0
LWPOLYLINE
  5
239
330
1F
100
AcDbEntity
  8
0
  6
Continuous
 62
     8
370
    15
100
AcDbPolyline
 90
       46
 70
   128
 43
0.0
 10
815.0166160815
 20
165.8682939421
 10
815.0289522439
 20
165.8611614286
 10
816.5251653828
 20
165.1162944425
 10
818.1169435208
 20
164.5539523385
 10
819.7961753214
 20
164.1770006833
 10
821.5543038042
 20
163.987360336
 10
823.3823699495
 20
163.9859976605
 10
825.2710583512
 20
164.1729196004
 10
827.2107446862
 20
164.5471736446
 10
829.1915447575
 20
165.1068526801
 10
831.203364862
 20
165.849104711
 10
833.2359532256
 20
166.7701473909
 10
835.2789522439
 20
167.8652872976
 10
837.3219512621
 20
169.128943849
 10
839.3545396257
 20
170.5546777411
 10
841.3663597302
 20
172.1352237608
 10
843.3471598015
 20
173.8625278078
 10
845.2868461365
 20
175.7277879366
 10
847.1755345382
 20
177.7214992092
 10
849.0036006835
 20
179.8335021299
 10
850.7617291663
 20
182.0530344159
 10
852.4409609669
 20
184.3687858396
 10
854.0327391049
 20
186.7689558624
 10
855.5289522439
 20
189.2413137681
 10
856.9219760245
 20
191.7732609875
 10
858.204711917
 20
194.351895298
 10
859.3706233932
 20
196.9640765701
 10
860.4137692356
 20
199.596493727
 10
861.328833812
 20
202.2357325741
 10
862.1111541631
 20
204.8683441553
 10
862.7567437637
 20
207.4809132853
 10
863.2623128372
 20
210.0601269109
 10
863.6252851194
 20
212.5928419504
 10
863.8438109869
 20
215.0661522688
 10
863.9167768819
 20
217.4674544434
 10
863.8438109869
 20
219.7845119888
 10
863.6252851194
 20
222.005517711
 10
863.2623128372
 20
224.1191538738
 10
862.7567437637
 20
226.1146498719
 10
862.1111541631
 20
227.981837115
 10
861.328833812
 20
229.711200845
 10
860.4137692356
 20
231.2939286206
 10
859.3706233932
 20
232.7219552241
 10
858.204711917
 20
233.988003759
 10
856.9219760245
 20
235.0856227323
 10
855.5581406183
 20
235.9923147082
  0
LWPOLYLINE
  5
23A
330
1F
100
AcDbEntity
  8
0
  6
Continuous
 62
     8
370
    15
100
AcDbPolyline
 90
       43
 70
   128
 43
0.0
 10
813.3666046495
 20
167.0041164633
 10
814.5822464526
 20
166.5944895219
 10
816.2614782532
 20
166.2175378667
 10
818.019606736
 20
166.0278975194
 10
819.8476728813
 20
166.0265348438
 10
821.7363612831
 20
166.2134567838
 10
823.676047618
 20
166.587710828
 10
825.6568476893
 20
167.1473898635
 10
827.6686677938
 20
167.8896418944
 10
829.7012561574
 20
168.8106845743
 10
831.7442551757
 20
169.905824481
 10
833.787254194
 20
171.1694810324
 10
835.8198425576
 20
172.5952149245
 10
837.8316626621
 20
174.1757609442
 10
839.8124627334
 20
175.9030649912
 10
841.7521490683
 20
177.76832512
 10
843.6408374701
 20
179.7620363925
 10
845.4689036154
 20
181.8740393133
 10
847.2270320982
 20
184.0935715993
 10
848.9062638988
 20
186.409323023
 10
850.4980420368
 20
188.8094930458
 10
851.9942551757
 20
191.2818509515
 10
853.3872789563
 20
193.8137981709
 10
854.6700148488
 20
196.3924324814
 10
855.8359263251
 20
199.0046137535
 10
856.8790721674
 20
201.6370309104
 10
857.7941367438
 20
204.2762697575
 10
858.5764570949
 20
206.9088813387
 10
859.2220466955
 20
209.5214504687
 10
859.727615769
 20
212.1006640943
 10
860.0905880513
 20
214.6333791338
 10
860.3091139188
 20
217.1066894522
 10
860.3820798138
 20
219.5079916268
 10
860.3091139188
 20
221.8250491722
 10
860.0905880513
 20
224.0460548944
 10
859.727615769
 20
226.1596910572
 10
859.2220466955
 20
228.1551870553
 10
858.5764570949
 20
230.0223742984
 10
857.7941367438
 20
231.7517380284
 10
856.8790721674
 20
233.334465804
 10
855.8359263251
 20
234.7624924075
 10
854.6700148488
 20
236.0285409424
 10
853.7489234893
 20
236.8433755545
  0
ARC
  5
23B
330
1F
100
AcDbEntity
  8
0
  6
Continuous
 62
     8
370
    15
100
AcDbCircle
 10
856.2481798012
 20
188.8299127782
 30
0.0
 40
88.03041984750826
100
AcDbArc
 50
128.3903426008
 51
171.6150339319
  0
LWPOLYLINE
  5
23C
330
1F
100
AcDbEntity
  8
0
  6
Continuous
 62
     8
370
    15
100
AcDbPolyline
 90
       23
 70
   128
 43
0.0
 10
810.2937145771
 20
187.351248122
 10
811.2894531621
 20
187.8534853704
 10
813.1188527757
 20
188.9095752878
 10
814.9421652129
 20
190.1343414016
 10
816.7472566304
 20
191.5196330955
 10
818.5221144426
 20
193.0562314818
 10
820.2549272636
 20
194.7339107517
 10
821.9341635099
 20
196.5415062265
 10
823.5486481414
 20
198.4669886566
 10
825.0876370293
 20
200.497544274
 10
826.5408884564
 20
202.6196600662
 10
827.8987312741
 20
204.8192137026
 10
829.1521292627
 20
207.0815675167
 10
830.2927412653
 20
209.3916659172
 10
831.3129766972
 20
211.7341355803
 10
832.2060460599
 20
214.0933877569
 10
832.9660061241
 20
216.4537220131
 10
833.5877994811
 20
218.7994307137
 10
834.0672881985
 20
221.1149035543
 10
834.4012813582
 20
223.3847314454
 10
834.5875562908
 20
225.5938090566
 10
834.6248733672
 20
227.7274353411
 10
834.5455394718
 20
229.3926864442
  0
LWPOLYLINE
  5
23D
330
1F
100
AcDbEntity
  8
0
  6
Continuous
 62
     8
370
    15
100
AcDbPolyline
 90
       45
 70
   128
 43
0.0
 10
810.8809768292
 20
169.9933066231
 10
812.2808343954
 20
169.2470074505
 10
813.8291569728
 20
168.6528952513
 10
815.4674052695
 20
168.2451771299
 10
817.1868385221
 20
168.0260284388
 10
818.9782828102
 20
167.9966184311
 10
820.8321800034
 20
168.157104022
 10
822.7386387581
 20
168.5066289513
 10
824.687487292
 20
169.0433283524
 10
826.6683276548
 20
169.7643387018
 10
828.6705912062
 20
170.6658130972
 10
830.6835950039
 20
171.7429417827
 10
832.6965988016
 20
172.9899778107
 10
834.698862353
 20
174.4002677045
 10
836.6797027159
 20
175.9662869573
 10
838.6285512497
 20
177.6796801788
 10
840.5350100044
 20
179.5313056748
 10
842.3889071976
 20
181.5112842222
 10
844.1803514857
 20
183.6090517787
 10
845.8997847383
 20
185.8134158468
 10
847.5380330351
 20
188.1126151903
 10
849.0863556124
 20
190.494382586
 10
850.5364914996
 20
192.9460102744
 10
851.8807035941
 20
195.4544177609
 10
853.1118199429
 20
198.0062216062
 10
854.2232720076
 20
200.5878068328
 10
855.2091297104
 20
203.1853995665
 10
856.0641330741
 20
205.7851405262
 10
856.7837202857
 20
208.373158969
 10
857.3640520361
 20
210.9356466967
 10
857.8020320043
 20
213.4589317286
 10
858.0953233777
 20
215.9295512473
 10
858.24236132
 20
218.3343234287
 10
858.24236132
 20
220.6604177727
 10
858.0953233777
 20
222.8954235596
 10
857.8020320043
 20
225.0274160665
 10
857.3640520361
 20
227.0450201908
 10
856.7837202857
 20
228.9374711416
 10
856.0641330741
 20
230.6946718743
 10
855.2091297104
 20
232.3072469627
 10
854.2232720076
 20
233.766592621
 10
853.1118199429
 20
235.0649226086
 10
851.8807035941
 20
236.1953097733
 10
850.5364914996
 20
237.1517230106
 10
849.8786279397
 20
237.5337116092
  0
LWPOLYLINE
  5
23E
330
1F
100
AcDbEntity
  8
0
  6
Continuous
 62
     8
370
    15
100
AcDbPolyline
 90
       55
 70
   128
 43
0.0
 10
808.7209858991
 20
185.6755541386
 10
808.8204597743
 20
185.2043101098
 10
809.2999484917
 20
183.4424431585
 10
809.9217418487
 20
181.8146417868
 10
810.681701913
 20
180.3317387442
 10
811.5747712756
 20
179.0036025058
 10
812.5950067075
 20
177.8390715992
 10
813.7356187101
 20
176.8458957854
 10
814.9890166987
 20
176.0306844856
 10
816.3468595165
 20
175.3988627965
 10
817.8001109435
 20
174.9546353872
 10
819.3390998314
 20
174.7009585177
 10
820.9535844629
 20
174.6395203659
 10
822.6328207092
 20
174.7707297925
 10
824.3656335302
 20
175.0937136204
 10
826.1404913424
 20
175.6063224454
 10
827.9455827599
 20
176.3051449406
 10
829.7688951971
 20
177.1855305573
 10
831.5982948107
 20
178.2416204747
 10
833.4216072479
 20
179.4663865886
 10
835.2266986654
 20
180.8516782825
 10
837.0015564776
 20
182.3882766688
 10
838.7343692986
 20
184.0659559387
 10
840.4136055449
 20
185.8735514135
 10
842.0280901765
 20
187.7990338436
 10
843.5670790643
 20
189.829589461
 10
845.0203304914
 20
191.9517052532
 10
846.3781733092
 20
194.1512588896
 10
847.6315712978
 20
196.4136127037
 10
848.7721833003
 20
198.7237111042
 10
849.7924187322
 20
201.0661807673
 10
850.6854880949
 20
203.4254329439
 10
851.4454481591
 20
205.7857672001
 10
852.0672415161
 20
208.1314759006
 10
852.5467302336
 20
210.4469487413
 10
852.8807233933
 20
212.7167766324
 10
853.0669983258
 20
214.9258542436
 10
853.1043154022
 20
217.0594805281
 10
852.9924262835
 20
219.1034565549
 10
852.7320755734
 20
221.0441800007
 10
852.3249958628
 20
222.8687356713
 10
851.7738962001
 20
224.5649814497
 10
851.0824440626
 20
226.1216291
 10
850.2552409501
 20
227.5283193891
 10
849.297791763
 20
228.7756910251
 10
848.2164681676
 20
229.8554429556
 10
847.018466194
 20
230.7603896096
 10
845.7117583477
 20
231.4845087164
 10
844.3050405538
 20
232.0229813829
 10
842.8076742871
 20
232.3722241624
 10
841.2296242732
 20
232.5299129017
 10
839.5813921744
 20
232.4949982083
 10
837.8739467035
 20
232.2677124337
 10
836.1186506284
 20
231.8495681272
 10
835.1018005931
 20
231.5270525625
  0
LWPOLYLINE
  5
23F
330
1F
100
AcDbEntity
  8
0
  6
Continuous
 62
     8
370
    15
100
AcDbPolyline
 90
       32
 70
   128
 43
0.0
 10
798.3445714426
 20
267.1666990227
 10
795.9504140625
 20
265.6994023643
 10
793.5653385415
 20
264.0673136205
 10
791.1983922878
 20
262.2766238628
 10
788.8585539394
 20
260.3341257911
 10
786.5546993046
 20
258.2471879657
 10
784.2955676932
 20
256.0237268566
 10
782.0897287651
 20
253.6721768136
 10
779.945550023
 20
251.2014580713
 10
777.8711650713
 20
248.6209429122
 10
775.8744427627
 20
245.9404201142
 10
773.9629573487
 20
243.1700578184
 10
772.1439597483
 20
240.320364958
 10
770.4243500425
 20
237.402151394
 10
768.8106512998
 20
234.4264869101
 10
767.3089848324
 20
231.4046592208
 10
765.9250469755
 20
228.3481311538
 10
764.6640874794
 20
225.2684971668
 10
763.5308895954
 20
222.1774393664
 10
762.5297519312
 20
219.0866831937
 10
761.664472145
 20
216.0079529455
 10
760.9383325393
 20
212.9529273001
 10
760.3540876103
 20
209.9331950162
 10
759.9139535993
 20
206.9602109728
 10
759.6196000852
 20
204.0452527166
 10
759.4721436517
 20
201.1993776828
 10
759.4721436517
 20
198.43338125
 10
759.6196000852
 20
195.7577557904
 10
759.9139535993
 20
193.1826508676
 10
760.3540876103
 20
190.7178347366
 10
760.9383325393
 20
188.3726572895
 10
761.6414466834
 20
186.2183917328
  0
ARC
  5
240
330
1F
100
AcDbEntity
  8
0
  6
Continuous
 62
     8
370
    15
100
AcDbCircle
 10
818.4959809664
 20
233.5879373775
 30
0.0
 40
39.16136539276838
100
AcDbArc
 50
100.7501574708
 51
120.9689661854
  0
ARC
  5
241
330
1F
100
AcDbEntity
  8
0
  6
Continuous
 62
     8
370
    15
100
AcDbCircle
 10
771.8152133049
 20
237.5723572907
 30
0.0
 40
54.27991673408063
100
AcDbArc
 50
322.2680344832
 51
337.6356146894
  0
LWPOLYLINE
  5
242
330
1F
100
AcDbEntity
  8
0
  6
Continuous
 62
     8
370
    15
100
AcDbPolyline
 90
       32
 70
   128
 43
0.0
 10
789.1048504251
 20
272.5006764292
 10
786.710693045
 20
271.0333797708
 10
784.325617524
 20
269.401291027
 10
781.9586712703
 20
267.6106012693
 10
779.6188329219
 20
265.6681031976
 10
777.3149782871
 20
263.5811653722
 10
775.0558466757
 20
261.3577042632
 10
772.8500077476
 20
259.0061542201
 10
770.7058290055
 20
256.5354354778
 10
768.6314440538
 20
253.9549203187
 10
766.6347217452
 20
251.2743975207
 10
764.7232363312
 20
248.5040352249
 10
762.9042387308
 20
245.6543423645
 10
761.184629025
 20
242.7361288005
 10
759.5709302823
 20
239.7604643166
 10
758.0692638149
 20
236.7386366273
 10
756.6853259579
 20
233.6821085603
 10
755.4243664618
 20
230.6024745733
 10
754.2911685779
 20
227.5114167729
 10
753.2900309137
 20
224.4206606002
 10
752.4247511275
 20
221.341930352
 10
751.6986115217
 20
218.2869047066
 10
751.1143665928
 20
215.2671724227
 10
750.6742325817
 20
212.2941883793
 10
750.3798790677
 20
209.3792301231
 10
750.2324226342
 20
206.5333550893
 10
750.2324226342
 20
203.7673586566
 10
750.3798790677
 20
201.0917331969
 10
750.6742325817
 20
198.5166282741
 10
751.1143665928
 20
196.0518121431
 10
751.6986115217
 20
193.706634696
 10
752.4017256659
 20
191.5523691393
  0
ARC
  5
243
330
1F
100
AcDbEntity
  8
0
  6
Continuous
 62
     8
370
    15
100
AcDbCircle
 10
809.2562599489
 20
238.921914784
 30
0.0
 40
39.16136539277224
100
AcDbArc
 50
100.7501574708
 51
120.9689661854
  0
LWPOLYLINE
  5
244
330
1F
100
AcDbEntity
  8
0
  6
Continuous
 62
     8
370
    15
100
AcDbPolyline
 90
       32
 70
   128
 43
0.0
 10
779.8651294076
 20
277.8346538357
 10
777.4709720275
 20
276.3673571773
 10
775.0858965064
 20
274.7352684335
 10
772.7189502528
 20
272.9445786759
 10
770.3791119044
 20
271.0020806041
 10
768.0752572696
 20
268.9151427787
 10
765.8161256582
 20
266.6916816697
 10
763.6102867301
 20
264.3401316266
 10
761.466107988
 20
261.8694128843
 10
759.3917230363
 20
259.2888977252
 10
757.3950007276
 20
256.6083749272
 10
755.4835153137
 20
253.8380126314
 10
753.6645177133
 20
250.988319771
 10
751.9449080075
 20
248.070106207
 10
750.3312092648
 20
245.0944417231
 10
748.8295427974
 20
242.0726140338
 10
747.4456049404
 20
239.0160859668
 10
746.1846454443
 20
235.9364519798
 10
745.0514475603
 20
232.8453941794
 10
744.0503098962
 20
229.7546380067
 10
743.18503011
 20
226.6759077585
 10
742.4588905042
 20
223.6208821131
 10
741.8746455753
 20
220.6011498292
 10
741.4345115642
 20
217.6281657858
 10
741.1401580501
 20
214.7132075296
 10
740.9927016167
 20
211.8673324958
 10
740.9927016167
 20
209.1013360631
 10
741.1401580501
 20
206.4257106034
 10
741.4345115642
 20
203.8506056806
 10
741.8746455753
 20
201.3857895497
 10
742.4588905042
 20
199.0406121025
 10
743.1620046484
 20
196.8863465458
  0
ARC
  5
245
330
1F
100
AcDbEntity
  8
0
  6
Continuous
 62
     8
370
    15
100
AcDbCircle
 10
800.0165389314
 20
244.2558921905
 30
0.0
 40
39.16136539276747
100
AcDbArc
 50
100.7501574708
 51
120.9689661854
  0
LWPOLYLINE
  5
246
330
1F
100
AcDbEntity
  8
0
  6
Continuous
 62
     8
370
    15
100
AcDbPolyline
 90
       32
 70
   128
 43
0.0
 10
770.6254083901
 20
283.1686312423
 10
768.23125101
 20
281.7013345838
 10
765.8461754889
 20
280.06924584
 10
763.4792292353
 20
278.2785560824
 10
761.1393908869
 20
276.3360580106
 10
758.8355362521
 20
274.2491201852
 10
756.5764046406
 20
272.0256590762
 10
754.3705657126
 20
269.6741090331
 10
752.2263869705
 20
267.2033902908
 10
750.1520020188
 20
264.6228751317
 10
748.1552797101
 20
261.9423523337
 10
746.2437942962
 20
259.1719900379
 10
744.4247966958
 20
256.3222971775
 10
742.7051869899
 20
253.4040836135
 10
741.0914882473
 20
250.4284191296
 10
739.5898217798
 20
247.4065914404
 10
738.2058839229
 20
244.3500633733
 10
736.9449244268
 20
241.2704293863
 10
735.8117265428
 20
238.179371586
 10
734.8105888787
 20
235.0886154132
 10
733.9453090924
 20
232.009885165
 10
733.2191694867
 20
228.9548595196
 10
732.6349245578
 20
225.9351272357
 10
732.1947905467
 20
222.9621431923
 10
731.9004370326
 20
220.0471849361
 10
731.7529805992
 20
217.2013099023
 10
731.7529805992
 20
214.4353134696
 10
731.9004370326
 20
211.7596880099
 10
732.1947905467
 20
209.1845830871
 10
732.6349245578
 20
206.7197669562
 10
733.2191694867
 20
204.374589509
 10
733.9222836309
 20
202.2203239523
  0
ARC
  5
247
330
1F
100
AcDbEntity
  8
0
  6
Continuous
 62
     8
370
    15
100
AcDbCircle
 10
790.7768179139
 20
249.589869597
 30
0.0
 40
39.16136539277611
100
AcDbArc
 50
100.7501574708
 51
120.9689661854
  0
LWPOLYLINE
  5
248
330
1F
100
AcDbEntity
  8
0
  6
Continuous
 62
     8
370
    15
100
AcDbPolyline
 90
       32
 70
   128
 43
0.0
 10
761.3856873726
 20
288.5026086488
 10
758.9915299925
 20
287.0353119903
 10
756.6064544714
 20
285.4032232465
 10
754.2395082177
 20
283.6125334889
 10
751.8996698694
 20
281.6700354171
 10
749.5958152346
 20
279.5830975917
 10
747.3366836231
 20
277.3596364827
 10
745.1308446951
 20
275.0080864396
 10
742.986665953
 20
272.5373676973
 10
740.9122810013
 20
269.9568525382
 10
738.9155586926
 20
267.2763297402
 10
737.0040732786
 20
264.5059674444
 10
735.1850756783
 20
261.656274584
 10
733.4654659724
 20
258.73806102
 10
731.8517672298
 20
255.7623965361
 10
730.3501007623
 20
252.7405688469
 10
728.9661629054
 20
249.6840407798
 10
727.7052034093
 20
246.6044067928
 10
726.5720055253
 20
243.5133489925
 10
725.5708678612
 20
240.4225928197
 10
724.7055880749
 20
237.3438625715
 10
723.9794484692
 20
234.2888369261
 10
723.3952035403
 20
231.2691046422
 10
722.9550695292
 20
228.2961205988
 10
722.6607160151
 20
225.3811623426
 10
722.5132595817
 20
222.5352873088
 10
722.5132595817
 20
219.7692908761
 10
722.6607160151
 20
217.0936654164
 10
722.9550695292
 20
214.5185604936
 10
723.3952035403
 20
212.0537443627
 10
723.9794484692
 20
209.7085669155
 10
724.6825626134
 20
207.5543013588
  0
ARC
  5
249
330
1F
100
AcDbEntity
  8
0
  6
Continuous
 62
     8
370
    15
100
AcDbCircle
 10
781.5370968964
 20
254.9238470035
 30
0.0
 40
39.16136539277177
100
AcDbArc
 50
100.7501574708
 51
120.9689661854
  0
LWPOLYLINE
  5
24A
330
1F
100
AcDbEntity
  8
0
  6
Continuous
 62
     8
370
    15
100
AcDbPolyline
 90
       14
 70
   128
 43
0.0
 10
702.8912985882
 20
229.8494126665
 10
702.9707689616
 20
229.2184417122
 10
703.3762091842
 20
226.7972746563
 10
703.9266679138
 20
224.4948651052
 10
704.6199286474
 20
222.3204840496
 10
705.4531998688
 20
220.2828869545
 10
706.4231262888
 20
218.3902785044
 10
707.5258023562
 20
216.6502795654
 10
708.7567879834
 20
215.0698964991
 10
710.111126426
 20
213.6554929504
 10
711.5833642409
 20
212.4127642232
 10
713.1675732462
 20
211.3467143474
 10
714.8573743912
 20
210.4616359296
 10
716.2133966075
 20
209.9103160683
  0
LWPOLYLINE
  5
24B
330
1F
100
AcDbEntity
  8
0
  6
Continuous
 62
     8
370
    15
100
AcDbPolyline
 90
       15
 70
   128
 43
0.0
 10
767.9920444671
 20
299.5315289603
 10
767.9489613978
 20
299.5680121986
 10
766.4199682044
 20
300.722982979
 10
764.7821385515
 20
301.6990385284
 10
763.0420674009
 20
302.4922486156
 10
761.206761405
 20
303.0994192636
 10
759.2836106933
 20
303.5181056105
 10
757.280359115
 20
303.7466217541
 10
755.2050730571
 20
303.7840475406
 10
753.0661089641
 20
303.6302322695
 10
750.8720796896
 20
303.2857953006
 10
748.6318198149
 20
302.7521235601
 10
746.354350076
 20
302.0313659557
 10
744.0488410397
 20
301.1264247238
 10
744.0352725922
 20
301.1205884471
  0
LWPOLYLINE
  5
24C
330
1F
100
AcDbEntity
  8
0
  6
Continuous
 62
     8
370
    15
100
AcDbPolyline
 90
       28
 70
   128
 43
0.0
 10
744.7774468832
 20
288.9422126786
 10
742.6408746272
 20
287.6235855774
 10
740.5144841111
 20
286.1408219511
 10
738.4084085538
 20
284.5009878435
 10
736.3326843647
 20
282.7118978111
 10
734.2972033147
 20
280.7820776826
 10
732.311665398
 20
278.7207239297
 10
730.385532607
 20
276.5376598417
 10
728.5279838415
 20
274.2432887133
 10
726.7478711673
 20
271.8485442677
 10
725.0536776321
 20
269.3648385527
 10
723.4534768395
 20
266.8040075572
 10
721.9548944751
 20
264.178254807
 10
720.5650719662
 20
261.5000932097
 10
719.2906324501
 20
258.7822854251
 10
718.1376492113
 20
256.0377830448
 10
717.1116167402
 20
253.2796648726
 10
716.2174245486
 20
250.5210745975
 10
715.4593338697
 20
247.7751581586
 10
714.8409573506
 20
245.055001098
 10
714.3652418372
 20
242.373566203
 10
714.0344543304
 20
239.743631732
 10
713.8501711834
 20
237.1777305204
 10
713.8132705894
 20
234.6880902559
 10
713.9239283964
 20
232.2865752081
 10
714.1816172696
 20
229.9846296901
 10
714.5851092042
 20
227.7932235203
 10
714.6285162524
 20
227.6017737008
  0
ARC
  5
24D
330
1F
100
AcDbEntity
  8
0
  6
Continuous
 62
     8
370
    15
100
AcDbCircle
 10
761.999550418
 20
259.6644743297
 30
0.0
 40
33.96743753936556
100
AcDbArc
 50
107.4063813114
 51
120.4654060811
  0
LWPOLYLINE
  5
24E
330
1F
100
AcDbEntity
  8
0
  6
Continuous
 62
     8
370
    15
100
AcDbPolyline
 90
       15
 70
   128
 43
0.0
 10
703.6613359779
 20
234.6531766958
 10
703.6754316899
 20
233.9793018982
 10
703.823470839
 20
231.4020765795
 10
704.1189408124
 20
228.9263848524
 10
704.5606274607
 20
226.5623998655
 10
705.1467157988
 20
224.3198357399
 10
705.8747974639
 20
222.2079076528
 10
706.7418806123
 20
220.2352939697
 10
707.7444022133
 20
218.4101005833
 10
708.8782426907
 20
216.7398276047
 10
710.1387428507
 20
215.231338544
 10
711.5207230278
 20
213.8908321061
 10
713.0185043691
 20
212.7238167197
 10
714.6259321696
 20
211.7350879012
 10
715.9332104781
 20
211.0982873824
  0
LWPOLYLINE
  5
24F
330
1F
100
AcDbEntity
  8
0
  6
Continuous
 62
     8
370
    15
100
AcDbPolyline
 90
       15
 70
   128
 43
0.0
 10
766.7599044208
 20
299.2297836626
 10
766.3846449395
 20
299.4978549099
 10
764.777217139
 20
300.4865837284
 10
763.0667481448
 20
301.2929630802
 10
761.2602666409
 20
301.9136793794
 10
759.3651958473
 20
302.3461819698
 10
757.3893230165
 20
302.5886936054
 10
755.3407674335
 20
302.6402177539
 10
753.2279470529
 20
302.5005426915
 10
751.0595439066
 20
302.1702423729
 10
748.8444684285
 20
301.6506740731
 10
746.5918228386
 20
300.9439728096
 10
744.3108637411
 20
300.0530425695
 10
742.0109640859
 20
298.9815443763
 10
740.2603975869
 20
298.0514802501
  0
LWPOLYLINE
  5
250
330
1F
100
AcDbEntity
  8
0
  6
Continuous
 62
     8
370
    15
100
AcDbPolyline
 90
       26
 70
   128
 43
0.0
 10
745.5274468832
 20
288.1505079945
 10
743.412307428
 20
286.8451085629
 10
741.3072475755
 20
285.3772191246
 10
739.2222988947
 20
283.7538348411
 10
737.1673971153
 20
281.982691878
 10
735.1523347802
 20
280.0722305379
 10
733.1867145791
 20
278.0315550392
 10
731.2799035874
 20
275.87039013
 10
729.4409886278
 20
273.5990347452
 10
727.6787329675
 20
271.2283129276
 10
726.0015345572
 20
268.7695222463
 10
724.4173860113
 20
266.2343799587
 10
722.9338365188
 20
263.6349671721
 10
721.5579558689
 20
260.9836712724
 10
720.2963007592
 20
258.2931268919
 10
719.1548835511
 20
255.5761556997
 10
718.1391436172
 20
252.845705301
 10
717.2539214209
 20
250.1147875353
 10
716.5034354492
 20
247.3964164695
 10
715.8912621094
 20
244.7035463796
 10
715.4203186863
 20
242.0490100178
 10
715.0928494398
 20
239.445457459
 10
714.9104149099
 20
236.9052958165
 10
714.8738844803
 20
234.4406301175
 10
714.9834322351
 20
232.0632056164
 10
715.0359166357
 20
231.4594883022
  0
LWPOLYLINE
  5
251
330
1F
100
AcDbEntity
  8
0
  6
Continuous
 62
     8
370
    15
100
AcDbPolyline
 90
        3
 70
   128
 43
0.0
 10
748.7225733691
 20
289.8022283877
 10
747.6425863383
 20
289.2871965966
 10
745.5274468832
 20
288.1505079945
  0
ENDSEC
  0
SECTION
  2
OBJECTS
  0
DICTIONARY
  5
C
330
0
100
AcDbDictionary
281
     1
  3
ACAD_GROUP
350
D
  3
ACAD_LAYOUT
350
1A
  3
ACAD_MLINESTYLE
350
17
  3
ACAD_PLOTSETTINGS
350
19
  3
ACAD_PLOTSTYLENAME
350
E
  3
ACAD_SCALELIST
350
47
  0
DICTIONARY
  5
D
102
{ACAD_REACTORS
330
C
102
}
330
C
100
AcDbDictionary
281
     1
  0
DICTIONARY
  5
1A
102
{ACAD_REACTORS
330
C
102
}
330
C
100
AcDbDictionary
281
     1
  3
Layout1
350
1E
  3
Layout2
350
26
  3
Model
350
22
  0
DICTIONARY
  5
17
102
{ACAD_REACTORS
330
C
102
}
330
C
100
AcDbDictionary
281
     1
  3
Standard
350
18
  0
DICTIONARY
  5
19
102
{ACAD_REACTORS
330
C
102
}
330
C
100
AcDbDictionary
281
     1
  0
ACDBDICTIONARYWDFLT
  5
E
102
{ACAD_REACTORS
330
C
102
}
330
C
100
AcDbDictionary
281
     1
  3
Normal
350
F
100
AcDbDictionaryWithDefault
340
F
  0
DICTIONARY
  5
47
102
{ACAD_REACTORS
330
C
102
}
330
C
100
AcDbDictionary
281
     1
  3
A0
350
48
  3
A1
350
49
  3
A2
350
4A
  3
A3
350
4B
  3
A4
350
4C
  3
A5
350
4D
  3
A6
350
4E
  3
A7
350
4F
  3
A8
350
50
  3
A9
350
51
  3
B0
350
52
  3
B1
350
53
  3
B2
350
54
  3
B3
350
55
  3
B4
350
56
  3
B5
350
57
  3
B6
350
58
  3
B7
350
59
  3
B8
350
5A
  3
B9
350
5B
  3
C0
350
5C
  3
C1
350
5D
  3
C2
350
5E
  3
C3
350
5F
  3
C4
350
60
  3
C5
350
61
  3
C6
350
62
  3
C7
350
63
  3
C8
350
64
  3
C9
350
65
  3
D0
350
66
  3
D1
350
67
  3
D2
350
68
  0
LAYOUT
  5
1E
102
{ACAD_REACTORS
330
1A
102
}
330
1A
100
AcDbPlotSettings
  1

  2
none_device
  4

  6

 40
0.0
 41
0.0
 42
0.0
 43
0.0
 44
0.0
 45
0.0
 46
0.0
 47
0.0
 48
0.0
 49
0.0
140
0.0
141
0.0
142
1.0
143
1.0
 70
   688
 72
     1
 73
     0
 74
     5
  7

 75
    16
147
1.0
148
0.0
149
0.0
100
AcDbLayout
  1
Layout1
 70
     1
 71
     1
 10
0.0
 20
0.0
 11
420.0
 21
297.0
 12
0.0
 22
0.0
 32
0.0
 14
1.0000000000E+20
 24
1.0000000000E+20
 34
1.0000000000E+20
 15
-1.0000000000E+20
 25
-1.0000000000E+20
 35
-1.0000000000E+20
146
0.0
 13
0.0
 23
0.0
 33
0.0
 16
1.0
 26
0.0
 36
0.0
 17
0.0
 27
1.0
 37
0.0
 76
     0
330
1B
  0
LAYOUT
  5
26
102
{ACAD_REACTORS
330
1A
102
}
330
1A
100
AcDbPlotSettings
  1

  2
none_device
  4

  6

 40
0.0
 41
0.0
 42
0.0
 43
0.0
 44
0.0
 45
0.0
 46
0.0
 47
0.0
 48
0.0
 49
0.0
140
0.0
141
0.0
142
1.0
143
1.0
 70
   688
 72
     1
 73
     0
 74
     5
  7

 75
    16
147
1.0
148
0.0
149
0.0
100
AcDbLayout
  1
Layout2
 70
     1
 71
     2
 10
0.0
 20
0.0
 11
0.0
 21
0.0
 12
0.0
 22
0.0
 32
0.0
 14
0.0
 24
0.0
 34
0.0
 15
0.0
 25
0.0
 35
0.0
146
0.0
 13
0.0
 23
0.0
 33
0.0
 16
1.0
 26
0.0
 36
0.0
 17
0.0
 27
1.0
 37
0.0
 76
     0
330
23
  0
LAYOUT
  5
22
102
{ACAD_REACTORS
330
1A
102
}
330
1A
100
AcDbPlotSettings
  1

  2
none_device
  4
Letter_(8.50_x_11.00_Inches)
  6

 40
6.35
 41
6.35
 42
6.35000508
 43
6.35000508
 44
215.9
 45
279.4
 46
0.0
 47
0.0
 48
0.0
 49
0.0
140
0.0
141
0.0
142
1.0
143
1.0
 70
  1712
 72
     1
 73
     0
 74
     0
  7

 75
     0
147
1.0
148
0.0
149
0.0
100
AcDbLayout
  1
Model
 70
     1
 71
     0
 10
0.0
 20
0.0
 11
1189.0
 21
841.0
 12
0.0
 22
0.0
 32
0.0
 14
0.0
 24
0.0
 34
0.0
 15
1189.0
 25
841.0
 35
0.0
146
0.0
 13
0.0
 23
0.0
 33
0.0
 16
1.0
 26
0.0
 36
0.0
 17
0.0
 27
1.0
 37
0.0
 76
     0
330
1F
331
29
  0
MLINESTYLE
  5
18
102
{ACAD_REACTORS
330
17
102
}
330
17
100
AcDbMlineStyle
  2
Standard
 70
     0
  3

 62
   256
 51
90.0
 52
90.0
 71
     2
 49
0.5
 62
   256
  6
BYLAYER
 49
-0.5
 62
   256
  6
BYLAYER
  0
ACDBPLACEHOLDER
  5
F
102
{ACAD_REACTORS
330
E
102
}
330
E
  0
SCALE
  5
48
102
{ACAD_REACTORS
330
47
102
}
330
47
100
AcDbScale
 70
     0
300
1:1
140
1.0
141
1.0
290
     1
  0
SCALE
  5
49
102
{ACAD_REACTORS
330
47
102
}
330
47
100
AcDbScale
 70
     0
300
1:2
140
1.0
141
2.0
290
     0
  0
SCALE
  5
4A
102
{ACAD_REACTORS
330
47
102
}
330
47
100
AcDbScale
 70
     0
300
1:4
140
1.0
141
4.0
290
     0
  0
SCALE
  5
4B
102
{ACAD_REACTORS
330
47
102
}
330
47
100
AcDbScale
 70
     0
300
1:5
140
1.0
141
5.0
290
     0
  0
SCALE
  5
4C
102
{ACAD_REACTORS
330
47
102
}
330
47
100
AcDbScale
 70
     0
300
1:8
140
1.0
141
8.0
290
     0
  0
SCALE
  5
4D
102
{ACAD_REACTORS
330
47
102
}
330
47
100
AcDbScale
 70
     0
300
1:10
140
1.0
141
10.0
290
     0
  0
SCALE
  5
4E
102
{ACAD_REACTORS
330
47
102
}
330
47
100
AcDbScale
 70
     0
300
1:16
140
1.0
141
16.0
290
     0
  0
SCALE
  5
4F
102
{ACAD_REACTORS
330
47
102
}
330
47
100
AcDbScale
 70
     0
300
1:20
140
1.0
141
20.0
290
     0
  0
SCALE
  5
50
102
{ACAD_REACTORS
330
47
102
}
330
47
100
AcDbScale
 70
     0
300
1:30
140
1.0
141
30.0
290
     0
  0
SCALE
  5
51
102
{ACAD_REACTORS
330
47
102
}
330
47
100
AcDbScale
 70
     0
300
1:40
140
1.0
141
40.0
290
     0
  0
SCALE
  5
52
102
{ACAD_REACTORS
330
47
102
}
330
47
100
AcDbScale
 70
     0
300
1:50
140
1.0
141
50.0
290
     0
  0
SCALE
  5
53
102
{ACAD_REACTORS
330
47
102
}
330
47
100
AcDbScale
 70
     0
300
1:100
140
1.0
141
100.0
290
     0
  0
SCALE
  5
54
102
{ACAD_REACTORS
330
47
102
}
330
47
100
AcDbScale
 70
     0
300
2:1
140
2.0
141
1.0
290
     0
  0
SCALE
  5
55
102
{ACAD_REACTORS
330
47
102
}
330
47
100
AcDbScale
 70
     0
300
4:1
140
4.0
141
1.0
290
     0
  0
SCALE
  5
56
102
{ACAD_REACTORS
330
47
102
}
330
47
100
AcDbScale
 70
     0
300
8:1
140
8.0
141
1.0
290
     0
  0
SCALE
  5
57
102
{ACAD_REACTORS
330
47
102
}
330
47
100
AcDbScale
 70
     0
300
10:1
140
10.0
141
1.0
290
     0
  0
SCALE
  5
58
102
{ACAD_REACTORS
330
47
102
}
330
47
100
AcDbScale
 70
     0
300
100:1
140
100.0
141
1.0
290
     0
  0
SCALE
  5
59
102
{ACAD_REACTORS
330
47
102
}
330
47
100
AcDbScale
 70
     0
300
1/128" = 1'-0"
140
0.0078125
141
12.0
290
     0
  0
SCALE
  5
5A
102
{ACAD_REACTORS
330
47
102
}
330
47
100
AcDbScale
 70
     0
300
1/64" = 1'-0"
140
0.015625
141
12.0
290
     0
  0
SCALE
  5
5B
102
{ACAD_REACTORS
330
47
102
}
330
47
100
AcDbScale
 70
     0
300
1/32" = 1'-0"
140
0.03125
141
12.0
290
     0
  0
SCALE
  5
5C
102
{ACAD_REACTORS
330
47
102
}
330
47
100
AcDbScale
 70
     0
300
1/16" = 1'-0"
140
0.0625
141
12.0
290
     0
  0
SCALE
  5
5D
102
{ACAD_REACTORS
330
47
102
}
330
47
100
AcDbScale
 70
     0
300
3/32" = 1'-0"
140
0.09375
141
12.0
290
     0
  0
SCALE
  5
5E
102
{ACAD_REACTORS
330
47
102
}
330
47
100
AcDbScale
 70
     0
300
1/8" = 1'-0"
140
0.125
141
12.0
290
     0
  0
SCALE
  5
5F
102
{ACAD_REACTORS
330
47
102
}
330
47
100
AcDbScale
 70
     0
300
3/16" = 1'-0"
140
0.1875
141
12.0
290
     0
  0
SCALE
  5
60
102
{ACAD_REACTORS
330
47
102
}
330
47
100
AcDbScale
 70
     0
300
1/4" = 1'-0"
140
0.25
141
12.0
290
     0
  0
SCALE
  5
61
102
{ACAD_REACTORS
330
47
102
}
330
47
100
AcDbScale
 70
     0
300
3/8" = 1'-0"
140
0.375
141
12.0
290
     0
  0
SCALE
  5
62
102
{ACAD_REACTORS
330
47
102
}
330
47
100
AcDbScale
 70
     0
300
1/2" = 1'-0"
140
0.5
141
12.0
290
     0
  0
SCALE
  5
63
102
{ACAD_REACTORS
330
47
102
}
330
47
100
AcDbScale
 70
     0
300
3/4" = 1'-0"
140
0.75
141
12.0
290
     0
  0
SCALE
  5
64
102
{ACAD_REACTORS
330
47
102
}
330
47
100
AcDbScale
 70
     0
300
1" = 1'-0"
140
1.0
141
12.0
290
     0
  0
SCALE
  5
65
102
{ACAD_REACTORS
330
47
102
}
330
47
100
AcDbScale
 70
     0
300
1-1/2" = 1'-0"
140
1.5
141
12.0
290
     0
  0
SCALE
  5
66
102
{ACAD_REACTORS
330
47
102
}
330
47
100
AcDbScale
 70
     0
300
3" = 1'-0"
140
3.0
141
12.0
290
     0
  0
SCALE
  5
67
102
{ACAD_REACTORS
330
47
102
}
330
47
100
AcDbScale
 70
     0
300
6" = 1'-0"
140
6.0
141
12.0
290
     0
  0
SCALE
  5
68
102
{ACAD_REACTORS
330
47
102
}
330
47
100
AcDbScale
 70
     0
300
1'-0" = 1'-0"
140
12.0
141
12.0
290
     0
  0
ENDSEC
  0
EOF
