  0
SECTION
  2
HEADER
  9
$ACADVER
  1
AC1015
  9
$ACADMAINTVER
 70
     6
  9
$DWGCODEPAGE
  3
ANSI_1252
  9
$INSBASE
 10
0.0
 20
0.0
 30
0.0
  9
$EXTMIN
 10
0.0
 20
0.0
 30
0.0
  9
$EXTMAX
 10
1189.0
 20
841.0
 30
0.0
  9
$LIMMIN
 10
0.0
 20
0.0
  9
$LIMMAX
 10
1189.0
 20
841.0
  9
$ORTHOMODE
 70
     0
  9
$REGENMODE
 70
     1
  9
$FILLMODE
 70
     1
  9
$QTEXTMODE
 70
     0
  9
$MIRRTEXT
 70
     1
  9
$LTSCALE
 40
1.0
  9
$ATTMODE
 70
     1
  9
$TEXTSIZE
 40
3.0
  9
$TRACEWID
 40
1.0
  9
$TEXTSTYLE
  7
Standard
  9
$CLAYER
  8
0
  9
$CELTYPE
  6
ByLayer
  9
$CECOLOR
 62
   256
  9
$CELTSCALE
 40
1.0
  9
$DISPSILH
 70
     0
  9
$DIMSCALE
 40
1.0
  9
$DIMASZ
 40
3.0
  9
$DIMEXO
 40
1.0
  9
$DIMDLI
 40
3.75
  9
$DIMRND
 40
0.0
  9
$DIMDLE
 40
0.0
  9
$DIMEXE
 40
1.0
  9
$DIMTP
 40
0.0
  9
$DIMTM
 40
0.0
  9
$DIMTXT
 40
3.0
  9
$DIMCEN
 40
2.5
  9
$DIMTSZ
 40
0.0
  9
$DIMTOL
 70
     0
  9
$DIMLIM
 70
     0
  9
$DIMTIH
 70
     1
  9
$DIMTOH
 70
     1
  9
$DIMSE1
 70
     0
  9
$DIMSE2
 70
     0
  9
$DIMTAD
 70
     1
  9
$DIMZIN
 70
     0
  9
$DIMBLK
  1

  9
$DIMASO
 70
     1
  9
$DIMSHO
 70
     1
  9
$DIMPOST
  1

  9
$DIMAPOST
  1

  9
$DIMALT
 70
     0
  9
$DIMALTD
 70
     3
  9
$DIMALTF
 40
0.0393700787
  9
$DIMLFAC
 40
1.0
  9
$DIMTOFL
 70
     1
  9
$DIMTVP
 40
0.0
  9
$DIMTIX
 70
     0
  9
$DIMSOXD
 70
     0
  9
$DIMSAH
 70
     0
  9
$DIMBLK1
  1

  9
$DIMBLK2
  1

  9
$DIMSTYLE
  2
ISO-25
  9
$DIMCLRD
 70
     0
  9
$DIMCLRE
 70
     0
  9
$DIMCLRT
 70
     0
  9
$DIMTFAC
 40
1.0
  9
$DIMGAP
 40
3.0
  9
$DIMJUST
 70
     0
  9
$DIMSD1
 70
     0
  9
$DIMSD2
 70
     0
  9
$DIMTOLJ
 70
     0
  9
$DIMTZIN
 70
     0
  9
$DIMALTZ
 70
     0
  9
$DIMALTTZ
 70
     0
  9
$DIMUPT
 70
     0
  9
$DIMDEC
 70
     2
  9
$DIMTDEC
 70
     3
  9
$DIMALTU
 70
     2
  9
$DIMALTTD
 70
     3
  9
$DIMTXSTY
  7
Standard
  9
$DIMAUNIT
 70
     0
  9
$DIMADEC
 70
     2
  9
$DIMALTRND
 40
0.0
  9
$DIMAZIN
 70
     0
  9
$DIMDSEP
 70
    44
  9
$DIMATFIT
 70
     3
  9
$DIMFRAC
 70
     0
  9
$DIMLDRBLK
  1

  9
$DIMLUNIT
 70
     2
  9
$DIMLWD
 70
    -2
  9
$DIMLWE
 70
    -2
  9
$DIMTMOVE
 70
     0
  9
$LUNITS
 70
     2
  9
$LUPREC
 70
     2
  9
$SKETCHINC
 40
1.0
  9
$FILLETRAD
 40
10.0
  9
$AUNITS
 70
     0
  9
$AUPREC
 70
     2
  9
$MENU
  1
.
  9
$ELEVATION
 40
0.0
  9
$PELEVATION
 40
0.0
  9
$THICKNESS
 40
0.0
  9
$LIMCHECK
 70
     0
  9
$CHAMFERA
 40
0.0
  9
$CHAMFERB
 40
0.0
  9
$CHAMFERC
 40
0.0
  9
$CHAMFERD
 40
0.0
  9
$SKPOLY
 70
     0
  9
$TDCREATE
 40
2457877.519626169
  9
$TDUCREATE
 40
2457877.436292836
  9
$TDUPDATE
 40
2457877.519627037
  9
$TDUUPDATE
 40
2457877.436293704
  9
$TDINDWG
 40
0.0000000116
  9
$TDUSRTIMER
 40
0.0000000116
  9
$USRTIMER
 70
     1
  9
$ANGBASE
 50
0.0
  9
$ANGDIR
 70
     0
  9
$PDMODE
 70
     0
  9
$PDSIZE
 40
-1.0
  9
$PLINEWID
 40
0.0
  9
$SPLFRAME
 70
     0
  9
$SPLINETYPE
 70
     6
  9
$SPLINESEGS
 70
     8
  9
$HANDSEED
  5
394
  9
$SURFTAB1
 70
     6
  9
$SURFTAB2
 70
     6
  9
$SURFTYPE
 70
     6
  9
$SURFU
 70
     6
  9
$SURFV
 70
     6
  9
$UCSBASE
  2

  9
$UCSNAME
  2

  9
$UCSORG
 10
0.0
 20
0.0
 30
0.0
  9
$UCSXDIR
 10
1.0
 20
0.0
 30
0.0
  9
$UCSYDIR
 10
0.0
 20
1.0
 30
0.0
  9
$UCSORTHOREF
  2

  9
$UCSORTHOVIEW
 70
     0
  9
$UCSORGTOP
 10
0.0
 20
0.0
 30
0.0
  9
$UCSORGBOTTOM
 10
0.0
 20
0.0
 30
0.0
  9
$UCSORGLEFT
 10
0.0
 20
0.0
 30
0.0
  9
$UCSORGRIGHT
 10
0.0
 20
0.0
 30
0.0
  9
$UCSORGFRONT
 10
0.0
 20
0.0
 30
0.0
  9
$UCSORGBACK
 10
0.0
 20
0.0
 30
0.0
  9
$PUCSBASE
  2

  9
$PUCSNAME
  2

  9
$PUCSORG
 10
0.0
 20
0.0
 30
0.0
  9
$PUCSXDIR
 10
1.0
 20
0.0
 30
0.0
  9
$PUCSYDIR
 10
0.0
 20
1.0
 30
0.0
  9
$PUCSORTHOREF
  2

  9
$PUCSORTHOVIEW
 70
     0
  9
$PUCSORGTOP
 10
0.0
 20
0.0
 30
0.0
  9
$PUCSORGBOTTOM
 10
0.0
 20
0.0
 30
0.0
  9
$PUCSORGLEFT
 10
0.0
 20
0.0
 30
0.0
  9
$PUCSORGRIGHT
 10
0.0
 20
0.0
 30
0.0
  9
$PUCSORGFRONT
 10
0.0
 20
0.0
 30
0.0
  9
$PUCSORGBACK
 10
0.0
 20
0.0
 30
0.0
  9
$USERI1
 70
     0
  9
$USERI2
 70
     0
  9
$USERI3
 70
     0
  9
$USERI4
 70
     0
  9
$USERI5
 70
     0
  9
$USERR1
 40
0.0
  9
$USERR2
 40
0.0
  9
$USERR3
 40
0.0
  9
$USERR4
 40
0.0
  9
$USERR5
 40
0.0
  9
$WORLDVIEW
 70
     1
  9
$SHADEDGE
 70
     3
  9
$SHADEDIF
 70
    70
  9
$TILEMODE
 70
     1
  9
$MAXACTVP
 70
    64
  9
$PINSBASE
 10
0.0
 20
0.0
 30
0.0
  9
$PLIMCHECK
 70
     0
  9
$PEXTMIN
 10
1.0000000000E+20
 20
1.0000000000E+20
 30
1.0000000000E+20
  9
$PEXTMAX
 10
-1.0000000000E+20
 20
-1.0000000000E+20
 30
-1.0000000000E+20
  9
$PLIMMIN
 10
0.0
 20
0.0
  9
$PLIMMAX
 10
420.0
 20
297.0
  9
$UNITMODE
 70
     0
  9
$VISRETAIN
 70
     1
  9
$PLINEGEN
 70
     0
  9
$PSLTSCALE
 70
     1
  9
$TREEDEPTH
 70
  3020
  9
$CMLSTYLE
  2
Standard
  9
$CMLJUST
 70
     0
  9
$CMLSCALE
 40
20.0
  9
$PROXYGRAPHICS
 70
     1
  9
$MEASUREMENT
 70
     1
  9
$CELWEIGHT
370
    -1
  9
$ENDCAPS
280
     0
  9
$JOINSTYLE
280
     0
  9
$LWDISPLAY
290
     1
  9
$INSUNITS
 70
     4
  9
$HYPERLINKBASE
  1

  9
$STYLESHEET
  1

  9
$XEDIT
290
     1
  9
$CEPSNTYPE
380
     0
  9
$PSTYLEMODE
290
     1
  9
$FINGERPRINTGUID
  2
{B7E37B61-0711-477C-AC6F-E35792529015}
  9
$VERSIONGUID
  2
{FAEB1C32-E019-11D5-929B-00C0DF256EC4}
  9
$EXTNAMES
290
     1
  9
$PSVPSCALE
 40
0.0
  9
$OLESTARTUP
290
     0
  0
ENDSEC
  0
SECTION
  2
CLASSES
  0
CLASS
  1
ACDBDICTIONARYWDFLT
  2
AcDbDictionaryWithDefault
  3
ObjectDBX Classes
 90
        0
280
     0
281
     0
  0
CLASS
  1
VISUALSTYLE
  2
AcDbVisualStyle
  3
ObjectDBX Classes
 90
     4095
280
     0
281
     0
  0
CLASS
  1
MATERIAL
  2
AcDbMaterial
  3
ObjectDBX Classes
 90
     1153
280
     0
281
     0
  0
CLASS
  1
SCALE
  2
AcDbScale
  3
ObjectDBX Classes
 90
     1153
280
     0
281
     0
  0
CLASS
  1
TABLESTYLE
  2
AcDbTableStyle
  3
ObjectDBX Classes
 90
     4095
280
     0
281
     0
  0
CLASS
  1
MLEADERSTYLE
  2
AcDbMLeaderStyle
  3
ACDB_MLEADERSTYLE_CLASS
 90
     4095
280
     0
281
     0
  0
CLASS
  1
SUN
  2
AcDbSun
  3
SCENEOE
 90
     1153
280
     0
281
     0
  0
CLASS
  1
ACDBPLACEHOLDER
  2
AcDbPlaceHolder
  3
ObjectDBX Classes
 90
        0
280
     0
281
     0
  0
CLASS
  1
LAYOUT
  2
AcDbLayout
  3
ObjectDBX Classes
 90
        0
280
     0
281
     0
  0
ENDSEC
  0
SECTION
  2
TABLES
  0
TABLE
  2
VPORT
  5
8
330
0
100
AcDbSymbolTable
 70
     1
  0
VPORT
  5
29
330
8
100
AcDbSymbolTableRecord
100
AcDbViewportTableRecord
  2
*Active
 70
     0
 10
0.0
 20
0.0
 11
1.0
 21
1.0
 12
594.5
 22
420.5
 13
0.0
 23
0.0
 14
10.0
 24
10.0
 15
10.0
 25
10.0
 16
0.0
 26
0.0
 36
1.0
 17
0.0
 27
0.0
 37
0.0
 40
841.0
 41
1.4137931034
 42
50.0
 43
0.0
 44
0.0
 50
0.0
 51
0.0
 71
     0
 72
  2000
 73
     1
 74
     3
 75
     0
 76
     0
 77
     0
 78
     0
281
     0
 65
     1
110
0.0
120
0.0
130
0.0
111
1.0
121
0.0
131
0.0
112
0.0
122
1.0
132
0.0
 79
     0
146
0.0
  0
ENDTAB
  0
TABLE
  2
LTYPE
  5
5
330
0
100
AcDbSymbolTable
 70
     6
  0
LTYPE
  5
14
330
5
100
AcDbSymbolTableRecord
100
AcDbLinetypeTableRecord
  2
ByBlock
 70
     0
  3

 72
    65
 73
     0
 40
0.0
  0
LTYPE
  5
15
330
5
100
AcDbSymbolTableRecord
100
AcDbLinetypeTableRecord
  2
ByLayer
 70
     0
  3

 72
    65
 73
     0
 40
0.0
  0
LTYPE
  5
16
330
5
100
AcDbSymbolTableRecord
100
AcDbLinetypeTableRecord
  2
Continuous
 70
     0
  3
Solid line
 72
    65
 73
     0
 40
0.0
  0
LTYPE
  5
6E
330
5
100
AcDbSymbolTableRecord
100
AcDbLinetypeTableRecord
  2
HIDDEN
 70
     0
  3
Hidden __ __ __ __ __ __ __ __ __ __ __ __ __ __
 72
    65
 73
     2
 40
1.905
 49
1.27
 74
     0
 49
-0.635
 74
     0
  0
LTYPE
  5
6F
330
5
100
AcDbSymbolTableRecord
100
AcDbLinetypeTableRecord
  2
PHANTOM
 70
     0
  3
Phantom ______  __  __  ______  __  __  ______
 72
    65
 73
     6
 40
12.7
 49
6.35
 74
     0
 49
-1.27
 74
     0
 49
1.27
 74
     0
 49
-1.27
 74
     0
 49
1.27
 74
     0
 49
-1.27
 74
     0
  0
LTYPE
  5
70
330
5
100
AcDbSymbolTableRecord
100
AcDbLinetypeTableRecord
  2
CENTER
 70
     0
  3
Center ____ _ ____ _ ____ _ ____ _ ____ _ ____
 72
    65
 73
     4
 40
10.16
 49
6.35
 74
     0
 49
-1.27
 74
     0
 49
1.27
 74
     0
 49
-1.27
 74
     0
  0
LTYPE
  5
71
330
5
100
AcDbSymbolTableRecord
100
AcDbLinetypeTableRecord
  2
CENTERX2
 70
     0
  3
Center (2x) ________  __  ________  __  _____
 72
    65
 73
     4
 40
20.32
 49
12.7
 74
     0
 49
-2.54
 74
     0
 49
2.54
 74
     0
 49
-2.54
 74
     0
  0
LTYPE
  5
72
330
5
100
AcDbSymbolTableRecord
100
AcDbLinetypeTableRecord
  2
DOT2
 70
     0
  3
Dot (.5x) ........................................
 72
    65
 73
     2
 40
0.635
 49
0.0
 74
     0
 49
-0.635
 74
     0
  0
ENDTAB
  0
TABLE
  2
LAYER
  5
2
330
0
100
AcDbSymbolTable
 70
     1
  0
LAYER
  5
10
330
2
100
AcDbSymbolTableRecord
100
AcDbLayerTableRecord
  2
0
 70
     0
 62
     7
  6
Continuous
370
    -3
390
F
  0
ENDTAB
  0
TABLE
  2
STYLE
  5
3
330
0
100
AcDbSymbolTable
 70
     5
  0
STYLE
  5
11
330
3
100
AcDbSymbolTableRecord
100
AcDbTextStyleTableRecord
  2
Standard
 70
     0
 40
0.0
 41
1.0
 50
0.0
 71
     0
 42
3.0
  3
txt
  4

  0
STYLE
  5
102
330
3
100
AcDbSymbolTableRecord
100
AcDbTextStyleTableRecord
  2
SLDTEXTSTYLE0
 70
     0
 40
0.0
 41
0.8435443038
 50
0.0
 71
     0
 42
3.0
  3
ISOCP
  4

  0
STYLE
  5
155
330
3
100
AcDbSymbolTableRecord
100
AcDbTextStyleTableRecord
  2
SLDTEXTSTYLE1
 70
     0
 40
0.0
 41
0.5316086498
 50
0.0
 71
     0
 42
3.0
  3
TXT
  4

  0
STYLE
  5
172
330
3
100
AcDbSymbolTableRecord
100
AcDbTextStyleTableRecord
  2
SLDTEXTSTYLE2
 70
     0
 40
0.0
 41
1.0126582278
 50
0.0
 71
     0
 42
3.0
  3
ISOCP
  4

  0
STYLE
  5
1A3
330
3
100
AcDbSymbolTableRecord
100
AcDbTextStyleTableRecord
  2
SLDTEXTSTYLE3
 70
     0
 40
0.0
 41
0.96
 50
0.0
 71
     0
 42
3.0
  3
ISOCP
  4

  0
ENDTAB
  0
TABLE
  2
VIEW
  5
6
330
0
100
AcDbSymbolTable
 70
     0
  0
ENDTAB
  0
TABLE
  2
UCS
  5
7
330
0
100
AcDbSymbolTable
 70
     0
  0
ENDTAB
  0
TABLE
  2
APPID
  5
9
330
0
100
AcDbSymbolTable
 70
     1
  0
APPID
  5
12
330
9
100
AcDbSymbolTableRecord
100
AcDbRegAppTableRecord
  2
ACAD
 70
     0
  0
ENDTAB
  0
TABLE
  2
DIMSTYLE
  5
A
330
0
100
AcDbSymbolTable
 70
     1
100
AcDbDimStyleTable
  0
DIMSTYLE
105
27
330
A
100
AcDbSymbolTableRecord
100
AcDbDimStyleTableRecord
  2
ISO-25
 70
     0
 41
2.5
 42
0.625
 43
3.75
 44
1.25
 73
     0
 74
     0
 77
     1
 78
     8
140
2.5
141
2.5
143
0.0393700787
147
0.625
171
     3
172
     1
178
     0
271
     2
272
     2
274
     3
278
    44
283
     0
284
     8
340
11
  0
ENDTAB
  0
TABLE
  2
BLOCK_RECORD
  5
1
330
0
100
AcDbSymbolTable
 70
     4
  0
BLOCK_RECORD
  5
1F
330
1
100
AcDbSymbolTableRecord
100
AcDbBlockTableRecord
  2
*Model_Space
340
22
  0
BLOCK_RECORD
  5
1B
330
1
100
AcDbSymbolTableRecord
100
AcDbBlockTableRecord
  2
*Paper_Space
340
1E
  0
BLOCK_RECORD
  5
23
330
1
100
AcDbSymbolTableRecord
100
AcDbBlockTableRecord
  2
*Paper_Space0
340
26
  0
BLOCK_RECORD
  5
73
330
1
100
AcDbSymbolTableRecord
100
AcDbBlockTableRecord
  2
A0H
340
0
  0
BLOCK_RECORD
  5
15E
330
1
100
AcDbSymbolTableRecord
100
AcDbBlockTableRecord
  2
ISO2768
340
0
  0
BLOCK_RECORD
  5
1A0
330
1
100
AcDbSymbolTableRecord
100
AcDbBlockTableRecord
  2
Nota legale
340
0
  0
ENDTAB
  0
ENDSEC
  0
SECTION
  2
BLOCKS
  0
BLOCK
  5
20
330
1F
100
AcDbEntity
  8
0
100
AcDbBlockBegin
  2
*Model_Space
 70
     0
 10
0.0
 20
0.0
 30
0.0
  3
*Model_Space
  1

  0
ENDBLK
  5
21
330
1F
100
AcDbEntity
  8
0
100
AcDbBlockEnd
  0
BLOCK
  5
1C
330
1B
100
AcDbEntity
 67
     1
  8
0
100
AcDbBlockBegin
  2
*Paper_Space
 70
     0
 10
0.0
 20
0.0
 30
0.0
  3
*Paper_Space
  1

  0
ENDBLK
  5
1D
330
1B
100
AcDbEntity
 67
     1
  8
0
100
AcDbBlockEnd
  0
BLOCK
  5
24
330
23
100
AcDbEntity
  8
0
100
AcDbBlockBegin
  2
*Paper_Space0
 70
     0
 10
0.0
 20
0.0
 30
0.0
  3
*Paper_Space0
  1

  0
ENDBLK
  5
25
330
23
100
AcDbEntity
  8
0
100
AcDbBlockEnd
  0
BLOCK
  5
74
330
73
100
AcDbEntity
  8
0
100
AcDbBlockBegin
  2
A0H
 70
     0
 10
0.0
 20
0.0
 30
0.0
  3
A0H
  1

  0
LINE
  5
76
330
73
100
AcDbEntity
  8
0
  6
Continuous
 62
     7
370
     0
100
AcDbLine
 10
139.0
 20
830.9999999407
 30
0.0
 11
139.0
 21
836.0
 31
0.0
  0
LINE
  5
77
330
73
100
AcDbEntity
  8
0
  6
Continuous
 62
     7
370
     0
100
AcDbLine
 10
349.0
 20
830.9999999407
 30
0.0
 11
349.0
 21
836.0
 31
0.0
  0
LINE
  5
78
330
73
100
AcDbEntity
  8
0
  6
Continuous
 62
     7
370
     0
100
AcDbLine
 10
559.0
 20
830.9999999407
 30
0.0
 11
559.0
 21
836.0
 31
0.0
  0
LINE
  5
79
330
73
100
AcDbEntity
  8
0
  6
Continuous
 62
     7
370
     0
100
AcDbLine
 10
769.0
 20
830.9999999407
 30
0.0
 11
769.0
 21
836.0
 31
0.0
  0
LINE
  5
7A
330
73
100
AcDbEntity
  8
0
  6
Continuous
 62
     7
370
     0
100
AcDbLine
 10
979.0
 20
830.9999999407
 30
0.0
 11
979.0
 21
836.0
 31
0.0
  0
LINE
  5
7B
330
73
100
AcDbEntity
  8
0
  6
Continuous
 62
     7
370
     0
100
AcDbLine
 10
329.4999999291
 20
830.9999999407
 30
0.0
 11
327.3865971476
 21
836.0
 31
0.0
  0
LINE
  5
7C
330
73
100
AcDbEntity
  8
0
  6
Continuous
 62
     7
370
     0
100
AcDbLine
 10
329.4999999291
 20
830.9999999407
 30
0.0
 11
331.6134037388
 21
836.0
 31
0.0
  0
LINE
  5
7D
330
73
100
AcDbEntity
  8
0
  6
Continuous
 62
     7
370
     0
100
AcDbLine
 10
263.9999999307
 20
830.9999999407
 30
0.0
 11
261.8865971369
 21
836.0
 31
0.0
  0
LINE
  5
7E
330
73
100
AcDbEntity
  8
0
  6
Continuous
 62
     7
370
     0
100
AcDbLine
 10
263.9999999307
 20
830.9999999407
 30
0.0
 11
266.1134037507
 21
836.0
 31
0.0
  0
LINE
  5
7F
330
73
100
AcDbEntity
  8
0
  6
Continuous
 62
     7
370
     0
100
AcDbLine
 10
634.0
 20
830.9999999407
 30
0.0
 11
631.8865971264
 21
836.0
 31
0.0
  0
LINE
  5
80
330
73
100
AcDbEntity
  8
0
  6
Continuous
 62
     7
370
     0
100
AcDbLine
 10
634.0
 20
830.9999999407
 30
0.0
 11
636.1134038095
 21
836.0
 31
0.0
  0
LINE
  5
81
330
73
100
AcDbEntity
  8
0
  6
Continuous
 62
     7
370
     0
100
AcDbLine
 10
1004.0
 20
830.9999999407
 30
0.0
 11
1001.8865971264
 21
836.0
 31
0.0
  0
LINE
  5
82
330
73
100
AcDbEntity
  8
0
  6
Continuous
 62
     7
370
     0
100
AcDbLine
 10
1004.0
 20
830.9999999407
 30
0.0
 11
1006.1134038095
 21
836.0
 31
0.0
  0
LINE
  5
83
330
73
100
AcDbEntity
  8
0
  6
Continuous
 62
     7
370
     0
100
AcDbLine
 10
1179.0
 20
297.0
 30
0.0
 11
1183.9999314379
 21
299.1133751678
 31
0.0
  0
LINE
  5
84
330
73
100
AcDbEntity
  8
0
  6
Continuous
 62
     7
370
     0
100
AcDbLine
 10
1179.0
 20
297.0
 30
0.0
 11
1183.9999314379
 21
294.8866264869
 31
0.0
  0
LINE
  5
85
330
73
100
AcDbEntity
  8
0
  6
Continuous
 62
     7
370
     0
100
AcDbLine
 10
1179.0
 20
594.0
 30
0.0
 11
1183.9999314379
 21
596.1133751678
 31
0.0
  0
LINE
  5
86
330
73
100
AcDbEntity
  8
0
  6
Continuous
 62
     7
370
     0
100
AcDbLine
 10
1179.0
 20
594.0
 30
0.0
 11
1183.9999314379
 21
591.8866264868
 31
0.0
  0
LINE
  5
87
330
73
100
AcDbEntity
  8
0
  6
Continuous
 62
     7
370
     0
100
AcDbLine
 10
979.0
 20
5.0
 30
0.0
 11
979.0
 21
10.0
 31
0.0
  0
LINE
  5
88
330
73
100
AcDbEntity
  8
0
  6
Continuous
 62
     7
370
     0
100
AcDbLine
 10
769.0
 20
5.0
 30
0.0
 11
769.0
 21
10.0
 31
0.0
  0
LINE
  5
89
330
73
100
AcDbEntity
  8
0
  6
Continuous
 62
     7
370
     0
100
AcDbLine
 10
559.0
 20
5.0
 30
0.0
 11
559.0
 21
10.0
 31
0.0
  0
LINE
  5
8A
330
73
100
AcDbEntity
  8
0
  6
Continuous
 62
     7
370
     0
100
AcDbLine
 10
349.0
 20
5.0
 30
0.0
 11
349.0
 21
10.0
 31
0.0
  0
LINE
  5
8B
330
73
100
AcDbEntity
  8
0
  6
Continuous
 62
     7
370
     0
100
AcDbLine
 10
139.0
 20
5.0
 30
0.0
 11
139.0
 21
10.0
 31
0.0
  0
LINE
  5
8C
330
73
100
AcDbEntity
  8
0
  6
Continuous
 62
     7
370
     0
100
AcDbLine
 10
264.0
 20
10.0
 30
0.0
 11
266.1134033203
 21
5.0
 31
0.0
  0
LINE
  5
8D
330
73
100
AcDbEntity
  8
0
  6
Continuous
 62
     7
370
     0
100
AcDbLine
 10
264.0
 20
10.0
 30
0.0
 11
261.8865966797
 21
5.0
 31
0.0
  0
LINE
  5
8E
330
73
100
AcDbEntity
  8
0
  6
Continuous
 62
     7
370
     0
100
AcDbLine
 10
329.5
 20
10.0
 30
0.0
 11
331.6134033203
 21
5.0
 31
0.0
  0
LINE
  5
8F
330
73
100
AcDbEntity
  8
0
  6
Continuous
 62
     7
370
     0
100
AcDbLine
 10
329.5
 20
10.0
 30
0.0
 11
327.3865966797
 21
5.0
 31
0.0
  0
LINE
  5
90
330
73
100
AcDbEntity
  8
0
  6
Continuous
 62
     7
370
     0
100
AcDbLine
 10
634.0
 20
10.0
 30
0.0
 11
636.1134033203
 21
5.0
 31
0.0
  0
LINE
  5
91
330
73
100
AcDbEntity
  8
0
  6
Continuous
 62
     7
370
     0
100
AcDbLine
 10
634.0
 20
10.0
 30
0.0
 11
631.8865966797
 21
5.0
 31
0.0
  0
LINE
  5
92
330
73
100
AcDbEntity
  8
0
  6
Continuous
 62
     7
370
     0
100
AcDbLine
 10
1004.0
 20
10.0
 30
0.0
 11
1006.1134033203
 21
5.0
 31
0.0
  0
LINE
  5
93
330
73
100
AcDbEntity
  8
0
  6
Continuous
 62
     7
370
     0
100
AcDbLine
 10
1004.0
 20
10.0
 30
0.0
 11
1001.8865966797
 21
5.0
 31
0.0
  0
LINE
  5
94
330
73
100
AcDbEntity
  8
0
  6
Continuous
 62
     7
370
     0
100
AcDbLine
 10
1034.124999986
 20
5.0
 30
0.0
 11
1034.124999986
 21
10.0
 31
0.0
  0
LINE
  5
95
330
73
100
AcDbEntity
  8
0
  6
Continuous
 62
     7
370
     0
100
AcDbLine
 10
985.83333332
 20
5.0
 30
0.0
 11
985.83333332
 21
10.0
 31
0.0
  0
LINE
  5
96
330
73
100
AcDbEntity
  8
0
  6
Continuous
 62
     7
370
     0
100
AcDbLine
 10
937.541666654
 20
5.0
 30
0.0
 11
937.541666654
 21
10.0
 31
0.0
  0
LINE
  5
97
330
73
100
AcDbEntity
  8
0
  6
Continuous
 62
     7
370
     0
100
AcDbLine
 10
889.249999988
 20
5.0
 30
0.0
 11
889.249999988
 21
10.0
 31
0.0
  0
LINE
  5
98
330
73
100
AcDbEntity
  8
0
  6
Continuous
 62
     7
370
     0
100
AcDbLine
 10
840.958333322
 20
5.0
 30
0.0
 11
840.958333322
 21
10.0
 31
0.0
  0
LINE
  5
99
330
73
100
AcDbEntity
  8
0
  6
Continuous
 62
     7
370
     0
100
AcDbLine
 10
792.666666656
 20
5.0
 30
0.0
 11
792.666666656
 21
10.0
 31
0.0
  0
LINE
  5
9A
330
73
100
AcDbEntity
  8
0
  6
Continuous
 62
     7
370
     0
100
AcDbLine
 10
744.37499999
 20
5.0
 30
0.0
 11
744.37499999
 21
10.0
 31
0.0
  0
LINE
  5
9B
330
73
100
AcDbEntity
  8
0
  6
Continuous
 62
     7
370
     0
100
AcDbLine
 10
696.083333324
 20
5.0
 30
0.0
 11
696.083333324
 21
10.0
 31
0.0
  0
LINE
  5
9C
330
73
100
AcDbEntity
  8
0
  6
Continuous
 62
     7
370
     0
100
AcDbLine
 10
647.791666658
 20
5.0
 30
0.0
 11
647.791666658
 21
10.0
 31
0.0
  0
LINE
  5
9D
330
73
100
AcDbEntity
  8
0
  6
Continuous
 62
     7
370
     0
100
AcDbLine
 10
599.499999992
 20
5.0
 30
0.0
 11
599.499999992
 21
10.0
 31
0.0
  0
LINE
  5
9E
330
73
100
AcDbEntity
  8
0
  6
Continuous
 62
     7
370
     0
100
AcDbLine
 10
551.208333326
 20
5.0
 30
0.0
 11
551.208333326
 21
10.0
 31
0.0
  0
LINE
  5
9F
330
73
100
AcDbEntity
  8
0
  6
Continuous
 62
     7
370
     0
100
AcDbLine
 10
502.91666666
 20
5.0
 30
0.0
 11
502.91666666
 21
10.0
 31
0.0
  0
LINE
  5
A0
330
73
100
AcDbEntity
  8
0
  6
Continuous
 62
     7
370
     0
100
AcDbLine
 10
454.624999994
 20
5.0
 30
0.0
 11
454.624999994
 21
10.0
 31
0.0
  0
LINE
  5
A1
330
73
100
AcDbEntity
  8
0
  6
Continuous
 62
     7
370
     0
100
AcDbLine
 10
406.333333328
 20
5.0
 30
0.0
 11
406.333333328
 21
10.0
 31
0.0
  0
LINE
  5
A2
330
73
100
AcDbEntity
  8
0
  6
Continuous
 62
     7
370
     0
100
AcDbLine
 10
358.041666662
 20
5.0
 30
0.0
 11
358.041666662
 21
10.0
 31
0.0
  0
LINE
  5
A3
330
73
100
AcDbEntity
  8
0
  6
Continuous
 62
     7
370
     0
100
AcDbLine
 10
309.749999996
 20
5.0
 30
0.0
 11
309.749999996
 21
10.0
 31
0.0
  0
LINE
  5
A4
330
73
100
AcDbEntity
  8
0
  6
Continuous
 62
     7
370
     0
100
AcDbLine
 10
261.45833333
 20
5.0
 30
0.0
 11
261.45833333
 21
10.0
 31
0.0
  0
LINE
  5
A5
330
73
100
AcDbEntity
  8
0
  6
Continuous
 62
     7
370
     0
100
AcDbLine
 10
213.166666664
 20
5.0
 30
0.0
 11
213.166666664
 21
10.0
 31
0.0
  0
LINE
  5
A6
330
73
100
AcDbEntity
  8
0
  6
Continuous
 62
     7
370
     0
100
AcDbLine
 10
164.874999998
 20
5.0
 30
0.0
 11
164.874999998
 21
10.0
 31
0.0
  0
LINE
  5
A7
330
73
100
AcDbEntity
  8
0
  6
Continuous
 62
     7
370
     0
100
AcDbLine
 10
116.583333332
 20
5.0
 30
0.0
 11
116.583333332
 21
10.0
 31
0.0
  0
LINE
  5
A8
330
73
100
AcDbEntity
  8
0
  6
Continuous
 62
     7
370
     0
100
AcDbLine
 10
68.291666666
 20
5.0
 30
0.0
 11
68.291666666
 21
10.0
 31
0.0
  0
LINE
  5
A9
330
73
100
AcDbEntity
  8
0
  6
Continuous
 62
     7
370
     0
100
AcDbLine
 10
1183.9999314379
 20
55.61111113
 30
0.0
 11
1179.0
 21
55.61111113
 31
0.0
  0
LINE
  5
AA
330
73
100
AcDbEntity
  8
0
  6
Continuous
 62
     7
370
     0
100
AcDbLine
 10
1183.9999314379
 20
101.22222224
 30
0.0
 11
1179.0
 21
101.22222224
 31
0.0
  0
LINE
  5
AB
330
73
100
AcDbEntity
  8
0
  6
Continuous
 62
     7
370
     0
100
AcDbLine
 10
1183.9999314379
 20
146.83333335
 30
0.0
 11
1179.0
 21
146.83333335
 31
0.0
  0
LINE
  5
AC
330
73
100
AcDbEntity
  8
0
  6
Continuous
 62
     7
370
     0
100
AcDbLine
 10
1183.9999314379
 20
192.44444446
 30
0.0
 11
1179.0
 21
192.44444446
 31
0.0
  0
LINE
  5
AD
330
73
100
AcDbEntity
  8
0
  6
Continuous
 62
     7
370
     0
100
AcDbLine
 10
1183.9999314379
 20
238.05555557
 30
0.0
 11
1179.0
 21
238.05555557
 31
0.0
  0
LINE
  5
AE
330
73
100
AcDbEntity
  8
0
  6
Continuous
 62
     7
370
     0
100
AcDbLine
 10
1183.9999314379
 20
283.66666668
 30
0.0
 11
1179.0
 21
283.66666668
 31
0.0
  0
LINE
  5
AF
330
73
100
AcDbEntity
  8
0
  6
Continuous
 62
     7
370
     0
100
AcDbLine
 10
1183.9999314379
 20
329.27777779
 30
0.0
 11
1179.0
 21
329.27777779
 31
0.0
  0
LINE
  5
B0
330
73
100
AcDbEntity
  8
0
  6
Continuous
 62
     7
370
     0
100
AcDbLine
 10
1183.9999314379
 20
374.8888889
 30
0.0
 11
1179.0
 21
374.8888889
 31
0.0
  0
LINE
  5
B1
330
73
100
AcDbEntity
  8
0
  6
Continuous
 62
     7
370
     0
100
AcDbLine
 10
1183.9999314379
 20
420.50000001
 30
0.0
 11
1179.0
 21
420.50000001
 31
0.0
  0
LINE
  5
B2
330
73
100
AcDbEntity
  8
0
  6
Continuous
 62
     7
370
     0
100
AcDbLine
 10
1183.9999314379
 20
466.11111112
 30
0.0
 11
1179.0
 21
466.11111112
 31
0.0
  0
LINE
  5
B3
330
73
100
AcDbEntity
  8
0
  6
Continuous
 62
     7
370
     0
100
AcDbLine
 10
1183.9999314379
 20
511.72222223
 30
0.0
 11
1179.0
 21
511.72222223
 31
0.0
  0
LINE
  5
B4
330
73
100
AcDbEntity
  8
0
  6
Continuous
 62
     7
370
     0
100
AcDbLine
 10
1183.9999314379
 20
557.33333334
 30
0.0
 11
1179.0
 21
557.33333334
 31
0.0
  0
LINE
  5
B5
330
73
100
AcDbEntity
  8
0
  6
Continuous
 62
     7
370
     0
100
AcDbLine
 10
1183.9999314379
 20
602.94444445
 30
0.0
 11
1179.0
 21
602.94444445
 31
0.0
  0
LINE
  5
B6
330
73
100
AcDbEntity
  8
0
  6
Continuous
 62
     7
370
     0
100
AcDbLine
 10
1183.9999314379
 20
648.55555556
 30
0.0
 11
1179.0
 21
648.55555556
 31
0.0
  0
LINE
  5
B7
330
73
100
AcDbEntity
  8
0
  6
Continuous
 62
     7
370
     0
100
AcDbLine
 10
1183.9999314379
 20
694.16666667
 30
0.0
 11
1179.0
 21
694.16666667
 31
0.0
  0
LINE
  5
B8
330
73
100
AcDbEntity
  8
0
  6
Continuous
 62
     7
370
     0
100
AcDbLine
 10
1183.9999314379
 20
739.77777778
 30
0.0
 11
1179.0
 21
739.77777778
 31
0.0
  0
LINE
  5
B9
330
73
100
AcDbEntity
  8
0
  6
Continuous
 62
     7
370
     0
100
AcDbLine
 10
1183.9999314379
 20
785.38888889
 30
0.0
 11
1179.0
 21
785.38888889
 31
0.0
  0
LINE
  5
BA
330
73
100
AcDbEntity
  8
0
  6
Continuous
 62
     7
370
     0
100
AcDbLine
 10
20.0
 20
10.0
 30
0.0
 11
15.0
 21
10.0
 31
0.0
  0
LINE
  5
BB
330
73
100
AcDbEntity
  8
0
  6
Continuous
 62
     7
370
     0
100
AcDbLine
 10
20.0
 20
55.61111113
 30
0.0
 11
15.0
 21
55.61111113
 31
0.0
  0
LINE
  5
BC
330
73
100
AcDbEntity
  8
0
  6
Continuous
 62
     7
370
     0
100
AcDbLine
 10
20.0
 20
101.22222224
 30
0.0
 11
15.0
 21
101.22222224
 31
0.0
  0
LINE
  5
BD
330
73
100
AcDbEntity
  8
0
  6
Continuous
 62
     7
370
     0
100
AcDbLine
 10
20.0
 20
146.83333335
 30
0.0
 11
15.0
 21
146.83333335
 31
0.0
  0
LINE
  5
BE
330
73
100
AcDbEntity
  8
0
  6
Continuous
 62
     7
370
     0
100
AcDbLine
 10
20.0
 20
192.44444446
 30
0.0
 11
15.0
 21
192.44444446
 31
0.0
  0
LINE
  5
BF
330
73
100
AcDbEntity
  8
0
  6
Continuous
 62
     7
370
     0
100
AcDbLine
 10
20.0
 20
238.05555557
 30
0.0
 11
15.0
 21
238.05555557
 31
0.0
  0
LINE
  5
C0
330
73
100
AcDbEntity
  8
0
  6
Continuous
 62
     7
370
     0
100
AcDbLine
 10
20.0
 20
283.66666668
 30
0.0
 11
15.0
 21
283.66666668
 31
0.0
  0
LINE
  5
C1
330
73
100
AcDbEntity
  8
0
  6
Continuous
 62
     7
370
     0
100
AcDbLine
 10
20.0
 20
329.27777779
 30
0.0
 11
15.0
 21
329.27777779
 31
0.0
  0
LINE
  5
C2
330
73
100
AcDbEntity
  8
0
  6
Continuous
 62
     7
370
     0
100
AcDbLine
 10
20.0
 20
374.8888889
 30
0.0
 11
15.0
 21
374.8888889
 31
0.0
  0
LINE
  5
C3
330
73
100
AcDbEntity
  8
0
  6
Continuous
 62
     7
370
     0
100
AcDbLine
 10
20.0
 20
420.50000001
 30
0.0
 11
15.0
 21
420.50000001
 31
0.0
  0
LINE
  5
C4
330
73
100
AcDbEntity
  8
0
  6
Continuous
 62
     7
370
     0
100
AcDbLine
 10
20.0
 20
466.11111112
 30
0.0
 11
15.0
 21
466.11111112
 31
0.0
  0
LINE
  5
C5
330
73
100
AcDbEntity
  8
0
  6
Continuous
 62
     7
370
     0
100
AcDbLine
 10
20.0
 20
511.72222223
 30
0.0
 11
15.0
 21
511.72222223
 31
0.0
  0
LINE
  5
C6
330
73
100
AcDbEntity
  8
0
  6
Continuous
 62
     7
370
     0
100
AcDbLine
 10
20.0
 20
557.33333334
 30
0.0
 11
15.0
 21
557.33333334
 31
0.0
  0
LINE
  5
C7
330
73
100
AcDbEntity
  8
0
  6
Continuous
 62
     7
370
     0
100
AcDbLine
 10
20.0
 20
602.94444445
 30
0.0
 11
15.0
 21
602.94444445
 31
0.0
  0
LINE
  5
C8
330
73
100
AcDbEntity
  8
0
  6
Continuous
 62
     7
370
     0
100
AcDbLine
 10
20.0
 20
648.55555556
 30
0.0
 11
15.0
 21
648.55555556
 31
0.0
  0
LINE
  5
C9
330
73
100
AcDbEntity
  8
0
  6
Continuous
 62
     7
370
     0
100
AcDbLine
 10
20.0
 20
694.16666667
 30
0.0
 11
15.0
 21
694.16666667
 31
0.0
  0
LINE
  5
CA
330
73
100
AcDbEntity
  8
0
  6
Continuous
 62
     7
370
     0
100
AcDbLine
 10
20.0
 20
739.77777778
 30
0.0
 11
15.0
 21
739.77777778
 31
0.0
  0
LINE
  5
CB
330
73
100
AcDbEntity
  8
0
  6
Continuous
 62
     7
370
     0
100
AcDbLine
 10
1179.0
 20
830.9999999407
 30
0.0
 11
1179.0
 21
836.0
 31
0.0
  0
LINE
  5
CC
330
73
100
AcDbEntity
  8
0
  6
Continuous
 62
     7
370
     0
100
AcDbLine
 10
1130.708333318
 20
830.9999999407
 30
0.0
 11
1130.708333318
 21
836.0
 31
0.0
  0
LINE
  5
CD
330
73
100
AcDbEntity
  8
0
  6
Continuous
 62
     7
370
     0
100
AcDbLine
 10
1082.416666652
 20
830.9999999407
 30
0.0
 11
1082.416666652
 21
836.0
 31
0.0
  0
LINE
  5
CE
330
73
100
AcDbEntity
  8
0
  6
Continuous
 62
     7
370
     0
100
AcDbLine
 10
1034.124999986
 20
830.9999999407
 30
0.0
 11
1034.124999986
 21
836.0
 31
0.0
  0
LINE
  5
CF
330
73
100
AcDbEntity
  8
0
  6
Continuous
 62
     7
370
     0
100
AcDbLine
 10
985.83333332
 20
830.9999999407
 30
0.0
 11
985.83333332
 21
836.0
 31
0.0
  0
LINE
  5
D0
330
73
100
AcDbEntity
  8
0
  6
Continuous
 62
     7
370
     0
100
AcDbLine
 10
937.541666654
 20
830.9999999407
 30
0.0
 11
937.541666654
 21
836.0
 31
0.0
  0
LINE
  5
D1
330
73
100
AcDbEntity
  8
0
  6
Continuous
 62
     7
370
     0
100
AcDbLine
 10
889.249999988
 20
830.9999999407
 30
0.0
 11
889.249999988
 21
836.0
 31
0.0
  0
LINE
  5
D2
330
73
100
AcDbEntity
  8
0
  6
Continuous
 62
     7
370
     0
100
AcDbLine
 10
840.958333322
 20
830.9999999407
 30
0.0
 11
840.958333322
 21
836.0
 31
0.0
  0
LINE
  5
D3
330
73
100
AcDbEntity
  8
0
  6
Continuous
 62
     7
370
     0
100
AcDbLine
 10
792.666666656
 20
830.9999999407
 30
0.0
 11
792.666666656
 21
836.0
 31
0.0
  0
LINE
  5
D4
330
73
100
AcDbEntity
  8
0
  6
Continuous
 62
     7
370
     0
100
AcDbLine
 10
744.37499999
 20
830.9999999407
 30
0.0
 11
744.37499999
 21
836.0
 31
0.0
  0
LINE
  5
D5
330
73
100
AcDbEntity
  8
0
  6
Continuous
 62
     7
370
     0
100
AcDbLine
 10
696.083333324
 20
830.9999999407
 30
0.0
 11
696.083333324
 21
836.0
 31
0.0
  0
LINE
  5
D6
330
73
100
AcDbEntity
  8
0
  6
Continuous
 62
     7
370
     0
100
AcDbLine
 10
647.791666658
 20
830.9999999407
 30
0.0
 11
647.791666658
 21
836.0
 31
0.0
  0
LINE
  5
D7
330
73
100
AcDbEntity
  8
0
  6
Continuous
 62
     7
370
     0
100
AcDbLine
 10
599.499999992
 20
830.9999999407
 30
0.0
 11
599.499999992
 21
836.0
 31
0.0
  0
LINE
  5
D8
330
73
100
AcDbEntity
  8
0
  6
Continuous
 62
     7
370
     0
100
AcDbLine
 10
551.208333326
 20
830.9999999407
 30
0.0
 11
551.208333326
 21
836.0
 31
0.0
  0
LINE
  5
D9
330
73
100
AcDbEntity
  8
0
  6
Continuous
 62
     7
370
     0
100
AcDbLine
 10
502.91666666
 20
830.9999999407
 30
0.0
 11
502.91666666
 21
836.0
 31
0.0
  0
LINE
  5
DA
330
73
100
AcDbEntity
  8
0
  6
Continuous
 62
     7
370
     0
100
AcDbLine
 10
454.624999994
 20
830.9999999407
 30
0.0
 11
454.624999994
 21
836.0
 31
0.0
  0
LINE
  5
DB
330
73
100
AcDbEntity
  8
0
  6
Continuous
 62
     7
370
     0
100
AcDbLine
 10
406.333333328
 20
830.9999999407
 30
0.0
 11
406.333333328
 21
836.0
 31
0.0
  0
LINE
  5
DC
330
73
100
AcDbEntity
  8
0
  6
Continuous
 62
     7
370
     0
100
AcDbLine
 10
358.041666662
 20
830.9999999407
 30
0.0
 11
358.041666662
 21
836.0
 31
0.0
  0
LINE
  5
DD
330
73
100
AcDbEntity
  8
0
  6
Continuous
 62
     7
370
     0
100
AcDbLine
 10
309.749999996
 20
830.9999999407
 30
0.0
 11
309.749999996
 21
836.0
 31
0.0
  0
LINE
  5
DE
330
73
100
AcDbEntity
  8
0
  6
Continuous
 62
     7
370
     0
100
AcDbLine
 10
261.45833333
 20
830.9999999407
 30
0.0
 11
261.45833333
 21
836.0
 31
0.0
  0
LINE
  5
DF
330
73
100
AcDbEntity
  8
0
  6
Continuous
 62
     7
370
     0
100
AcDbLine
 10
213.166666664
 20
830.9999999407
 30
0.0
 11
213.166666664
 21
836.0
 31
0.0
  0
LINE
  5
E0
330
73
100
AcDbEntity
  8
0
  6
Continuous
 62
     7
370
     0
100
AcDbLine
 10
164.874999998
 20
830.9999999407
 30
0.0
 11
164.874999998
 21
836.0
 31
0.0
  0
LINE
  5
E1
330
73
100
AcDbEntity
  8
0
  6
Continuous
 62
     7
370
     0
100
AcDbLine
 10
116.583333332
 20
830.9999999407
 30
0.0
 11
116.583333332
 21
836.0
 31
0.0
  0
LINE
  5
E2
330
73
100
AcDbEntity
  8
0
  6
Continuous
 62
     7
370
     0
100
AcDbLine
 10
1169.0
 20
10.0
 30
0.0
 11
1169.0
 21
5.0
 31
0.0
  0
LINE
  5
E3
330
73
100
AcDbEntity
  8
0
  6
Continuous
 62
     7
370
     0
100
AcDbLine
 10
1159.0
 20
10.0
 30
0.0
 11
1159.0
 21
5.0
 31
0.0
  0
LINE
  5
E4
330
73
100
AcDbEntity
  8
0
  6
Continuous
 62
     7
370
     0
100
AcDbLine
 10
1149.0
 20
10.0
 30
0.0
 11
1149.0
 21
5.0
 31
0.0
  0
LINE
  5
E5
330
73
100
AcDbEntity
  8
0
  6
Continuous
 62
     7
370
     0
100
AcDbLine
 10
1139.0
 20
10.0
 30
0.0
 11
1139.0
 21
5.0
 31
0.0
  0
LINE
  5
E6
330
73
100
AcDbEntity
  8
0
  6
Continuous
 62
     7
370
     0
100
AcDbLine
 10
1129.0
 20
10.0
 30
0.0
 11
1129.0
 21
5.0
 31
0.0
  0
LINE
  5
E7
330
73
100
AcDbEntity
  8
0
  6
Continuous
 62
     7
370
     0
100
AcDbLine
 10
1119.0
 20
10.0
 30
0.0
 11
1119.0
 21
5.0
 31
0.0
  0
LINE
  5
E8
330
73
100
AcDbEntity
  8
0
  6
Continuous
 62
     7
370
     0
100
AcDbLine
 10
1109.0
 20
10.0
 30
0.0
 11
1109.0
 21
5.0
 31
0.0
  0
LINE
  5
E9
330
73
100
AcDbEntity
  8
0
  6
Continuous
 62
     7
370
     0
100
AcDbLine
 10
1099.0
 20
10.0
 30
0.0
 11
1099.0
 21
5.0
 31
0.0
  0
LINE
  5
EA
330
73
100
AcDbEntity
  8
0
  6
Continuous
 62
     7
370
     0
100
AcDbLine
 10
1089.0
 20
10.0
 30
0.0
 11
1089.0
 21
5.0
 31
0.0
  0
LINE
  5
EB
330
73
100
AcDbEntity
  8
0
  6
Continuous
 62
     7
370
     0
100
AcDbLine
 10
1079.0
 20
10.0
 30
0.0
 11
1079.0
 21
5.0
 31
0.0
  0
LINE
  5
EC
330
73
100
AcDbEntity
  8
0
  6
Continuous
 62
     7
370
     0
100
AcDbLine
 10
20.0
 20
785.38888889
 30
0.0
 11
15.0
 21
785.38888889
 31
0.0
  0
LINE
  5
ED
330
73
100
AcDbEntity
  8
0
  6
Continuous
 62
     7
370
     0
100
AcDbLine
 10
68.291666666
 20
830.9999999407
 30
0.0
 11
68.291666666
 21
836.0
 31
0.0
  0
LINE
  5
EE
330
73
100
AcDbEntity
  8
0
  6
Continuous
 62
     7
370
     0
100
AcDbLine
 10
1183.9999314379
 20
5.0
 30
0.0
 11
1183.9999314379
 21
836.0
 31
0.0
  0
LINE
  5
EF
330
73
100
AcDbEntity
  8
0
  6
Continuous
 62
     7
370
     0
100
AcDbLine
 10
1183.9999314379
 20
5.0
 30
0.0
 11
15.0
 21
5.0
 31
0.0
  0
LINE
  5
F0
330
73
100
AcDbEntity
  8
0
  6
Continuous
 62
     7
370
     0
100
AcDbLine
 10
15.0
 20
836.0
 30
0.0
 11
15.0
 21
5.0
 31
0.0
  0
LINE
  5
F1
330
73
100
AcDbEntity
  8
0
  6
Continuous
 62
     7
370
     0
100
AcDbLine
 10
1179.0
 20
830.9999999407
 30
0.0
 11
1179.0
 21
836.0
 31
0.0
  0
LINE
  5
F2
330
73
100
AcDbEntity
  8
0
  6
Continuous
 62
     7
370
     0
100
AcDbLine
 10
1179.0
 20
10.0
 30
0.0
 11
1179.0
 21
830.9999999407
 31
0.0
  0
LINE
  5
F3
330
73
100
AcDbEntity
  8
0
  6
Continuous
 62
     7
370
     0
100
AcDbLine
 10
1179.0
 20
5.0
 30
0.0
 11
1179.0
 21
10.0
 31
0.0
  0
LINE
  5
F4
330
73
100
AcDbEntity
  8
0
  6
Continuous
 62
     7
370
     0
100
AcDbLine
 10
20.0
 20
10.0
 30
0.0
 11
15.0
 21
10.0
 31
0.0
  0
LINE
  5
F5
330
73
100
AcDbEntity
  8
0
  6
Continuous
 62
     7
370
     0
100
AcDbLine
 10
1179.0
 20
10.0
 30
0.0
 11
20.0
 21
10.0
 31
0.0
  0
LINE
  5
F6
330
73
100
AcDbEntity
  8
0
  6
Continuous
 62
     7
370
     0
100
AcDbLine
 10
1183.9999314379
 20
10.0
 30
0.0
 11
1179.0
 21
10.0
 31
0.0
  0
LINE
  5
F7
330
73
100
AcDbEntity
  8
0
  6
Continuous
 62
     7
370
     0
100
AcDbLine
 10
20.0
 20
10.0
 30
0.0
 11
20.0
 21
5.0
 31
0.0
  0
LINE
  5
F8
330
73
100
AcDbEntity
  8
0
  6
Continuous
 62
     7
370
     0
100
AcDbLine
 10
20.0
 20
830.9999999407
 30
0.0
 11
20.0
 21
10.0
 31
0.0
  0
LINE
  5
F9
330
73
100
AcDbEntity
  8
0
  6
Continuous
 62
     7
370
     0
100
AcDbLine
 10
20.0
 20
836.0
 30
0.0
 11
20.0
 21
830.9999999407
 31
0.0
  0
LINE
  5
FA
330
73
100
AcDbEntity
  8
0
  6
Continuous
 62
     7
370
     0
100
AcDbLine
 10
1179.0
 20
830.9999999407
 30
0.0
 11
1183.9999314379
 21
830.9999999407
 31
0.0
  0
LINE
  5
FB
330
73
100
AcDbEntity
  8
0
  6
Continuous
 62
     7
370
     0
100
AcDbLine
 10
20.0
 20
830.9999999407
 30
0.0
 11
1179.0
 21
830.9999999407
 31
0.0
  0
LINE
  5
FC
330
73
100
AcDbEntity
  8
0
  6
Continuous
 62
     7
370
     0
100
AcDbLine
 10
15.0
 20
830.9999999407
 30
0.0
 11
20.0
 21
830.9999999407
 31
0.0
  0
LINE
  5
FD
330
73
100
AcDbEntity
  8
0
  6
Continuous
 62
     7
370
     0
100
AcDbLine
 10
15.0
 20
836.0
 30
0.0
 11
1183.9999314379
 21
836.0
 31
0.0
  0
LINE
  5
FE
330
73
100
AcDbEntity
  8
0
  6
Continuous
 62
     7
370
     0
100
AcDbLine
 10
0.0
 20
841.0
 30
0.0
 11
1189.0
 21
841.0
 31
0.0
  0
LINE
  5
FF
330
73
100
AcDbEntity
  8
0
  6
Continuous
 62
     7
370
     0
100
AcDbLine
 10
1189.0
 20
0.0
 30
0.0
 11
1189.0
 21
841.0
 31
0.0
  0
LINE
  5
100
330
73
100
AcDbEntity
  8
0
  6
Continuous
 62
     7
370
     0
100
AcDbLine
 10
1189.0
 20
0.0
 30
0.0
 11
0.0
 21
0.0
 31
0.0
  0
LINE
  5
101
330
73
100
AcDbEntity
  8
0
  6
Continuous
 62
     7
370
     0
100
AcDbLine
 10
0.0
 20
841.0
 30
0.0
 11
0.0
 21
0.0
 31
0.0
  0
MTEXT
  5
103
330
73
100
AcDbEntity
  8
0
  6
Continuous
 62
     7
370
     0
100
AcDbMText
 10
43.2001861591
 20
834.6449155598
 30
0.0
 40
3.0
 41
0.0
 71
     1
 72
     1
  1
1
  7
SLDTEXTSTYLE0
 73
     1
 44
1.0
  0
MTEXT
  5
104
330
73
100
AcDbEntity
  8
0
  6
Continuous
 62
     7
370
     0
100
AcDbMText
 10
16.3587006522
 20
809.3393600048
 30
0.0
 40
3.0
 41
0.0
 71
     1
 72
     1
  1
A
  7
SLDTEXTSTYLE0
 73
     1
 44
1.0
  0
MTEXT
  5
105
330
73
100
AcDbEntity
  8
0
  6
Continuous
 62
     7
370
     0
100
AcDbMText
 10
91.4918528251
 20
834.6449155598
 30
0.0
 40
3.0
 41
0.0
 71
     1
 72
     1
  1
2
  7
SLDTEXTSTYLE0
 73
     1
 44
1.0
  0
MTEXT
  5
106
330
73
100
AcDbEntity
  8
0
  6
Continuous
 62
     7
370
     0
100
AcDbMText
 10
139.7835194911
 20
834.6449155598
 30
0.0
 40
3.0
 41
0.0
 71
     1
 72
     1
  1
3
  7
SLDTEXTSTYLE0
 73
     1
 44
1.0
  0
MTEXT
  5
107
330
73
100
AcDbEntity
  8
0
  6
Continuous
 62
     7
370
     0
100
AcDbMText
 10
188.0751861571
 20
834.6449155598
 30
0.0
 40
3.0
 41
0.0
 71
     1
 72
     1
  1
4
  7
SLDTEXTSTYLE0
 73
     1
 44
1.0
  0
MTEXT
  5
108
330
73
100
AcDbEntity
  8
0
  6
Continuous
 62
     7
370
     0
100
AcDbMText
 10
236.3668528231
 20
834.6449155598
 30
0.0
 40
3.0
 41
0.0
 71
     1
 72
     1
  1
5
  7
SLDTEXTSTYLE0
 73
     1
 44
1.0
  0
MTEXT
  5
109
330
73
100
AcDbEntity
  8
0
  6
Continuous
 62
     7
370
     0
100
AcDbMText
 10
284.6585194891
 20
834.6449155598
 30
0.0
 40
3.0
 41
0.0
 71
     1
 72
     1
  1
6
  7
SLDTEXTSTYLE0
 73
     1
 44
1.0
  0
MTEXT
  5
10A
330
73
100
AcDbEntity
  8
0
  6
Continuous
 62
     7
370
     0
100
AcDbMText
 10
332.9501861551
 20
834.6449155598
 30
0.0
 40
3.0
 41
0.0
 71
     1
 72
     1
  1
7
  7
SLDTEXTSTYLE0
 73
     1
 44
1.0
  0
MTEXT
  5
10B
330
73
100
AcDbEntity
  8
0
  6
Continuous
 62
     7
370
     0
100
AcDbMText
 10
381.2418528211
 20
834.6449155598
 30
0.0
 40
3.0
 41
0.0
 71
     1
 72
     1
  1
8
  7
SLDTEXTSTYLE0
 73
     1
 44
1.0
  0
MTEXT
  5
10C
330
73
100
AcDbEntity
  8
0
  6
Continuous
 62
     7
370
     0
100
AcDbMText
 10
429.5335194871
 20
834.6449155598
 30
0.0
 40
3.0
 41
0.0
 71
     1
 72
     1
  1
9
  7
SLDTEXTSTYLE0
 73
     1
 44
1.0
  0
MTEXT
  5
10D
330
73
100
AcDbEntity
  8
0
  6
Continuous
 62
     7
370
     0
100
AcDbMText
 10
476.8795339792
 20
834.6449155598
 30
0.0
 40
3.0
 41
0.0
 71
     1
 72
     1
  1
10
  7
SLDTEXTSTYLE0
 73
     1
 44
1.0
  0
MTEXT
  5
10E
330
73
100
AcDbEntity
  8
0
  6
Continuous
 62
     7
370
     0
100
AcDbMText
 10
525.1712006452
 20
834.6449155598
 30
0.0
 40
3.0
 41
0.0
 71
     1
 72
     1
  1
11
  7
SLDTEXTSTYLE0
 73
     1
 44
1.0
  0
MTEXT
  5
10F
330
73
100
AcDbEntity
  8
0
  6
Continuous
 62
     7
370
     0
100
AcDbMText
 10
573.4628673112
 20
834.6449155598
 30
0.0
 40
3.0
 41
0.0
 71
     1
 72
     1
  1
12
  7
SLDTEXTSTYLE0
 73
     1
 44
1.0
  0
MTEXT
  5
110
330
73
100
AcDbEntity
  8
0
  6
Continuous
 62
     7
370
     0
100
AcDbMText
 10
621.7545339772
 20
834.6449155598
 30
0.0
 40
3.0
 41
0.0
 71
     1
 72
     1
  1
13
  7
SLDTEXTSTYLE0
 73
     1
 44
1.0
  0
MTEXT
  5
111
330
73
100
AcDbEntity
  8
0
  6
Continuous
 62
     7
370
     0
100
AcDbMText
 10
670.0462006432
 20
834.6449155598
 30
0.0
 40
3.0
 41
0.0
 71
     1
 72
     1
  1
14
  7
SLDTEXTSTYLE0
 73
     1
 44
1.0
  0
MTEXT
  5
112
330
73
100
AcDbEntity
  8
0
  6
Continuous
 62
     7
370
     0
100
AcDbMText
 10
718.3378673092
 20
834.6449155598
 30
0.0
 40
3.0
 41
0.0
 71
     1
 72
     1
  1
15
  7
SLDTEXTSTYLE0
 73
     1
 44
1.0
  0
MTEXT
  5
113
330
73
100
AcDbEntity
  8
0
  6
Continuous
 62
     7
370
     0
100
AcDbMText
 10
761.6295339752
 20
834.6449155598
 30
0.0
 40
3.0
 41
0.0
 71
     1
 72
     1
  1
16
  7
SLDTEXTSTYLE0
 73
     1
 44
1.0
  0
MTEXT
  5
114
330
73
100
AcDbEntity
  8
0
  6
Continuous
 62
     7
370
     0
100
AcDbMText
 10
814.9212006412
 20
834.6449155598
 30
0.0
 40
3.0
 41
0.0
 71
     1
 72
     1
  1
17
  7
SLDTEXTSTYLE0
 73
     1
 44
1.0
  0
MTEXT
  5
115
330
73
100
AcDbEntity
  8
0
  6
Continuous
 62
     7
370
     0
100
AcDbMText
 10
863.2128673072
 20
834.6449155598
 30
0.0
 40
3.0
 41
0.0
 71
     1
 72
     1
  1
18
  7
SLDTEXTSTYLE0
 73
     1
 44
1.0
  0
MTEXT
  5
116
330
73
100
AcDbEntity
  8
0
  6
Continuous
 62
     7
370
     0
100
AcDbMText
 10
911.5045339732
 20
834.6449155598
 30
0.0
 40
3.0
 41
0.0
 71
     1
 72
     1
  1
19
  7
SLDTEXTSTYLE0
 73
     1
 44
1.0
  0
MTEXT
  5
117
330
73
100
AcDbEntity
  8
0
  6
Continuous
 62
     7
370
     0
100
AcDbMText
 10
959.7962006392
 20
834.6449155598
 30
0.0
 40
3.0
 41
0.0
 71
     1
 72
     1
  1
20
  7
SLDTEXTSTYLE0
 73
     1
 44
1.0
  0
MTEXT
  5
118
330
73
100
AcDbEntity
  8
0
  6
Continuous
 62
     7
370
     0
100
AcDbMText
 10
1008.0878673052
 20
834.6449155598
 30
0.0
 40
3.0
 41
0.0
 71
     1
 72
     1
  1
21
  7
SLDTEXTSTYLE0
 73
     1
 44
1.0
  0
MTEXT
  5
119
330
73
100
AcDbEntity
  8
0
  6
Continuous
 62
     7
370
     0
100
AcDbMText
 10
1056.3795339712
 20
834.6449155598
 30
0.0
 40
3.0
 41
0.0
 71
     1
 72
     1
  1
22
  7
SLDTEXTSTYLE0
 73
     1
 44
1.0
  0
MTEXT
  5
11A
330
73
100
AcDbEntity
  8
0
  6
Continuous
 62
     7
370
     0
100
AcDbMText
 10
1104.6712006372
 20
834.6449155598
 30
0.0
 40
3.0
 41
0.0
 71
     1
 72
     1
  1
23
  7
SLDTEXTSTYLE0
 73
     1
 44
1.0
  0
MTEXT
  5
11B
330
73
100
AcDbEntity
  8
0
  6
Continuous
 62
     7
370
     0
100
AcDbMText
 10
1152.9628673032
 20
834.6449155598
 30
0.0
 40
3.0
 41
0.0
 71
     1
 72
     1
  1
24
  7
SLDTEXTSTYLE0
 73
     1
 44
1.0
  0
MTEXT
  5
11C
330
73
100
AcDbEntity
  8
0
  6
Continuous
 62
     7
370
     0
100
AcDbMText
 10
16.3587006522
 20
763.7282488948
 30
0.0
 40
3.0
 41
0.0
 71
     1
 72
     1
  1
B
  7
SLDTEXTSTYLE0
 73
     1
 44
1.0
  0
MTEXT
  5
11D
330
73
100
AcDbEntity
  8
0
  6
Continuous
 62
     7
370
     0
100
AcDbMText
 10
16.2934832609
 20
718.1171377848
 30
0.0
 40
3.0
 41
0.0
 71
     1
 72
     1
  1
C
  7
SLDTEXTSTYLE0
 73
     1
 44
1.0
  0
MTEXT
  5
11E
330
73
100
AcDbEntity
  8
0
  6
Continuous
 62
     7
370
     0
100
AcDbMText
 10
16.2934832609
 20
672.5060266748
 30
0.0
 40
3.0
 41
0.0
 71
     1
 72
     1
  1
D
  7
SLDTEXTSTYLE0
 73
     1
 44
1.0
  0
MTEXT
  5
11F
330
73
100
AcDbEntity
  8
0
  6
Continuous
 62
     7
370
     0
100
AcDbMText
 10
16.3587006522
 20
626.8949155648
 30
0.0
 40
3.0
 41
0.0
 71
     1
 72
     1
  1
E
  7
SLDTEXTSTYLE0
 73
     1
 44
1.0
  0
MTEXT
  5
120
330
73
100
AcDbEntity
  8
0
  6
Continuous
 62
     7
370
     0
100
AcDbMText
 10
16.4565267391
 20
581.2838044548
 30
0.0
 40
3.0
 41
0.0
 71
     1
 72
     1
  1
F
  7
SLDTEXTSTYLE0
 73
     1
 44
1.0
  0
MTEXT
  5
121
330
73
100
AcDbEntity
  8
0
  6
Continuous
 62
     7
370
     0
100
AcDbMText
 10
16.1956571739
 20
535.6726933448
 30
0.0
 40
3.0
 41
0.0
 71
     1
 72
     1
  1
G
  7
SLDTEXTSTYLE0
 73
     1
 44
1.0
  0
MTEXT
  5
122
330
73
100
AcDbEntity
  8
0
  6
Continuous
 62
     7
370
     0
100
AcDbMText
 10
16.2934832609
 20
490.0615822348
 30
0.0
 40
3.0
 41
0.0
 71
     1
 72
     1
  1
H
  7
SLDTEXTSTYLE0
 73
     1
 44
1.0
  0
MTEXT
  5
123
330
73
100
AcDbEntity
  8
0
  6
Continuous
 62
     7
370
     0
100
AcDbMText
 10
17.0434832609
 20
444.4504711248
 30
0.0
 40
3.0
 41
0.0
 71
     1
 72
     1
  1
I
  7
SLDTEXTSTYLE0
 73
     1
 44
1.0
  0
MTEXT
  5
124
330
73
100
AcDbEntity
  8
0
  6
Continuous
 62
     7
370
     0
100
AcDbMText
 10
16.652178913
 20
398.8393600148
 30
0.0
 40
3.0
 41
0.0
 71
     1
 72
     1
  1
J
  7
SLDTEXTSTYLE0
 73
     1
 44
1.0
  0
MTEXT
  5
125
330
73
100
AcDbEntity
  8
0
  6
Continuous
 62
     7
370
     0
100
AcDbMText
 10
16.3587006522
 20
353.2282489048
 30
0.0
 40
3.0
 41
0.0
 71
     1
 72
     1
  1
K
  7
SLDTEXTSTYLE0
 73
     1
 44
1.0
  0
MTEXT
  5
126
330
73
100
AcDbEntity
  8
0
  6
Continuous
 62
     7
370
     0
100
AcDbMText
 10
16.5543528261
 20
307.6171377948
 30
0.0
 40
3.0
 41
0.0
 71
     1
 72
     1
  1
L
  7
SLDTEXTSTYLE0
 73
     1
 44
1.0
  0
MTEXT
  5
127
330
73
100
AcDbEntity
  8
0
  6
Continuous
 62
     7
370
     0
100
AcDbMText
 10
16.097831087
 20
262.0060266848
 30
0.0
 40
3.0
 41
0.0
 71
     1
 72
     1
  1
M
  7
SLDTEXTSTYLE0
 73
     1
 44
1.0
  0
MTEXT
  5
128
330
73
100
AcDbEntity
  8
0
  6
Continuous
 62
     7
370
     0
100
AcDbMText
 10
16.2934832609
 20
216.3949155748
 30
0.0
 40
3.0
 41
0.0
 71
     1
 72
     1
  1
N
  7
SLDTEXTSTYLE0
 73
     1
 44
1.0
  0
MTEXT
  5
129
330
73
100
AcDbEntity
  8
0
  6
Continuous
 62
     7
370
     0
100
AcDbMText
 10
16.1956571739
 20
170.7838044648
 30
0.0
 40
3.0
 41
0.0
 71
     1
 72
     1
  1
O
  7
SLDTEXTSTYLE0
 73
     1
 44
1.0
  0
MTEXT
  5
12A
330
73
100
AcDbEntity
  8
0
  6
Continuous
 62
     7
370
     0
100
AcDbMText
 10
16.3587006522
 20
125.1726933548
 30
0.0
 40
3.0
 41
0.0
 71
     1
 72
     1
  1
P
  7
SLDTEXTSTYLE0
 73
     1
 44
1.0
  0
MTEXT
  5
12B
330
73
100
AcDbEntity
  8
0
  6
Continuous
 62
     7
370
     0
100
AcDbMText
 10
16.1956571739
 20
79.5615822448
 30
0.0
 40
3.0
 41
0.0
 71
     1
 72
     1
  1
Q
  7
SLDTEXTSTYLE0
 73
     1
 44
1.0
  0
MTEXT
  5
12C
330
73
100
AcDbEntity
  8
0
  6
Continuous
 62
     7
370
     0
100
AcDbMText
 10
16.2934832609
 20
33.9504711348
 30
0.0
 40
3.0
 41
0.0
 71
     1
 72
     1
  1
R
  7
SLDTEXTSTYLE0
 73
     1
 44
1.0
  0
MTEXT
  5
12D
330
73
100
AcDbEntity
  8
0
  6
Continuous
 62
     7
370
     0
100
AcDbMText
 10
1180.3587006522
 20
809.3393600048
 30
0.0
 40
3.0
 41
0.0
 71
     1
 72
     1
  1
A
  7
SLDTEXTSTYLE0
 73
     1
 44
1.0
  0
MTEXT
  5
12E
330
73
100
AcDbEntity
  8
0
  6
Continuous
 62
     7
370
     0
100
AcDbMText
 10
1180.3587006522
 20
763.7282488948
 30
0.0
 40
3.0
 41
0.0
 71
     1
 72
     1
  1
B
  7
SLDTEXTSTYLE0
 73
     1
 44
1.0
  0
MTEXT
  5
12F
330
73
100
AcDbEntity
  8
0
  6
Continuous
 62
     7
370
     0
100
AcDbMText
 10
1180.2934832609
 20
718.1171377848
 30
0.0
 40
3.0
 41
0.0
 71
     1
 72
     1
  1
C
  7
SLDTEXTSTYLE0
 73
     1
 44
1.0
  0
MTEXT
  5
130
330
73
100
AcDbEntity
  8
0
  6
Continuous
 62
     7
370
     0
100
AcDbMText
 10
1180.2934832609
 20
672.5060266748
 30
0.0
 40
3.0
 41
0.0
 71
     1
 72
     1
  1
D
  7
SLDTEXTSTYLE0
 73
     1
 44
1.0
  0
MTEXT
  5
131
330
73
100
AcDbEntity
  8
0
  6
Continuous
 62
     7
370
     0
100
AcDbMText
 10
1180.3587006522
 20
626.8949155648
 30
0.0
 40
3.0
 41
0.0
 71
     1
 72
     1
  1
E
  7
SLDTEXTSTYLE0
 73
     1
 44
1.0
  0
MTEXT
  5
132
330
73
100
AcDbEntity
  8
0
  6
Continuous
 62
     7
370
     0
100
AcDbMText
 10
1180.4565267391
 20
581.2838044548
 30
0.0
 40
3.0
 41
0.0
 71
     1
 72
     1
  1
F
  7
SLDTEXTSTYLE0
 73
     1
 44
1.0
  0
MTEXT
  5
133
330
73
100
AcDbEntity
  8
0
  6
Continuous
 62
     7
370
     0
100
AcDbMText
 10
1180.1956571739
 20
535.6726933448
 30
0.0
 40
3.0
 41
0.0
 71
     1
 72
     1
  1
G
  7
SLDTEXTSTYLE0
 73
     1
 44
1.0
  0
MTEXT
  5
134
330
73
100
AcDbEntity
  8
0
  6
Continuous
 62
     7
370
     0
100
AcDbMText
 10
1180.2934832609
 20
490.0615822348
 30
0.0
 40
3.0
 41
0.0
 71
     1
 72
     1
  1
H
  7
SLDTEXTSTYLE0
 73
     1
 44
1.0
  0
MTEXT
  5
135
330
73
100
AcDbEntity
  8
0
  6
Continuous
 62
     7
370
     0
100
AcDbMText
 10
1181.0434832609
 20
444.4504711248
 30
0.0
 40
3.0
 41
0.0
 71
     1
 72
     1
  1
I
  7
SLDTEXTSTYLE0
 73
     1
 44
1.0
  0
MTEXT
  5
136
330
73
100
AcDbEntity
  8
0
  6
Continuous
 62
     7
370
     0
100
AcDbMText
 10
1180.652178913
 20
398.8393600148
 30
0.0
 40
3.0
 41
0.0
 71
     1
 72
     1
  1
J
  7
SLDTEXTSTYLE0
 73
     1
 44
1.0
  0
MTEXT
  5
137
330
73
100
AcDbEntity
  8
0
  6
Continuous
 62
     7
370
     0
100
AcDbMText
 10
1180.3587006522
 20
353.2282489048
 30
0.0
 40
3.0
 41
0.0
 71
     1
 72
     1
  1
K
  7
SLDTEXTSTYLE0
 73
     1
 44
1.0
  0
MTEXT
  5
138
330
73
100
AcDbEntity
  8
0
  6
Continuous
 62
     7
370
     0
100
AcDbMText
 10
1180.5543528261
 20
307.6171377948
 30
0.0
 40
3.0
 41
0.0
 71
     1
 72
     1
  1
L
  7
SLDTEXTSTYLE0
 73
     1
 44
1.0
  0
MTEXT
  5
139
330
73
100
AcDbEntity
  8
0
  6
Continuous
 62
     7
370
     0
100
AcDbMText
 10
1180.097831087
 20
262.0060266848
 30
0.0
 40
3.0
 41
0.0
 71
     1
 72
     1
  1
M
  7
SLDTEXTSTYLE0
 73
     1
 44
1.0
  0
MTEXT
  5
13A
330
73
100
AcDbEntity
  8
0
  6
Continuous
 62
     7
370
     0
100
AcDbMText
 10
1180.2934832609
 20
216.3949155748
 30
0.0
 40
3.0
 41
0.0
 71
     1
 72
     1
  1
N
  7
SLDTEXTSTYLE0
 73
     1
 44
1.0
  0
MTEXT
  5
13B
330
73
100
AcDbEntity
  8
0
  6
Continuous
 62
     7
370
     0
100
AcDbMText
 10
1180.1956571739
 20
170.7838044648
 30
0.0
 40
3.0
 41
0.0
 71
     1
 72
     1
  1
O
  7
SLDTEXTSTYLE0
 73
     1
 44
1.0
  0
MTEXT
  5
13C
330
73
100
AcDbEntity
  8
0
  6
Continuous
 62
     7
370
     0
100
AcDbMText
 10
1180.3587006522
 20
125.1726933548
 30
0.0
 40
3.0
 41
0.0
 71
     1
 72
     1
  1
P
  7
SLDTEXTSTYLE0
 73
     1
 44
1.0
  0
MTEXT
  5
13D
330
73
100
AcDbEntity
  8
0
  6
Continuous
 62
     7
370
     0
100
AcDbMText
 10
1180.1956571739
 20
79.5615822448
 30
0.0
 40
3.0
 41
0.0
 71
     1
 72
     1
  1
Q
  7
SLDTEXTSTYLE0
 73
     1
 44
1.0
  0
MTEXT
  5
13E
330
73
100
AcDbEntity
  8
0
  6
Continuous
 62
     7
370
     0
100
AcDbMText
 10
1180.2934832609
 20
33.9504711348
 30
0.0
 40
3.0
 41
0.0
 71
     1
 72
     1
  1
R
  7
SLDTEXTSTYLE0
 73
     1
 44
1.0
  0
MTEXT
  5
13F
330
73
100
AcDbEntity
  8
0
  6
Continuous
 62
     7
370
     0
100
AcDbMText
 10
43.2001861591
 20
8.6449155598
 30
0.0
 40
3.0
 41
0.0
 71
     1
 72
     1
  1
1
  7
SLDTEXTSTYLE0
 73
     1
 44
1.0
  0
MTEXT
  5
140
330
73
100
AcDbEntity
  8
0
  6
Continuous
 62
     7
370
     0
100
AcDbMText
 10
91.4918528251
 20
8.6449155598
 30
0.0
 40
3.0
 41
0.0
 71
     1
 72
     1
  1
2
  7
SLDTEXTSTYLE0
 73
     1
 44
1.0
  0
MTEXT
  5
141
330
73
100
AcDbEntity
  8
0
  6
Continuous
 62
     7
370
     0
100
AcDbMText
 10
139.7835194911
 20
8.6449155598
 30
0.0
 40
3.0
 41
0.0
 71
     1
 72
     1
  1
3
  7
SLDTEXTSTYLE0
 73
     1
 44
1.0
  0
MTEXT
  5
142
330
73
100
AcDbEntity
  8
0
  6
Continuous
 62
     7
370
     0
100
AcDbMText
 10
188.0751861571
 20
8.6449155598
 30
0.0
 40
3.0
 41
0.0
 71
     1
 72
     1
  1
4
  7
SLDTEXTSTYLE0
 73
     1
 44
1.0
  0
MTEXT
  5
143
330
73
100
AcDbEntity
  8
0
  6
Continuous
 62
     7
370
     0
100
AcDbMText
 10
236.3668528231
 20
8.6449155598
 30
0.0
 40
3.0
 41
0.0
 71
     1
 72
     1
  1
5
  7
SLDTEXTSTYLE0
 73
     1
 44
1.0
  0
MTEXT
  5
144
330
73
100
AcDbEntity
  8
0
  6
Continuous
 62
     7
370
     0
100
AcDbMText
 10
284.6585194891
 20
8.6449155598
 30
0.0
 40
3.0
 41
0.0
 71
     1
 72
     1
  1
6
  7
SLDTEXTSTYLE0
 73
     1
 44
1.0
  0
MTEXT
  5
145
330
73
100
AcDbEntity
  8
0
  6
Continuous
 62
     7
370
     0
100
AcDbMText
 10
332.9501861551
 20
8.6449155598
 30
0.0
 40
3.0
 41
0.0
 71
     1
 72
     1
  1
7
  7
SLDTEXTSTYLE0
 73
     1
 44
1.0
  0
MTEXT
  5
146
330
73
100
AcDbEntity
  8
0
  6
Continuous
 62
     7
370
     0
100
AcDbMText
 10
381.2418528211
 20
8.6449155598
 30
0.0
 40
3.0
 41
0.0
 71
     1
 72
     1
  1
8
  7
SLDTEXTSTYLE0
 73
     1
 44
1.0
  0
MTEXT
  5
147
330
73
100
AcDbEntity
  8
0
  6
Continuous
 62
     7
370
     0
100
AcDbMText
 10
429.5335194871
 20
8.6449155598
 30
0.0
 40
3.0
 41
0.0
 71
     1
 72
     1
  1
9
  7
SLDTEXTSTYLE0
 73
     1
 44
1.0
  0
MTEXT
  5
148
330
73
100
AcDbEntity
  8
0
  6
Continuous
 62
     7
370
     0
100
AcDbMText
 10
476.8795339792
 20
8.6449155598
 30
0.0
 40
3.0
 41
0.0
 71
     1
 72
     1
  1
10
  7
SLDTEXTSTYLE0
 73
     1
 44
1.0
  0
MTEXT
  5
149
330
73
100
AcDbEntity
  8
0
  6
Continuous
 62
     7
370
     0
100
AcDbMText
 10
525.1712006452
 20
8.6449155598
 30
0.0
 40
3.0
 41
0.0
 71
     1
 72
     1
  1
11
  7
SLDTEXTSTYLE0
 73
     1
 44
1.0
  0
MTEXT
  5
14A
330
73
100
AcDbEntity
  8
0
  6
Continuous
 62
     7
370
     0
100
AcDbMText
 10
573.4628673112
 20
8.6449155598
 30
0.0
 40
3.0
 41
0.0
 71
     1
 72
     1
  1
12
  7
SLDTEXTSTYLE0
 73
     1
 44
1.0
  0
MTEXT
  5
14B
330
73
100
AcDbEntity
  8
0
  6
Continuous
 62
     7
370
     0
100
AcDbMText
 10
621.7545339772
 20
8.6449155598
 30
0.0
 40
3.0
 41
0.0
 71
     1
 72
     1
  1
13
  7
SLDTEXTSTYLE0
 73
     1
 44
1.0
  0
MTEXT
  5
14C
330
73
100
AcDbEntity
  8
0
  6
Continuous
 62
     7
370
     0
100
AcDbMText
 10
670.0462006432
 20
8.6449155598
 30
0.0
 40
3.0
 41
0.0
 71
     1
 72
     1
  1
14
  7
SLDTEXTSTYLE0
 73
     1
 44
1.0
  0
MTEXT
  5
14D
330
73
100
AcDbEntity
  8
0
  6
Continuous
 62
     7
370
     0
100
AcDbMText
 10
718.3378673092
 20
8.6449155598
 30
0.0
 40
3.0
 41
0.0
 71
     1
 72
     1
  1
15
  7
SLDTEXTSTYLE0
 73
     1
 44
1.0
  0
MTEXT
  5
14E
330
73
100
AcDbEntity
  8
0
  6
Continuous
 62
     7
370
     0
100
AcDbMText
 10
761.6295339752
 20
8.6449155598
 30
0.0
 40
3.0
 41
0.0
 71
     1
 72
     1
  1
16
  7
SLDTEXTSTYLE0
 73
     1
 44
1.0
  0
MTEXT
  5
14F
330
73
100
AcDbEntity
  8
0
  6
Continuous
 62
     7
370
     0
100
AcDbMText
 10
814.9212006412
 20
8.6449155598
 30
0.0
 40
3.0
 41
0.0
 71
     1
 72
     1
  1
17
  7
SLDTEXTSTYLE0
 73
     1
 44
1.0
  0
MTEXT
  5
150
330
73
100
AcDbEntity
  8
0
  6
Continuous
 62
     7
370
     0
100
AcDbMText
 10
863.2128673072
 20
8.6449155598
 30
0.0
 40
3.0
 41
0.0
 71
     1
 72
     1
  1
18
  7
SLDTEXTSTYLE0
 73
     1
 44
1.0
  0
MTEXT
  5
151
330
73
100
AcDbEntity
  8
0
  6
Continuous
 62
     7
370
     0
100
AcDbMText
 10
911.5045339732
 20
8.6449155598
 30
0.0
 40
3.0
 41
0.0
 71
     1
 72
     1
  1
19
  7
SLDTEXTSTYLE0
 73
     1
 44
1.0
  0
MTEXT
  5
152
330
73
100
AcDbEntity
  8
0
  6
Continuous
 62
     7
370
     0
100
AcDbMText
 10
959.7962006392
 20
8.6449155598
 30
0.0
 40
3.0
 41
0.0
 71
     1
 72
     1
  1
20
  7
SLDTEXTSTYLE0
 73
     1
 44
1.0
  0
MTEXT
  5
153
330
73
100
AcDbEntity
  8
0
  6
Continuous
 62
     7
370
     0
100
AcDbMText
 10
1008.0878673052
 20
8.6449155598
 30
0.0
 40
3.0
 41
0.0
 71
     1
 72
     1
  1
21
  7
SLDTEXTSTYLE0
 73
     1
 44
1.0
  0
MTEXT
  5
154
330
73
100
AcDbEntity
  8
0
  6
Continuous
 62
     7
370
     0
100
AcDbMText
 10
1056.3795339712
 20
8.6449155598
 30
0.0
 40
3.0
 41
0.0
 71
     1
 72
     1
  1
22
  7
SLDTEXTSTYLE0
 73
     1
 44
1.0
  0
MTEXT
  5
156
330
73
100
AcDbEntity
  8
0
  6
Continuous
 62
     7
370
     0
100
AcDbMText
 10
1003.527178913
 20
7.389386302
 30
0.0
 40
1.5
 41
0.0
 71
     1
 72
     1
  1
1
  7
SLDTEXTSTYLE1
 73
     1
 44
1.0
  0
MTEXT
  5
157
330
73
100
AcDbEntity
  8
0
  6
Continuous
 62
     7
370
     0
100
AcDbMText
 10
633.527178913
 20
7.389386302
 30
0.0
 40
1.5
 41
0.0
 71
     1
 72
     1
  1
2
  7
SLDTEXTSTYLE1
 73
     1
 44
1.0
  0
MTEXT
  5
158
330
73
100
AcDbEntity
  8
0
  6
Continuous
 62
     7
370
     0
100
AcDbMText
 10
329.027178913
 20
7.389386302
 30
0.0
 40
1.5
 41
0.0
 71
     1
 72
     1
  1
4
  7
SLDTEXTSTYLE1
 73
     1
 44
1.0
  0
MTEXT
  5
159
330
73
100
AcDbEntity
  8
0
  6
Continuous
 62
     7
370
     0
100
AcDbMText
 10
263.527178913
 20
7.389386302
 30
0.0
 40
1.5
 41
0.0
 71
     1
 72
     1
  1
3
  7
SLDTEXTSTYLE1
 73
     1
 44
1.0
  0
MTEXT
  5
15A
330
73
100
AcDbEntity
  8
0
  6
Continuous
 62
     7
370
     0
100
AcDbMText
 10
1003.527178913
 20
835.1028068642
 30
0.0
 40
1.5
 41
0.0
 71
     1
 72
     1
  1
1
  7
SLDTEXTSTYLE1
 73
     1
 44
1.0
  0
MTEXT
  5
15B
330
73
100
AcDbEntity
  8
0
  6
Continuous
 62
     7
370
     0
100
AcDbMText
 10
633.527178913
 20
835.1028068642
 30
0.0
 40
1.5
 41
0.0
 71
     1
 72
     1
  1
2
  7
SLDTEXTSTYLE1
 73
     1
 44
1.0
  0
MTEXT
  5
15C
330
73
100
AcDbEntity
  8
0
  6
Continuous
 62
     7
370
     0
100
AcDbMText
 10
263.527178913
 20
835.1028068642
 30
0.0
 40
1.5
 41
0.0
 71
     1
 72
     1
  1
3
  7
SLDTEXTSTYLE1
 73
     1
 44
1.0
  0
MTEXT
  5
15D
330
73
100
AcDbEntity
  8
0
  6
Continuous
 62
     7
370
     0
100
AcDbMText
 10
329.027178913
 20
835.1028068642
 30
0.0
 40
1.5
 41
0.0
 71
     1
 72
     1
  1
4
  7
SLDTEXTSTYLE1
 73
     1
 44
1.0
  0
ENDBLK
  5
75
330
73
100
AcDbEntity
  8
0
100
AcDbBlockEnd
  0
BLOCK
  5
15F
330
15E
100
AcDbEntity
  8
0
100
AcDbBlockBegin
  2
ISO2768
 70
     0
 10
0.0
 20
0.0
 30
0.0
  3
ISO2768
  1

  0
LINE
  5
161
330
15E
100
AcDbEntity
  8
0
  6
Continuous
 62
     7
370
     0
100
AcDbLine
 10
-25.0
 20
0.0
 30
0.0
 11
-25.0
 21
-20.0
 31
0.0
  0
LINE
  5
162
330
15E
100
AcDbEntity
  8
0
  6
Continuous
 62
     7
370
     0
100
AcDbLine
 10
-50.0
 20
0.0
 30
0.0
 11
-50.0
 21
-20.0
 31
0.0
  0
LINE
  5
163
330
15E
100
AcDbEntity
  8
0
  6
Continuous
 62
     7
370
     0
100
AcDbLine
 10
-75.0
 20
0.0
 30
0.0
 11
-75.0
 21
-20.0
 31
0.0
  0
LINE
  5
164
330
15E
100
AcDbEntity
  8
0
  6
Continuous
 62
     7
370
     0
100
AcDbLine
 10
-95.0
 20
0.0
 30
0.0
 11
-95.0
 21
-20.0
 31
0.0
  0
LINE
  5
165
330
15E
100
AcDbEntity
  8
0
  6
Continuous
 62
     7
370
     0
100
AcDbLine
 10
-115.0
 20
0.0
 30
0.0
 11
-115.0
 21
-20.0
 31
0.0
  0
LINE
  5
166
330
15E
100
AcDbEntity
  8
0
  6
Continuous
 62
     7
370
     0
100
AcDbLine
 10
-130.0
 20
0.0
 30
0.0
 11
-130.0
 21
-20.0
 31
0.0
  0
LINE
  5
167
330
15E
100
AcDbEntity
  8
0
  6
Continuous
 62
     7
370
     0
100
AcDbLine
 10
-145.0
 20
0.0
 30
0.0
 11
-145.0
 21
-20.0
 31
0.0
  0
LINE
  5
168
330
15E
100
AcDbEntity
  8
0
  6
Continuous
 62
     7
370
     0
100
AcDbLine
 10
-155.0
 20
-4.0
 30
0.0
 11
-155.0
 21
-20.0
 31
0.0
  0
LINE
  5
169
330
15E
100
AcDbEntity
  8
0
  6
Continuous
 62
     7
370
     0
100
AcDbLine
 10
-175.0
 20
-16.0
 30
0.0
 11
0.0
 21
-16.0
 31
0.0
  0
LINE
  5
16A
330
15E
100
AcDbEntity
  8
0
  6
Continuous
 62
     7
370
     0
100
AcDbLine
 10
-175.0
 20
-12.0
 30
0.0
 11
0.0
 21
-12.0
 31
0.0
  0
LINE
  5
16B
330
15E
100
AcDbEntity
  8
0
  6
Continuous
 62
     7
370
     0
100
AcDbLine
 10
-175.0
 20
-8.0
 30
0.0
 11
0.0
 21
-8.0
 31
0.0
  0
LINE
  5
16C
330
15E
100
AcDbEntity
  8
0
  6
Continuous
 62
     7
370
     0
100
AcDbLine
 10
-175.0
 20
-4.0
 30
0.0
 11
0.0
 21
-4.0
 31
0.0
  0
LINE
  5
16D
330
15E
100
AcDbEntity
  8
0
  6
Continuous
 62
     7
370
     0
100
AcDbLine
 10
-175.0
 20
0.0
 30
0.0
 11
-175.0
 21
-20.0
 31
0.0
  0
LINE
  5
16E
330
15E
100
AcDbEntity
  8
0
  6
Continuous
 62
     7
370
     0
100
AcDbLine
 10
-180.0
 20
-20.0
 30
0.0
 11
-180.0
 21
0.0
 31
0.0
  0
LINE
  5
16F
330
15E
100
AcDbEntity
  8
0
  6
Continuous
 62
     7
370
     0
100
AcDbLine
 10
0.0
 20
-20.0
 30
0.0
 11
-180.0
 21
-20.0
 31
0.0
  0
LINE
  5
170
330
15E
100
AcDbEntity
  8
0
  6
Continuous
 62
     7
370
     0
100
AcDbLine
 10
0.0
 20
0.0
 30
0.0
 11
0.0
 21
-20.0
 31
0.0
  0
LINE
  5
171
330
15E
100
AcDbEntity
  8
0
  6
Continuous
 62
     7
370
     0
100
AcDbLine
 10
-180.0
 20
0.0
 30
0.0
 11
0.0
 21
0.0
 31
0.0
  0
MTEXT
  5
173
330
15E
100
AcDbEntity
  8
0
  6
Continuous
 62
   179
370
     0
100
AcDbMText
 10
-152.1594291518
 20
-12.9932672184
 30
0.0
 40
2.5
 41
0.0
 71
     1
 72
     1
  1
(c)
  7
SLDTEXTSTYLE2
 73
     1
 44
1.0
  0
MTEXT
  5
174
330
15E
100
AcDbEntity
  8
0
  6
Continuous
 62
   179
370
     0
100
AcDbMText
 10
-14.4385313988
 20
-13.1021223902
 30
0.0
 40
2.5
 41
0.0
 71
     1
 72
     1
  1
±4
  7
SLDTEXTSTYLE2
 73
     1
 44
1.0
  0
MTEXT
  5
175
330
15E
100
AcDbEntity
  8
0
  6
Continuous
 62
   179
370
     0
100
AcDbMText
 10
-14.4385313988
 20
-17.1021223902
 30
0.0
 40
2.5
 41
0.0
 71
     1
 72
     1
  1
±8
  7
SLDTEXTSTYLE2
 73
     1
 44
1.0
  0
MTEXT
  5
176
330
15E
100
AcDbEntity
  8
0
  6
Continuous
 62
   179
370
     0
100
AcDbMText
 10
-23.8407053118
 20
-1.1021223902
 30
0.0
 40
2.5
 41
0.0
 71
     1
 72
     1
  1
>2000 <=4000
  7
SLDTEXTSTYLE2
 73
     1
 44
1.0
  0
MTEXT
  5
177
330
15E
100
AcDbEntity
  8
0
  6
Continuous
 62
   179
370
     0
100
AcDbMText
 10
-13.0798357466
 20
-5.1021223902
 30
0.0
 40
2.5
 41
0.0
 71
     1
 72
     1
  1
-
  7
SLDTEXTSTYLE2
 73
     1
 44
1.0
  0
MTEXT
  5
178
330
15E
100
AcDbEntity
  8
0
  6
Continuous
 62
   179
370
     0
100
AcDbMText
 10
-14.4385313988
 20
-9.1021223902
 30
0.0
 40
2.5
 41
0.0
 71
     1
 72
     1
  1
±2
  7
SLDTEXTSTYLE2
 73
     1
 44
1.0
  0
MTEXT
  5
179
330
15E
100
AcDbEntity
  8
0
  6
Continuous
 62
   179
370
     0
100
AcDbMText
 10
-39.4385313988
 20
-17.1021223902
 30
0.0
 40
2.5
 41
0.0
 71
     1
 72
     1
  1
±6
  7
SLDTEXTSTYLE2
 73
     1
 44
1.0
  0
MTEXT
  5
17A
330
15E
100
AcDbEntity
  8
0
  6
Continuous
 62
   179
370
     0
100
AcDbMText
 10
-39.4385313988
 20
-13.1021223902
 30
0.0
 40
2.5
 41
0.0
 71
     1
 72
     1
  1
±3
  7
SLDTEXTSTYLE2
 73
     1
 44
1.0
  0
MTEXT
  5
17B
330
15E
100
AcDbEntity
  8
0
  6
Continuous
 62
   179
370
     0
100
AcDbMText
 10
-72.8624444423
 20
-1.1021223902
 30
0.0
 40
2.5
 41
0.0
 71
     1
 72
     1
  1
>400 <=1000
  7
SLDTEXTSTYLE2
 73
     1
 44
1.0
  0
MTEXT
  5
17C
330
15E
100
AcDbEntity
  8
0
  6
Continuous
 62
   179
370
     0
100
AcDbMText
 10
-40.9059227031
 20
-9.1021223902
 30
0.0
 40
2.5
 41
0.0
 71
     1
 72
     1
  1
±1.2
  7
SLDTEXTSTYLE2
 73
     1
 44
1.0
  0
MTEXT
  5
17D
330
15E
100
AcDbEntity
  8
0
  6
Continuous
 62
   179
370
     0
100
AcDbMText
 10
-40.9059227031
 20
-5.1021223902
 30
0.0
 40
2.5
 41
0.0
 71
     1
 72
     1
  1
±0.5
  7
SLDTEXTSTYLE2
 73
     1
 44
1.0
  0
MTEXT
  5
17E
330
15E
100
AcDbEntity
  8
0
  6
Continuous
 62
   179
370
     0
100
AcDbMText
 10
-64.4385313988
 20
-17.1021223902
 30
0.0
 40
2.5
 41
0.0
 71
     1
 72
     1
  1
±4
  7
SLDTEXTSTYLE2
 73
     1
 44
1.0
  0
MTEXT
  5
17F
330
15E
100
AcDbEntity
  8
0
  6
Continuous
 62
   179
370
     0
100
AcDbMText
 10
-48.8407053118
 20
-1.1021223902
 30
0.0
 40
2.5
 41
0.0
 71
     1
 72
     1
  1
>1000 <=2000
  7
SLDTEXTSTYLE2
 73
     1
 44
1.0
  0
MTEXT
  5
180
330
15E
100
AcDbEntity
  8
0
  6
Continuous
 62
   179
370
     0
100
AcDbMText
 10
-64.4385313988
 20
-13.1021223902
 30
0.0
 40
2.5
 41
0.0
 71
     1
 72
     1
  1
±2
  7
SLDTEXTSTYLE2
 73
     1
 44
1.0
  0
MTEXT
  5
181
330
15E
100
AcDbEntity
  8
0
  6
Continuous
 62
   179
370
     0
100
AcDbMText
 10
-65.9059227031
 20
-9.1021223902
 30
0.0
 40
2.5
 41
0.0
 71
     1
 72
     1
  1
±0.8
  7
SLDTEXTSTYLE2
 73
     1
 44
1.0
  0
MTEXT
  5
182
330
15E
100
AcDbEntity
  8
0
  6
Continuous
 62
   179
370
     0
100
AcDbMText
 10
-88.4059227031
 20
-9.1021223902
 30
0.0
 40
2.5
 41
0.0
 71
     1
 72
     1
  1
±0.5
  7
SLDTEXTSTYLE2
 73
     1
 44
1.0
  0
MTEXT
  5
183
330
15E
100
AcDbEntity
  8
0
  6
Continuous
 62
   179
370
     0
100
AcDbMText
 10
-108.4059227031
 20
-9.1021223902
 30
0.0
 40
2.5
 41
0.0
 71
     1
 72
     1
  1
±0.3
  7
SLDTEXTSTYLE2
 73
     1
 44
1.0
  0
MTEXT
  5
184
330
15E
100
AcDbEntity
  8
0
  6
Continuous
 62
   179
370
     0
100
AcDbMText
 10
-88.4059227031
 20
-5.1021223902
 30
0.0
 40
2.5
 41
0.0
 71
     1
 72
     1
  1
±0.2
  7
SLDTEXTSTYLE2
 73
     1
 44
1.0
  0
MTEXT
  5
185
330
15E
100
AcDbEntity
  8
0
  6
Continuous
 62
   179
370
     0
100
AcDbMText
 10
-108.4059227031
 20
-17.1021223902
 30
0.0
 40
2.5
 41
0.0
 71
     1
 72
     1
  1
±1.5
  7
SLDTEXTSTYLE2
 73
     1
 44
1.0
  0
MTEXT
  5
186
330
15E
100
AcDbEntity
  8
0
  6
Continuous
 62
   179
370
     0
100
AcDbMText
 10
-65.9059227031
 20
-5.1021223902
 30
0.0
 40
2.5
 41
0.0
 71
     1
 72
     1
  1
±0.3
  7
SLDTEXTSTYLE2
 73
     1
 44
1.0
  0
MTEXT
  5
187
330
15E
100
AcDbEntity
  8
0
  6
Continuous
 62
   179
370
     0
100
AcDbMText
 10
-88.4059227031
 20
-17.1021223902
 30
0.0
 40
2.5
 41
0.0
 71
     1
 72
     1
  1
±2.5
  7
SLDTEXTSTYLE2
 73
     1
 44
1.0
  0
MTEXT
  5
188
330
15E
100
AcDbEntity
  8
0
  6
Continuous
 62
   179
370
     0
100
AcDbMText
 10
-94.3841835727
 20
-1.1021223902
 30
0.0
 40
2.5
 41
0.0
 71
     1
 72
     1
  1
>120 <=400
  7
SLDTEXTSTYLE2
 73
     1
 44
1.0
  0
MTEXT
  5
189
330
15E
100
AcDbEntity
  8
0
  6
Continuous
 62
   179
370
     0
100
AcDbMText
 10
-88.4059227031
 20
-13.1021223902
 30
0.0
 40
2.5
 41
0.0
 71
     1
 72
     1
  1
±1.2
  7
SLDTEXTSTYLE2
 73
     1
 44
1.0
  0
MTEXT
  5
18A
330
15E
100
AcDbEntity
  8
0
  6
Continuous
 62
   179
370
     0
100
AcDbMText
 10
-109.3841835727
 20
-5.1021223902
 30
0.0
 40
2.5
 41
0.0
 71
     1
 72
     1
  1
±0.15
  7
SLDTEXTSTYLE2
 73
     1
 44
1.0
  0
MTEXT
  5
18B
330
15E
100
AcDbEntity
  8
0
  6
Continuous
 62
   179
370
     0
100
AcDbMText
 10
-113.4059227031
 20
-1.1021223902
 30
0.0
 40
2.5
 41
0.0
 71
     1
 72
     1
  1
>30 <=120
  7
SLDTEXTSTYLE2
 73
     1
 44
1.0
  0
MTEXT
  5
18C
330
15E
100
AcDbEntity
  8
0
  6
Continuous
 62
   179
370
     0
100
AcDbMText
 10
-124.4385313988
 20
-17.1021223902
 30
0.0
 40
2.5
 41
0.0
 71
     1
 72
     1
  1
±1
  7
SLDTEXTSTYLE2
 73
     1
 44
1.0
  0
MTEXT
  5
18D
330
15E
100
AcDbEntity
  8
0
  6
Continuous
 62
   179
370
     0
100
AcDbMText
 10
-125.9059227031
 20
-9.1021223902
 30
0.0
 40
2.5
 41
0.0
 71
     1
 72
     1
  1
±0.2
  7
SLDTEXTSTYLE2
 73
     1
 44
1.0
  0
MTEXT
  5
18E
330
15E
100
AcDbEntity
  8
0
  6
Continuous
 62
   179
370
     0
100
AcDbMText
 10
-108.4059227031
 20
-13.1021223902
 30
0.0
 40
2.5
 41
0.0
 71
     1
 72
     1
  1
±0.8
  7
SLDTEXTSTYLE2
 73
     1
 44
1.0
  0
MTEXT
  5
18F
330
15E
100
AcDbEntity
  8
0
  6
Continuous
 62
   179
370
     0
100
AcDbMText
 10
-125.9059227031
 20
-5.1021223902
 30
0.0
 40
2.5
 41
0.0
 71
     1
 72
     1
  1
±0.1
  7
SLDTEXTSTYLE2
 73
     1
 44
1.0
  0
MTEXT
  5
190
330
15E
100
AcDbEntity
  8
0
  6
Continuous
 62
   179
370
     0
100
AcDbMText
 10
-128.949400964
 20
-1.1021223902
 30
0.0
 40
2.5
 41
0.0
 71
     1
 72
     1
  1
>6 <=30
  7
SLDTEXTSTYLE2
 73
     1
 44
1.0
  0
MTEXT
  5
191
330
15E
100
AcDbEntity
  8
0
  6
Continuous
 62
   179
370
     0
100
AcDbMText
 10
-140.4983140075
 20
-1.1021223902
 30
0.0
 40
2.5
 41
0.0
 71
     1
 72
     1
  1
<=6
  7
SLDTEXTSTYLE2
 73
     1
 44
1.0
  0
MTEXT
  5
192
330
15E
100
AcDbEntity
  8
0
  6
Continuous
 62
   179
370
     0
100
AcDbMText
 10
-125.9059227031
 20
-13.1021223902
 30
0.0
 40
2.5
 41
0.0
 71
     1
 72
     1
  1
±0.5
  7
SLDTEXTSTYLE2
 73
     1
 44
1.0
  0
MTEXT
  5
193
330
15E
100
AcDbEntity
  8
0
  6
Continuous
 62
   179
370
     0
100
AcDbMText
 10
-140.9059227031
 20
-9.1021223902
 30
0.0
 40
2.5
 41
0.0
 71
     1
 72
     1
  1
±0.1
  7
SLDTEXTSTYLE2
 73
     1
 44
1.0
  0
MTEXT
  5
194
330
15E
100
AcDbEntity
  8
0
  6
Continuous
 62
   179
370
     0
100
AcDbMText
 10
-140.9059227031
 20
-17.1021223902
 30
0.0
 40
2.5
 41
0.0
 71
     1
 72
     1
  1
±0.5
  7
SLDTEXTSTYLE2
 73
     1
 44
1.0
  0
MTEXT
  5
195
330
15E
100
AcDbEntity
  8
0
  6
Continuous
 62
   179
370
     0
100
AcDbMText
 10
-140.9059227031
 20
-13.1021223902
 30
0.0
 40
2.5
 41
0.0
 71
     1
 72
     1
  1
±0.3
  7
SLDTEXTSTYLE2
 73
     1
 44
1.0
  0
MTEXT
  5
196
330
15E
100
AcDbEntity
  8
0
  6
Continuous
 62
   179
370
     0
100
AcDbMText
 10
-141.8841835727
 20
-5.1021223902
 30
0.0
 40
2.5
 41
0.0
 71
     1
 72
     1
  1
±0.05
  7
SLDTEXTSTYLE2
 73
     1
 44
1.0
  0
MTEXT
  5
197
330
15E
100
AcDbEntity
  8
0
  6
Continuous
 62
   179
370
     0
100
AcDbMText
 10
-174.7485158139
 20
-8.9932672184
 30
0.0
 40
2.5
 41
0.0
 71
     1
 72
     1
  1
Medium
  7
SLDTEXTSTYLE2
 73
     1
 44
1.0
  0
MTEXT
  5
198
330
15E
100
AcDbEntity
  8
0
  6
Continuous
 62
   179
370
     0
100
AcDbMText
 10
-174.7485158139
 20
-12.9932672184
 30
0.0
 40
2.5
 41
0.0
 71
     1
 72
     1
  1
Coarse
  7
SLDTEXTSTYLE2
 73
     1
 44
1.0
  0
MTEXT
  5
199
330
15E
100
AcDbEntity
  8
0
  6
Continuous
 62
   179
370
     0
100
AcDbMText
 10
-151.7789943692
 20
-4.9932672184
 30
0.0
 40
2.5
 41
0.0
 71
     1
 72
     1
  1
(f)
  7
SLDTEXTSTYLE2
 73
     1
 44
1.0
  0
MTEXT
  5
19A
330
15E
100
AcDbEntity
  8
0
  6
Continuous
 62
   179
370
     0
100
AcDbMText
 10
-152.7844291518
 20
-8.9932672184
 30
0.0
 40
2.5
 41
0.0
 71
     1
 72
     1
  1
(m)
  7
SLDTEXTSTYLE2
 73
     1
 44
1.0
  0
MTEXT
  5
19B
330
15E
100
AcDbEntity
  8
0
  6
Continuous
 62
   179
370
     0
100
AcDbMText
 10
-152.1866030649
 20
-16.9932672184
 30
0.0
 40
2.5
 41
0.0
 71
     1
 72
     1
  1
(v)
  7
SLDTEXTSTYLE2
 73
     1
 44
1.0
  0
MTEXT
  5
19C
330
15E
100
AcDbEntity
  8
0
  6
Continuous
 62
   179
370
     0
100
AcDbMText
 10
-174.7485158139
 20
-16.9932672184
 30
0.0
 40
2.5
 41
0.0
 71
     1
 72
     1
  1
Very Coarse
  7
SLDTEXTSTYLE2
 73
     1
 44
1.0
  0
MTEXT
  5
19D
330
15E
100
AcDbEntity
  8
0
  6
Continuous
 62
   179
370
     0
100
AcDbMText
 10
-178.6122169322
 20
-18.8727771349
 30
0.0
 40
2.5
 41
0.0
 71
     1
 72
     1
  1
ISO 2768
  7
SLDTEXTSTYLE2
 11
6.123233995736766E-17
 21
1.0
 31
0.0
 73
     1
 44
1.0
  0
MTEXT
  5
19E
330
15E
100
AcDbEntity
  8
0
  6
Continuous
 62
   179
370
     0
100
AcDbMText
 10
-174.565631434
 20
-0.9932672184
 30
0.0
 40
2.5
 41
0.0
 71
     1
 72
     1
  1
Tolerance Class
  7
SLDTEXTSTYLE2
 73
     1
 44
1.0
  0
MTEXT
  5
19F
330
15E
100
AcDbEntity
  8
0
  6
Continuous
 62
   179
370
     0
100
AcDbMText
 10
-174.7485158139
 20
-4.9932672184
 30
0.0
 40
2.5
 41
0.0
 71
     1
 72
     1
  1
Fine
  7
SLDTEXTSTYLE2
 73
     1
 44
1.0
  0
ENDBLK
  5
160
330
15E
100
AcDbEntity
  8
0
100
AcDbBlockEnd
  0
BLOCK
  5
1A1
330
1A0
100
AcDbEntity
  8
0
100
AcDbBlockBegin
  2
Nota legale
 70
     0
 10
0.0
 20
0.0
 30
0.0
  3
Nota legale
  1

  0
MTEXT
  5
1A4
330
1A0
100
AcDbEntity
  8
0
  6
Continuous
 62
     7
370
     0
100
AcDbMText
 10
2.8916698098
 20
-1.0663983927
 30
0.0
 40
1.5
 41
0.0
 71
     3
 72
     1
  1
BY TERM LAWS WE RESERVE THE PROPERTY OF THIS DRAWING WITH PROHIBITION OF USE AND REPRODUCTION
  7
SLDTEXTSTYLE3
 73
     1
 44
1.0
  0
ENDBLK
  5
1A2
330
1A0
100
AcDbEntity
  8
0
100
AcDbBlockEnd
  0
ENDSEC
  0
SECTION
  2
ENTITIES
  0
LINE
  5
1A5
330
1F
100
AcDbEntity
  8
0
  6
Continuous
 62
     7
370
    15
100
AcDbLine
 10
421.4566758772
 20
730.8728828064
 30
0.0
 11
420.4566758772
 21
731.8728828064
 31
0.0
  0
LINE
  5
1A6
330
1F
100
AcDbEntity
  8
0
  6
Continuous
 62
     7
370
    15
100
AcDbLine
 10
142.4566758772
 20
731.8728828064
 30
0.0
 11
141.4566758772
 21
730.8728828064
 31
0.0
  0
LINE
  5
1A7
330
1F
100
AcDbEntity
  8
0
  6
Continuous
 62
     7
370
    15
100
AcDbLine
 10
421.4566758772
 20
722.8728828064
 30
0.0
 11
421.4566758772
 21
730.8728828064
 31
0.0
  0
LINE
  5
1A8
330
1F
100
AcDbEntity
  8
0
  6
Continuous
 62
     7
370
    15
100
AcDbLine
 10
141.4566758772
 20
730.8728828064
 30
0.0
 11
141.4566758772
 21
722.8728828064
 31
0.0
  0
LINE
  5
1A9
330
1F
100
AcDbEntity
  8
0
  6
Continuous
 62
     7
370
    15
100
AcDbLine
 10
421.4566758772
 20
732.8728828064
 30
0.0
 11
421.4566758772
 21
740.8728828064
 31
0.0
  0
LINE
  5
1AA
330
1F
100
AcDbEntity
  8
0
  6
Continuous
 62
     7
370
    15
100
AcDbLine
 10
141.4566758772
 20
740.8728828064
 30
0.0
 11
141.4566758772
 21
732.8728828064
 31
0.0
  0
LINE
  5
1AB
330
1F
100
AcDbEntity
  8
0
  6
Continuous
 62
     7
370
    15
100
AcDbLine
 10
141.4566758772
 20
722.8728828064
 30
0.0
 11
143.4566758772
 21
720.8728828064
 31
0.0
  0
LINE
  5
1AC
330
1F
100
AcDbEntity
  8
0
  6
Continuous
 62
     7
370
    15
100
AcDbLine
 10
419.4566758772
 20
720.8728828064
 30
0.0
 11
421.4566758772
 21
722.8728828064
 31
0.0
  0
LINE
  5
1AD
330
1F
100
AcDbEntity
  8
0
  6
Continuous
 62
     7
370
    15
100
AcDbLine
 10
141.4566758772
 20
732.8728828064
 30
0.0
 11
142.4566758772
 21
731.8728828064
 31
0.0
  0
LINE
  5
1AE
330
1F
100
AcDbEntity
  8
0
  6
Continuous
 62
     7
370
    15
100
AcDbLine
 10
420.4566758772
 20
731.8728828064
 30
0.0
 11
421.4566758772
 21
732.8728828064
 31
0.0
  0
LINE
  5
1AF
330
1F
100
AcDbEntity
  8
0
  6
Continuous
 62
     7
370
    15
100
AcDbLine
 10
421.4566758772
 20
740.8728828064
 30
0.0
 11
419.4566758772
 21
742.8728828064
 31
0.0
  0
LINE
  5
1B0
330
1F
100
AcDbEntity
  8
0
  6
Continuous
 62
     7
370
    15
100
AcDbLine
 10
143.4566758772
 20
742.8728828064
 30
0.0
 11
141.4566758772
 21
740.8728828064
 31
0.0
  0
LINE
  5
1B1
330
1F
100
AcDbEntity
  8
0
  6
Continuous
 62
     7
370
    15
100
AcDbLine
 10
158.9566758772
 20
720.8728828064
 30
0.0
 11
163.9566758772
 21
715.8728828064
 31
0.0
  0
LINE
  5
1B2
330
1F
100
AcDbEntity
  8
0
  6
Continuous
 62
     7
370
    15
100
AcDbLine
 10
398.9566758772
 20
715.8728828064
 30
0.0
 11
403.9566758772
 21
720.8728828064
 31
0.0
  0
LINE
  5
1B3
330
1F
100
AcDbEntity
  8
0
  6
Continuous
 62
     7
370
    15
100
AcDbLine
 10
163.9566758772
 20
520.8728828064
 30
0.0
 11
168.9566758772
 21
515.8728828064
 31
0.0
  0
LINE
  5
1B4
330
1F
100
AcDbEntity
  8
0
  6
Continuous
 62
     7
370
    15
100
AcDbLine
 10
393.9566758772
 20
515.8728828064
 30
0.0
 11
398.9566758772
 21
520.8728828064
 31
0.0
  0
LINE
  5
1B5
330
1F
100
AcDbEntity
  8
0
  6
Continuous
 62
     7
370
    15
100
AcDbLine
 10
398.9566758772
 20
697.8640464675
 30
0.0
 11
398.9566758772
 21
715.8728828064
 31
0.0
  0
LINE
  5
1B6
330
1F
100
AcDbEntity
  8
0
  6
Continuous
 62
     7
370
    15
100
AcDbLine
 10
398.9566758772
 20
520.8728828064
 30
0.0
 11
398.9566758772
 21
541.8826883282
 31
0.0
  0
LINE
  5
1B7
330
1F
100
AcDbEntity
  8
0
  6
Continuous
 62
     7
370
    15
100
AcDbLine
 10
163.9566758772
 20
541.8817191454
 30
0.0
 11
163.9566758772
 21
520.8728828064
 31
0.0
  0
LINE
  5
1B8
330
1F
100
AcDbEntity
  8
0
  6
Continuous
 62
     7
370
    15
100
AcDbLine
 10
163.9566758772
 20
715.8728828064
 30
0.0
 11
163.9566758772
 21
697.8630772847
 31
0.0
  0
LINE
  5
1B9
330
1F
100
AcDbEntity
  8
0
  6
Continuous
 62
     7
370
    15
100
AcDbLine
 10
166.4566758772
 20
743.8728828064
 30
0.0
 11
166.4566758772
 21
742.8728828064
 31
0.0
  0
LINE
  5
1BA
330
1F
100
AcDbEntity
  8
0
  6
Continuous
 62
     7
370
    15
100
AcDbLine
 10
396.4566758772
 20
742.8728828064
 30
0.0
 11
396.4566758772
 21
743.8728828064
 31
0.0
  0
LINE
  5
1BB
330
1F
100
AcDbEntity
  8
0
  6
Continuous
 62
     7
370
    15
100
AcDbLine
 10
396.4566758772
 20
743.8728828064
 30
0.0
 11
394.4566758772
 21
745.8728828064
 31
0.0
  0
LINE
  5
1BC
330
1F
100
AcDbEntity
  8
0
  6
Continuous
 62
     7
370
    15
100
AcDbLine
 10
168.4566758772
 20
745.8728828064
 30
0.0
 11
166.4566758772
 21
743.8728828064
 31
0.0
  0
LINE
  5
1BD
330
1F
100
AcDbEntity
  8
0
  6
Continuous
 62
     7
370
    15
100
AcDbLine
 10
108.4566758772
 20
509.8728828064
 30
0.0
 11
113.4566758772
 21
514.8728828064
 31
0.0
  0
LINE
  5
1BE
330
1F
100
AcDbEntity
  8
0
  6
Continuous
 62
     7
370
    15
100
AcDbLine
 10
113.4566758772
 20
724.8728828064
 30
0.0
 11
108.4566758772
 21
729.8728828064
 31
0.0
  0
LINE
  5
1BF
330
1F
100
AcDbEntity
  8
0
  6
Continuous
 62
     7
370
    15
100
AcDbLine
 10
469.4566758772
 20
729.8728828064
 30
0.0
 11
454.4566758772
 21
729.8728828064
 31
0.0
  0
LINE
  5
1C0
330
1F
100
AcDbEntity
  8
0
  6
Continuous
 62
     7
370
    15
100
AcDbLine
 10
454.4566758772
 20
509.8728828064
 30
0.0
 11
469.4566758772
 21
509.8728828064
 31
0.0
  0
LINE
  5
1C1
330
1F
100
AcDbEntity
  8
0
  6
Continuous
 62
     7
370
    15
100
AcDbLine
 10
454.4566758772
 20
729.8728828064
 30
0.0
 11
449.4566758772
 21
724.8728828064
 31
0.0
  0
LINE
  5
1C2
330
1F
100
AcDbEntity
  8
0
  6
Continuous
 62
     7
370
    15
100
AcDbLine
 10
449.4566758772
 20
514.8728828064
 30
0.0
 11
454.4566758772
 21
509.8728828064
 31
0.0
  0
LINE
  5
1C3
330
1F
100
AcDbEntity
  8
0
  6
Continuous
 62
     7
370
    15
100
AcDbLine
 10
93.4566758772
 20
509.8728828064
 30
0.0
 11
108.4566758772
 21
509.8728828064
 31
0.0
  0
LINE
  5
1C4
330
1F
100
AcDbEntity
  8
0
  6
Continuous
 62
     7
370
    15
100
AcDbLine
 10
108.4566758772
 20
729.8728828064
 30
0.0
 11
93.4566758772
 21
729.8728828064
 31
0.0
  0
ARC
  5
1C5
330
1F
100
AcDbEntity
  8
0
  6
Continuous
 62
     7
370
    15
100
AcDbCircle
 10
123.4566758772
 20
541.8728828064
 30
0.0
 40
10.00000000000011
100
AcDbArc
 50
90.0
 51
180.0
  0
ARC
  5
1C6
330
1F
100
AcDbEntity
  8
0
  6
Continuous
 62
     7
370
    15
100
AcDbCircle
 10
123.4566758772
 20
697.8728828064
 30
0.0
 40
10.0
100
AcDbArc
 50
180.0
 51
270.0
  0
ARC
  5
1C7
330
1F
100
AcDbEntity
  8
0
  6
Continuous
 62
     7
370
    15
100
AcDbCircle
 10
439.4566758772
 20
697.8728828064
 30
0.0
 40
10.0
100
AcDbArc
 50
270.0
 51
0.0
  0
ARC
  5
1C8
330
1F
100
AcDbEntity
  8
0
  6
Continuous
 62
     7
370
    15
100
AcDbCircle
 10
439.4566758772
 20
541.8728828064
 30
0.0
 40
10.00000000000011
100
AcDbArc
 50
0.0
 51
90.0
  0
LINE
  5
1C9
330
1F
100
AcDbEntity
  8
0
  6
Continuous
 62
     7
370
    15
100
AcDbLine
 10
91.4566758772
 20
544.8728828064
 30
0.0
 11
93.4566758772
 21
544.8728828064
 31
0.0
  0
LINE
  5
1CA
330
1F
100
AcDbEntity
  8
0
  6
Continuous
 62
     7
370
    15
100
AcDbLine
 10
93.4566758772
 20
694.8728828064
 30
0.0
 11
91.4566758772
 21
694.8728828064
 31
0.0
  0
LINE
  5
1CB
330
1F
100
AcDbEntity
  8
0
  6
Continuous
 62
     7
370
    15
100
AcDbLine
 10
471.4566758772
 20
694.8728828064
 30
0.0
 11
469.4566758772
 21
694.8728828064
 31
0.0
  0
LINE
  5
1CC
330
1F
100
AcDbEntity
  8
0
  6
Continuous
 62
     7
370
    15
100
AcDbLine
 10
469.4566758772
 20
544.8728828064
 30
0.0
 11
471.4566758772
 21
544.8728828064
 31
0.0
  0
LINE
  5
1CD
330
1F
100
AcDbEntity
  8
0
  6
Continuous
 62
     7
370
    15
100
AcDbLine
 10
408.9566753791
 20
687.8728821851
 30
0.0
 11
398.9566754191
 21
697.8728820955
 31
0.0
  0
LINE
  5
1CE
330
1F
100
AcDbEntity
  8
0
  6
Continuous
 62
     7
370
    15
100
AcDbLine
 10
398.9566771697
 20
541.8728805106
 30
0.0
 11
408.956677278
 21
551.8728808074
 31
0.0
  0
LINE
  5
1CF
330
1F
100
AcDbEntity
  8
0
  6
Continuous
 62
     7
370
    15
100
AcDbLine
 10
153.9566763753
 20
551.8728834277
 30
0.0
 11
163.9566763353
 21
541.8728835174
 31
0.0
  0
LINE
  5
1D0
330
1F
100
AcDbEntity
  8
0
  6
Continuous
 62
     7
370
    15
100
AcDbLine
 10
163.9566745848
 20
697.8728851022
 30
0.0
 11
153.9566744765
 21
687.8728848055
 31
0.0
  0
LINE
  5
1D1
330
1F
100
AcDbEntity
  8
0
  6
Continuous
 62
     7
370
    15
100
AcDbLine
 10
408.9506948728
 20
551.8728828064
 30
0.0
 11
439.4566758772
 21
551.8728828064
 31
0.0
  0
LINE
  5
1D2
330
1F
100
AcDbEntity
  8
0
  6
Continuous
 62
     7
370
    15
100
AcDbLine
 10
439.4566758772
 20
687.8728828064
 30
0.0
 11
408.9512859086
 21
687.8728828064
 31
0.0
  0
LINE
  5
1D3
330
1F
100
AcDbEntity
  8
0
  6
Continuous
 62
     7
370
    15
100
AcDbLine
 10
123.4566758772
 20
551.8728828064
 30
0.0
 11
153.9620658459
 21
551.8728828064
 31
0.0
  0
LINE
  5
1D4
330
1F
100
AcDbEntity
  8
0
  6
Continuous
 62
     7
370
    15
100
AcDbLine
 10
153.9626568817
 20
687.8728828064
 30
0.0
 11
123.4566758772
 21
687.8728828064
 31
0.0
  0
LINE
  5
1D5
330
1F
100
AcDbEntity
  8
0
  6
Continuous
 62
     7
370
    15
100
AcDbLine
 10
281.4566758772
 20
730.8728828064
 30
0.0
 11
421.4566758772
 21
730.8728828064
 31
0.0
  0
LINE
  5
1D6
330
1F
100
AcDbEntity
  8
0
  6
Continuous
 62
     7
370
    15
100
AcDbLine
 10
141.4566758772
 20
730.8728828064
 30
0.0
 11
281.4566758772
 21
730.8728828064
 31
0.0
  0
LINE
  5
1D7
330
1F
100
AcDbEntity
  8
0
  6
Continuous
 62
     7
370
    15
100
AcDbLine
 10
281.4566758772
 20
731.8728828064
 30
0.0
 11
420.4566758772
 21
731.8728828064
 31
0.0
  0
LINE
  5
1D8
330
1F
100
AcDbEntity
  8
0
  6
Continuous
 62
     7
370
    15
100
AcDbLine
 10
142.4566758772
 20
731.8728828064
 30
0.0
 11
281.4566758772
 21
731.8728828064
 31
0.0
  0
LINE
  5
1D9
330
1F
100
AcDbEntity
  8
0
  6
Continuous
 62
     7
370
    15
100
AcDbLine
 10
281.4566758772
 20
722.8728828064
 30
0.0
 11
421.4566758772
 21
722.8728828064
 31
0.0
  0
LINE
  5
1DA
330
1F
100
AcDbEntity
  8
0
  6
Continuous
 62
     7
370
    15
100
AcDbLine
 10
141.4566758772
 20
722.8728828064
 30
0.0
 11
281.4566758772
 21
722.8728828064
 31
0.0
  0
LINE
  5
1DB
330
1F
100
AcDbEntity
  8
0
  6
Continuous
 62
     7
370
    15
100
AcDbLine
 10
281.4566758772
 20
732.8728828064
 30
0.0
 11
421.4566758772
 21
732.8728828064
 31
0.0
  0
LINE
  5
1DC
330
1F
100
AcDbEntity
  8
0
  6
Continuous
 62
     7
370
    15
100
AcDbLine
 10
141.4566758772
 20
732.8728828064
 30
0.0
 11
281.4566758772
 21
732.8728828064
 31
0.0
  0
LINE
  5
1DD
330
1F
100
AcDbEntity
  8
0
  6
Continuous
 62
     7
370
    15
100
AcDbLine
 10
421.4566758772
 20
740.8728828064
 30
0.0
 11
141.4566758772
 21
740.8728828064
 31
0.0
  0
LINE
  5
1DE
330
1F
100
AcDbEntity
  8
0
  6
Continuous
 62
     7
370
    15
100
AcDbLine
 10
281.4566758772
 20
720.8728828064
 30
0.0
 11
143.4566758772
 21
720.8728828064
 31
0.0
  0
LINE
  5
1DF
330
1F
100
AcDbEntity
  8
0
  6
Continuous
 62
     7
370
    15
100
AcDbLine
 10
419.4566758772
 20
720.8728828064
 30
0.0
 11
281.4566758772
 21
720.8728828064
 31
0.0
  0
LINE
  5
1E0
330
1F
100
AcDbEntity
  8
0
  6
Continuous
 62
     7
370
    15
100
AcDbLine
 10
143.4566758772
 20
742.8728828064
 30
0.0
 11
419.4566758772
 21
742.8728828064
 31
0.0
  0
LINE
  5
1E1
330
1F
100
AcDbEntity
  8
0
  6
Continuous
 62
     7
370
    15
100
AcDbLine
 10
281.4566758772
 20
747.8728828064
 30
0.0
 11
281.4566758772
 21
742.8728828064
 31
0.0
  0
LINE
  5
1E2
330
1F
100
AcDbEntity
  8
0
  6
Continuous
 62
     7
370
    15
100
AcDbLine
 10
281.4566758772
 20
747.8728828064
 30
0.0
 11
290.4566758772
 21
747.8728828064
 31
0.0
  0
LINE
  5
1E3
330
1F
100
AcDbEntity
  8
0
  6
Continuous
 62
     7
370
    15
100
AcDbLine
 10
290.4566758772
 20
747.8728828064
 30
0.0
 11
290.4566758772
 21
742.8728828064
 31
0.0
  0
LINE
  5
1E4
330
1F
100
AcDbEntity
  8
0
  6
Continuous
 62
     7
370
    15
100
AcDbLine
 10
272.4566758772
 20
747.8728828064
 30
0.0
 11
272.4566758772
 21
742.8728828064
 31
0.0
  0
LINE
  5
1E5
330
1F
100
AcDbEntity
  8
0
  6
Continuous
 62
     7
370
    15
100
AcDbLine
 10
272.4566758772
 20
747.8728828064
 30
0.0
 11
281.4566758772
 21
747.8728828064
 31
0.0
  0
LINE
  5
1E6
330
1F
100
AcDbEntity
  8
0
  6
Continuous
 62
     7
370
    15
100
AcDbLine
 10
281.4566758772
 20
715.8728828064
 30
0.0
 11
163.9566758772
 21
715.8728828064
 31
0.0
  0
LINE
  5
1E7
330
1F
100
AcDbEntity
  8
0
  6
Continuous
 62
     7
370
    15
100
AcDbLine
 10
398.9566758772
 20
715.8728828064
 30
0.0
 11
281.4566758772
 21
715.8728828064
 31
0.0
  0
LINE
  5
1E8
330
1F
100
AcDbEntity
  8
0
  6
Continuous
 62
     7
370
    15
100
AcDbLine
 10
281.4566758772
 20
515.8728828064
 30
0.0
 11
168.9566758772
 21
515.8728828064
 31
0.0
  0
LINE
  5
1E9
330
1F
100
AcDbEntity
  8
0
  6
Continuous
 62
     7
370
    15
100
AcDbLine
 10
393.9566758772
 20
515.8728828064
 30
0.0
 11
281.4566758772
 21
515.8728828064
 31
0.0
  0
LINE
  5
1EA
330
1F
100
AcDbEntity
  8
0
  6
Continuous
 62
     7
370
    15
100
AcDbLine
 10
281.4566758772
 20
520.8728828064
 30
0.0
 11
398.9566758772
 21
520.8728828064
 31
0.0
  0
LINE
  5
1EB
330
1F
100
AcDbEntity
  8
0
  6
Continuous
 62
     7
370
    15
100
AcDbLine
 10
163.9566758772
 20
520.8728828064
 30
0.0
 11
281.4566758772
 21
520.8728828064
 31
0.0
  0
SPLINE
  5
1EC
330
1F
100
AcDbEntity
  8
0
  6
Continuous
 62
     7
370
    15
100
AcDbSpline
210
0.0
220
0.0
230
1.0
 70
     8
 71
     3
 72
    23
 73
    19
 74
     0
 42
0.000000001
 43
0.00000001
 40
0.0
 40
0.0
 40
0.0
 40
0.0
 40
0.0645844587482752
 40
0.129733436175228
 40
0.1947498309405286
 40
0.2590252177518636
 40
0.3441470409885062
 40
0.4285680461555674
 40
0.5121421449212689
 40
0.5745496225096944
 40
0.6359875508544373
 40
0.6969047055537083
 40
0.7579182293979205
 40
0.8186352712302797
 40
0.8784749386137084
 40
0.9382586941036786
 40
0.9986274182833127
 40
1.0
 40
1.0
 40
1.0
 40
1.0
 10
188.5095009032539
 20
619.8728828064376
 30
0.0
 10
188.4556764560652
 20
617.2709803211818
 30
0.0
 10
188.3475570939253
 20
612.0444326880933
 30
0.0
 10
187.4884992571929
 20
604.3048597945624
 30
0.0
 10
186.1824554996521
 20
596.7781222384913
 30
0.0
 10
184.2830044032592
 20
588.7810614473686
 30
0.0
 10
181.7752677192088
 20
580.513515519402
 30
0.0
 10
178.7283427412025
 20
572.223245346009
 30
0.0
 10
175.8335334134463
 20
565.3431587512831
 30
0.0
 10
173.2652706837858
 20
559.7404830192881
 30
0.0
 10
171.0776725181804
 20
555.2394588635648
 30
0.0
 10
169.0755997233609
 20
551.3058411999223
 30
0.0
 10
167.3167399198803
 20
547.9734108746019
 30
0.0
 10
165.8737230719026
 20
545.314034183374
 30
0.0
 10
164.7834795906627
 20
543.3450726458261
 30
0.0
 10
164.1509283161666
 20
542.2170902326167
 30
0.0
 10
163.8856111457303
 20
541.7466448596898
 30
0.0
 10
163.9599966098189
 20
541.8787815907081
 30
0.0
 10
163.9616502860169
 20
541.8817191453721
 30
0.0
  0
SPLINE
  5
1ED
330
1F
100
AcDbEntity
  8
0
  6
Continuous
 62
     7
370
    15
100
AcDbSpline
210
0.0
220
0.0
230
1.0
 70
     8
 71
     3
 72
    23
 73
    19
 74
     0
 42
0.000000001
 43
0.00000001
 40
0.0
 40
0.0
 40
0.0
 40
0.0
 40
0.0588638570370085
 40
0.1188690159693593
 40
0.1793757553842975
 40
0.2403338565739887
 40
0.3012788972617459
 40
0.3628987382926239
 40
0.4249118324523788
 40
0.487018083857811
 40
0.5497538766760365
 40
0.6131223808859946
 40
0.6763714406843695
 40
0.739987636003976
 40
0.804602954943789
 40
0.8695275375495649
 40
0.9344438666605206
 40
0.9999999999999999
 40
0.9999999999999999
 40
0.9999999999999999
 40
0.9999999999999999
 10
163.9621958093638
 20
697.8630772846906
 30
0.0
 10
164.0015682401128
 20
697.793359588217
 30
0.0
 10
164.0810764873638
 20
697.6525724500203
 30
0.0
 10
164.7606543385454
 20
696.441855388386
 30
0.0
 10
165.8245070253091
 20
694.5212916122541
 30
0.0
 10
167.2691898776219
 20
691.861163944546
 30
0.0
 10
169.0273121274807
 20
688.5330059420082
 30
0.0
 10
171.0384859165634
 20
684.5855993092449
 30
0.0
 10
173.2360561232873
 20
680.067286033139
 30
0.0
 10
175.5492602357006
 20
675.0243898186477
 30
0.0
 10
177.9085864053908
 20
669.4876067095297
 30
0.0
 10
180.2345457142189
 20
663.4926471235192
 30
0.0
 10
182.4420483725699
 20
657.0777061750586
 30
0.0
 10
184.4475245560855
 20
650.2609462796024
 30
0.0
 10
186.163780738862
 20
643.059452700499
 30
0.0
 10
187.47483998533
 20
635.5344948113809
 30
0.0
 10
188.343500467255
 20
627.7708502743785
 30
0.0
 10
188.4539868254587
 20
622.5141311730488
 30
0.0
 10
188.5095009032539
 20
619.8728828064376
 30
0.0
  0
SPLINE
  5
1EE
330
1F
100
AcDbEntity
  8
0
  6
Continuous
 62
     7
370
    15
100
AcDbSpline
210
0.0
220
0.0
230
1.0
 70
     8
 71
     3
 72
    23
 73
    19
 74
     0
 42
0.000000001
 43
0.00000001
 40
0.0
 40
0.0
 40
0.0
 40
0.0
 40
0.0645844587482676
 40
0.1297334361752023
 40
0.1947498309404897
 40
0.259025217751812
 40
0.3441470410164016
 40
0.428568046214316
 40
0.5121421449213672
 40
0.5745496225097816
 40
0.6359875508545115
 40
0.6969047055537706
 40
0.75791822939797
 40
0.8186352712303172
 40
0.8784749386137343
 40
0.9382586941036923
 40
0.9986274182833123
 40
1.0
 40
1.0
 40
1.0
 40
1.0
 10
374.4038508511771
 20
619.8728828064376
 30
0.0
 10
374.4576752983657
 20
622.4747852916937
 30
0.0
 10
374.5657946605056
 20
627.7013329247824
 30
0.0
 10
375.4248524972389
 20
635.4409058183122
 30
0.0
 10
376.7308962547761
 20
642.9676433743869
 30
0.0
 10
378.6303473514314
 20
650.9647041665378
 30
0.0
 10
381.1380840361227
 20
659.2322500965719
 30
0.0
 10
384.1850090142736
 20
667.5225202696515
 30
0.0
 10
387.0798183417196
 20
674.402606863155
 30
0.0
 10
389.6480810706431
 20
680.005282593592
 30
0.0
 10
391.8356792362512
 20
684.5063067493094
 30
0.0
 10
393.8377520310701
 20
688.4399244129535
 30
0.0
 10
395.5966118345506
 20
691.7723547382734
 30
0.0
 10
397.0396286825285
 20
694.4317314295014
 30
0.0
 10
398.1298721637684
 20
696.4006929670494
 30
0.0
 10
398.7624234382643
 20
697.5286753802585
 30
0.0
 10
399.027740608701
 20
697.9991207531862
 30
0.0
 10
398.9533551446121
 20
697.8669840221673
 30
0.0
 10
398.9517014684141
 20
697.8640464675033
 30
0.0
  0
SPLINE
  5
1EF
330
1F
100
AcDbEntity
  8
0
  6
Continuous
 62
     7
370
    15
100
AcDbSpline
210
0.0
220
0.0
230
1.0
 70
     8
 71
     3
 72
    23
 73
    19
 74
     0
 42
0.000000001
 43
0.00000001
 40
0.0
 40
0.0
 40
0.0
 40
0.0
 40
0.0588638570370082
 40
0.1188690159693592
 40
0.179375755384297
 40
0.2403338565739889
 40
0.3012788972617461
 40
0.3628987382926244
 40
0.4249118324523787
 40
0.4870180838578125
 40
0.5497538766760368
 40
0.6131223808859948
 40
0.6763714406843696
 40
0.739987636003977
 40
0.804602954943789
 40
0.8695275375495654
 40
0.9344438666605208
 40
1.0
 40
1.0
 40
1.0
 40
1.0
 10
398.9511559450672
 20
541.8826883281845
 30
0.0
 10
398.9117835143183
 20
541.952406024658
 30
0.0
 10
398.8322752670672
 20
542.0931931628547
 30
0.0
 10
398.1526974158857
 20
543.3039102244891
 30
0.0
 10
397.0888447291219
 20
545.2244740006211
 30
0.0
 10
395.6441618768091
 20
547.8846016683291
 30
0.0
 10
393.8860396269503
 20
551.212759670867
 30
0.0
 10
391.8748658378677
 20
555.16016630363
 30
0.0
 10
389.6772956311437
 20
559.6784795797362
 30
0.0
 10
387.3640915187304
 20
564.7213757942275
 30
0.0
 10
385.0047653490401
 20
570.2581589033455
 30
0.0
 10
382.6788060402121
 20
576.253118489356
 30
0.0
 10
380.4713033818612
 20
582.6680594378167
 30
0.0
 10
378.4658271983454
 20
589.4848193332726
 30
0.0
 10
376.749571015569
 20
596.6863129123763
 30
0.0
 10
375.4385117691009
 20
604.2112708014943
 30
0.0
 10
374.5698512871762
 20
611.9749153384968
 30
0.0
 10
374.4593649289723
 20
617.2316344398264
 30
0.0
 10
374.4038508511771
 20
619.8728828064376
 30
0.0
  0
LINE
  5
1F0
330
1F
100
AcDbEntity
  8
0
  6
Continuous
 62
     7
370
    15
100
AcDbLine
 10
396.4566758772
 20
743.8728828064
 30
0.0
 11
380.5903259516
 21
743.8728828064
 31
0.0
  0
LINE
  5
1F1
330
1F
100
AcDbEntity
  8
0
  6
Continuous
 62
     7
370
    15
100
AcDbLine
 10
360.5139346619
 20
743.8728828064
 30
0.0
 11
290.4566758772
 21
743.8728828064
 31
0.0
  0
LINE
  5
1F2
330
1F
100
AcDbEntity
  8
0
  6
Continuous
 62
     7
370
    15
100
AcDbLine
 10
272.4566758772
 20
743.8728828064
 30
0.0
 11
202.3994170926
 21
743.8728828064
 31
0.0
  0
LINE
  5
1F3
330
1F
100
AcDbEntity
  8
0
  6
Continuous
 62
     7
370
    15
100
AcDbLine
 10
182.3230258029
 20
743.8728828064
 30
0.0
 11
166.4566758772
 21
743.8728828064
 31
0.0
  0
LINE
  5
1F4
330
1F
100
AcDbEntity
  8
0
  6
Continuous
 62
     7
370
    15
100
AcDbLine
 10
168.4566758772
 20
745.8728828064
 30
0.0
 11
182.3230258029
 21
745.8728828064
 31
0.0
  0
LINE
  5
1F5
330
1F
100
AcDbEntity
  8
0
  6
Continuous
 62
     7
370
    15
100
AcDbLine
 10
202.3994170926
 20
745.8728828064
 30
0.0
 11
272.4566758772
 21
745.8728828064
 31
0.0
  0
LINE
  5
1F6
330
1F
100
AcDbEntity
  8
0
  6
Continuous
 62
     7
370
    15
100
AcDbLine
 10
290.4566758772
 20
745.8728828064
 30
0.0
 11
360.5139346619
 21
745.8728828064
 31
0.0
  0
LINE
  5
1F7
330
1F
100
AcDbEntity
  8
0
  6
Continuous
 62
     7
370
    15
100
AcDbLine
 10
380.5903259516
 20
745.8728828064
 30
0.0
 11
394.4566758772
 21
745.8728828064
 31
0.0
  0
LINE
  5
1F8
330
1F
100
AcDbEntity
  8
0
  6
Continuous
 62
     7
370
    15
100
AcDbLine
 10
108.4566758772
 20
619.8728828064
 30
0.0
 11
108.4566758772
 21
729.8728828064
 31
0.0
  0
LINE
  5
1F9
330
1F
100
AcDbEntity
  8
0
  6
Continuous
 62
     7
370
    15
100
AcDbLine
 10
108.4566758772
 20
509.8728828064
 30
0.0
 11
108.4566758772
 21
619.8728828064
 31
0.0
  0
LINE
  5
1FA
330
1F
100
AcDbEntity
  8
0
  6
Continuous
 62
     7
370
    15
100
AcDbLine
 10
113.4566758772
 20
619.8728828064
 30
0.0
 11
113.4566758772
 21
514.8728828064
 31
0.0
  0
LINE
  5
1FB
330
1F
100
AcDbEntity
  8
0
  6
Continuous
 62
     7
370
    15
100
AcDbLine
 10
113.4566758772
 20
724.8728828064
 30
0.0
 11
113.4566758772
 21
619.8728828064
 31
0.0
  0
LINE
  5
1FC
330
1F
100
AcDbEntity
  8
0
  6
Continuous
 62
     7
370
    15
100
AcDbLine
 10
454.4566758772
 20
729.8728828064
 30
0.0
 11
454.4566758772
 21
509.8728828064
 31
0.0
  0
LINE
  5
1FD
330
1F
100
AcDbEntity
  8
0
  6
Continuous
 62
     7
370
    15
100
AcDbLine
 10
469.4566758772
 20
619.8728828064
 30
0.0
 11
469.4566758772
 21
729.8728828064
 31
0.0
  0
LINE
  5
1FE
330
1F
100
AcDbEntity
  8
0
  6
Continuous
 62
     7
370
    15
100
AcDbLine
 10
469.4566758772
 20
509.8728828064
 30
0.0
 11
469.4566758772
 21
619.8728828064
 31
0.0
  0
LINE
  5
1FF
330
1F
100
AcDbEntity
  8
0
  6
Continuous
 62
     7
370
    15
100
AcDbLine
 10
449.4566758772
 20
514.8728828064
 30
0.0
 11
449.4566758772
 21
724.8728828064
 31
0.0
  0
LINE
  5
200
330
1F
100
AcDbEntity
  8
0
  6
Continuous
 62
     7
370
    15
100
AcDbLine
 10
93.4566758772
 20
619.8728828064
 30
0.0
 11
93.4566758772
 21
729.8728828064
 31
0.0
  0
LINE
  5
201
330
1F
100
AcDbEntity
  8
0
  6
Continuous
 62
     7
370
    15
100
AcDbLine
 10
93.4566758772
 20
509.8728828064
 30
0.0
 11
93.4566758772
 21
619.8728828064
 31
0.0
  0
LINE
  5
202
330
1F
100
AcDbEntity
  8
0
  6
Continuous
 62
     7
370
    15
100
AcDbLine
 10
367.8624038902
 20
747.8728828064
 30
0.0
 11
367.8624038902
 21
742.8728828064
 31
0.0
  0
LINE
  5
203
330
1F
100
AcDbEntity
  8
0
  6
Continuous
 62
     7
370
    15
100
AcDbLine
 10
377.9005995351
 20
747.8728828064
 30
0.0
 11
377.9005995351
 21
742.8728828064
 31
0.0
  0
LINE
  5
204
330
1F
100
AcDbEntity
  8
0
  6
Continuous
 62
     7
370
    15
100
AcDbLine
 10
367.8624038902
 20
747.8728828064
 30
0.0
 11
377.9005995351
 21
747.8728828064
 31
0.0
  0
LINE
  5
205
330
1F
100
AcDbEntity
  8
0
  6
Continuous
 62
     7
370
    15
100
AcDbLine
 10
360.5139346619
 20
747.8728828064
 30
0.0
 11
360.5139346619
 21
742.8728828064
 31
0.0
  0
LINE
  5
206
330
1F
100
AcDbEntity
  8
0
  6
Continuous
 62
     7
370
    15
100
AcDbLine
 10
360.5139346619
 20
747.8728828064
 30
0.0
 11
367.8624038902
 21
747.8728828064
 31
0.0
  0
LINE
  5
207
330
1F
100
AcDbEntity
  8
0
  6
Continuous
 62
     7
370
    15
100
AcDbLine
 10
185.0127522194
 20
747.8728828064
 30
0.0
 11
185.0127522194
 21
742.8728828064
 31
0.0
  0
LINE
  5
208
330
1F
100
AcDbEntity
  8
0
  6
Continuous
 62
     7
370
    15
100
AcDbLine
 10
185.0127522194
 20
747.8728828064
 30
0.0
 11
195.0509478642
 21
747.8728828064
 31
0.0
  0
LINE
  5
209
330
1F
100
AcDbEntity
  8
0
  6
Continuous
 62
     7
370
    15
100
AcDbLine
 10
195.0509478642
 20
747.8728828064
 30
0.0
 11
195.0509478642
 21
742.8728828064
 31
0.0
  0
LINE
  5
20A
330
1F
100
AcDbEntity
  8
0
  6
Continuous
 62
     7
370
    15
100
AcDbLine
 10
195.0509478642
 20
747.8728828064
 30
0.0
 11
202.3994170926
 21
747.8728828064
 31
0.0
  0
LINE
  5
20B
330
1F
100
AcDbEntity
  8
0
  6
Continuous
 62
     7
370
    15
100
AcDbLine
 10
202.3994170926
 20
747.8728828064
 30
0.0
 11
202.3994170926
 21
742.8728828064
 31
0.0
  0
LINE
  5
20C
330
1F
100
AcDbEntity
  8
0
  6
Continuous
 62
     7
370
    15
100
AcDbLine
 10
380.5903259516
 20
747.8728828064
 30
0.0
 11
380.5903259516
 21
742.8728828064
 31
0.0
  0
LINE
  5
20D
330
1F
100
AcDbEntity
  8
0
  6
Continuous
 62
     7
370
    15
100
AcDbLine
 10
377.9005995351
 20
747.8728828064
 30
0.0
 11
380.5903259516
 21
747.8728828064
 31
0.0
  0
LINE
  5
20E
330
1F
100
AcDbEntity
  8
0
  6
Continuous
 62
     7
370
    15
100
AcDbLine
 10
182.3230258029
 20
747.8728828064
 30
0.0
 11
182.3230258029
 21
742.8728828064
 31
0.0
  0
LINE
  5
20F
330
1F
100
AcDbEntity
  8
0
  6
Continuous
 62
     7
370
    15
100
AcDbLine
 10
182.3230258029
 20
747.8728828064
 30
0.0
 11
185.0127522194
 21
747.8728828064
 31
0.0
  0
LINE
  5
210
330
1F
100
AcDbEntity
  8
0
  6
Continuous
 62
     7
370
    15
100
AcDbLine
 10
91.4566758772
 20
619.8728828064
 30
0.0
 11
91.4566758772
 21
694.8728828064
 31
0.0
  0
LINE
  5
211
330
1F
100
AcDbEntity
  8
0
  6
Continuous
 62
     7
370
    15
100
AcDbLine
 10
91.4566758772
 20
544.8728828064
 30
0.0
 11
91.4566758772
 21
619.8728828064
 31
0.0
  0
LINE
  5
212
330
1F
100
AcDbEntity
  8
0
  6
Continuous
 62
     7
370
    15
100
AcDbLine
 10
471.4566758772
 20
619.8728828064
 30
0.0
 11
471.4566758772
 21
694.8728828064
 31
0.0
  0
LINE
  5
213
330
1F
100
AcDbEntity
  8
0
  6
Continuous
 62
     7
370
    15
100
AcDbLine
 10
471.4566758772
 20
544.8728828064
 30
0.0
 11
471.4566758772
 21
619.8728828064
 31
0.0
  0
SPLINE
  5
214
330
1F
100
AcDbEntity
  8
0
  6
Continuous
 62
     7
370
    15
100
AcDbSpline
210
0.0
220
0.0
230
1.0
 70
     8
 71
     3
 72
    27
 73
    23
 74
     0
 42
0.000000001
 43
0.00000001
 40
0.0
 40
0.0
 40
0.0
 40
0.0
 40
0.0414846698504606
 40
0.0827962336542243
 40
0.1244347500651377
 40
0.1656397658607731
 40
0.2072158883106028
 40
0.249715686600561
 40
0.2990050711766531
 40
0.34827669449093
 40
0.3995808644080031
 40
0.4464286210116632
 40
0.5010908872462874
 40
0.5528593634318385
 40
0.6029499536746918
 40
0.652983138620201
 40
0.7028669306312074
 40
0.7524989367704114
 40
0.8151554056248869
 40
0.8774661533424015
 40
0.9393361117194181
 40
1.0
 40
1.0
 40
1.0
 40
1.0
 10
382.3142487213154
 20
619.8728828064376
 30
0.0
 10
382.3408624622303
 20
618.3407862408293
 30
0.0
 10
382.3939788910013
 20
615.2829861984474
 30
0.0
 10
382.8182261838508
 20
610.7246704590576
 30
0.0
 10
383.475790644624
 20
606.2475725255192
 30
0.0
 10
384.3708982318504
 20
601.8608539129201
 30
0.0
 10
385.4734791153356
 20
597.5662624813309
 30
0.0
 10
386.8326468617616
 20
593.1447639807003
 30
0.0
 10
388.4438441097593
 20
588.6556710981611
 30
0.0
 10
390.3019287873904
 20
584.1140878910778
 30
0.0
 10
392.2277802386672
 20
579.8832157772651
 30
0.0
 10
394.277728950063
 20
575.7465663894924
 30
0.0
 10
396.3476320984788
 20
571.8625481772162
 30
0.0
 10
398.4279211116069
 20
568.1946113381205
 30
0.0
 10
400.3749847069006
 20
564.9266438793342
 30
0.0
 10
402.1908738809175
 20
561.9995340164738
 30
0.0
 10
403.8580830155705
 20
559.4001813961452
 30
0.0
 10
405.4717390275739
 20
556.9518587500942
 30
0.0
 10
406.9311898466826
 20
554.7928703730669
 30
0.0
 10
408.0848069809938
 20
553.119679905931
 30
0.0
 10
408.8215743917212
 20
552.0651114101142
 30
0.0
 10
408.9077684583319
 20
551.9424886154336
 30
0.0
 10
408.9504412982855
 20
551.881780690888
 30
0.0
  0
SPLINE
  5
215
330
1F
100
AcDbEntity
  8
0
  6
Continuous
 62
     7
370
    15
100
AcDbSpline
210
0.0
220
0.0
230
1.0
 70
     8
 71
     3
 72
    32
 73
    28
 74
     0
 42
0.000000001
 43
0.00000001
 40
0.0
 40
0.0
 40
0.0
 40
0.0
 40
0.0014549677465761
 40
0.0637226560275078
 40
0.1253484618817312
 40
0.1661765494732498
 40
0.2074087199059393
 40
0.2493828508318807
 40
0.2800920166806431
 40
0.3119346716832966
 40
0.3422781402626499
 40
0.3741724026799261
 40
0.4042441075439241
 40
0.4366734012930326
 40
0.4659033317787518
 40
0.499827730698369
 40
0.5453396407278049
 40
0.5845952514381013
 40
0.6255298587116745
 40
0.6688861557117215
 40
0.7103916048406158
 40
0.7513516960784413
 40
0.7936065404099343
 40
0.8350978337270448
 40
0.8763502960642491
 40
0.9382003127118259
 40
1.0
 40
1.0
 40
1.0
 40
1.0
 10
408.9511322117976
 20
687.8649710974661
 30
0.0
 10
408.952977373445
 20
687.8676044657753
 30
0.0
 10
409.0337891998614
 20
687.9829370725392
 30
0.0
 10
408.7455599262005
 20
687.5723313654366
 30
0.0
 10
408.1384205489786
 20
686.7024870527932
 30
0.0
 10
407.282795731439
 20
685.4627872979311
 30
0.0
 10
406.3719195233937
 20
684.1272137948995
 30
0.0
 10
405.3809157928451
 20
682.6520399945834
 30
0.0
 10
404.3638061268219
 20
681.1134149122094
 30
0.0
 10
403.3857160773235
 20
679.6093788181863
 30
0.0
 10
402.3286411175308
 20
677.9550827717187
 30
0.0
 10
401.2355826130526
 20
676.2082003885654
 30
0.0
 10
400.0687796101083
 20
674.3015516809711
 30
0.0
 10
398.8969176850156
 20
672.334764495198
 30
0.0
 10
397.6441644968497
 20
670.1733232503457
 30
0.0
 10
396.1961102818929
 20
667.5887725081719
 30
0.0
 10
394.5949253055853
 20
664.596986351255
 30
0.0
 10
392.9041289988227
 20
661.2455332976745
 30
0.0
 10
391.2683830207536
 20
657.7856715145359
 30
0.0
 10
389.6564923666439
 20
654.0899369555425
 30
0.0
 10
388.1268108789761
 20
650.2249091676129
 30
0.0
 10
386.7187169537985
 20
646.2369554008573
 30
0.0
 10
385.4513354354851
 20
642.0988356204516
 30
0.0
 10
384.3525848823857
 20
637.8109295938898
 30
0.0
 10
383.3235400064122
 20
632.7105910837133
 30
0.0
 10
382.4920168830037
 20
626.725438129072
 30
0.0
 10
382.3734886936315
 20
622.1564480059176
 30
0.0
 10
382.3142487213154
 20
619.8728828064376
 30
0.0
  0
SPLINE
  5
216
330
1F
100
AcDbEntity
  8
0
  6
Continuous
 62
     7
370
    15
100
AcDbSpline
210
0.0
220
0.0
230
1.0
 70
     8
 71
     3
 72
    27
 73
    23
 74
     0
 42
0.000000001
 43
0.00000001
 40
0.0
 40
0.0
 40
0.0
 40
0.0
 40
0.0414846698906988
 40
0.0827962337187245
 40
0.1244347500652247
 40
0.1656397658629136
 40
0.2072158881803275
 40
0.2497156866005793
 40
0.2990050711078112
 40
0.3482766944868073
 40
0.3995808645267908
 40
0.4464286196742308
 40
0.5010908872461456
 40
0.5528593634560874
 40
0.6029499538248523
 40
0.6529831387932907
 40
0.7028669306411021
 40
0.7524989367703119
 40
0.8151554056248078
 40
0.8774661533423439
 40
0.9393361117193813
 40
1.0
 40
1.0
 40
1.0
 40
1.0
 10
180.5991030331157
 20
619.8728828064376
 30
0.0
 10
180.5724892923206
 20
621.4049793735413
 30
0.0
 10
180.5193728637988
 20
624.462779418324
 30
0.0
 10
180.0951255696372
 20
629.0210951575683
 30
0.0
 10
179.4375611095163
 20
633.4981930897253
 30
0.0
 10
178.5424535232166
 20
637.8849116953795
 30
0.0
 10
177.4398726402393
 20
642.1795031271779
 30
0.0
 10
176.0807048948161
 20
646.6010016257376
 30
0.0
 10
174.4695076458845
 20
651.0900945125328
 30
0.0
 10
172.6114229661625
 20
655.6316777231737
 30
0.0
 10
170.6855715319898
 20
659.8625498005488
 30
0.0
 10
168.6356228208396
 20
663.9991991912593
 30
0.0
 10
166.5657196733876
 20
667.8832174049659
 30
0.0
 10
164.4854306406363
 20
671.5511542788462
 30
0.0
 10
162.5383670426702
 20
674.8191217407465
 30
0.0
 10
160.722477870059
 20
677.7462316024913
 30
0.0
 10
159.0552687371544
 20
680.3455842195187
 30
0.0
 10
157.4416127267306
 20
682.7939068629012
 30
0.0
 10
155.9821619077611
 20
684.9528952398093
 30
0.0
 10
154.828544773434
 20
686.626085706944
 30
0.0
 10
154.0917773627109
 20
687.6806542027612
 30
0.0
 10
154.0055832960995
 20
687.8032769974417
 30
0.0
 10
153.9629104561456
 20
687.8639849219873
 30
0.0
  0
SPLINE
  5
217
330
1F
100
AcDbEntity
  8
0
  6
Continuous
 62
     7
370
    15
100
AcDbSpline
210
0.0
220
0.0
230
1.0
 70
     8
 71
     3
 72
    32
 73
    28
 74
     0
 42
0.000000001
 43
0.00000001
 40
0.0
 40
0.0
 40
0.0
 40
0.0
 40
0.0014549677465762
 40
0.0637226560275137
 40
0.1253484618817419
 40
0.1661765495156451
 40
0.2074087198920879
 40
0.2493828508318358
 40
0.2800920166410542
 40
0.3119346716831436
 40
0.3422781402737308
 40
0.3741724026798743
 40
0.404244107623326
 40
0.4366734012929391
 40
0.4659033318047171
 40
0.4998277306982982
 40
0.5453396404599202
 40
0.5845952521200288
 40
0.6255298587116778
 40
0.6688861557798116
 40
0.7103916048553871
 40
0.7513516960784316
 40
0.7936065403876371
 40
0.835097833702085
 40
0.876350296064241
 40
0.9382003127118216
 40
1.0
 40
1.0
 40
1.0
 40
1.0
 10
153.9622195426336
 20
551.8807945154092
 30
0.0
 10
153.9603743809861
 20
551.8781611470998
 30
0.0
 10
153.8795625545688
 20
551.7628285403357
 30
0.0
 10
154.167791828406
 20
552.1734342474288
 30
0.0
 10
154.7749312050886
 20
553.0432785603355
 30
0.0
 10
155.6305560244308
 20
554.282978315177
 30
0.0
 10
156.5414322302762
 20
555.6185518184272
 30
0.0
 10
157.5324359610022
 20
557.0937256175991
 30
0.0
 10
158.549545628003
 20
558.6323506999544
 30
0.0
 10
159.5276356768281
 20
560.1363867941623
 30
0.0
 10
160.5847106361276
 20
561.7906828415161
 30
0.0
 10
161.6777691425063
 20
563.5375652260359
 30
0.0
 10
162.8445721459555
 20
565.4442139334267
 30
0.0
 10
164.0164340707627
 20
567.4110011200352
 30
0.0
 10
165.2691872574997
 20
569.5724423632465
 30
0.0
 10
166.7172414694541
 20
572.1569930989601
 30
0.0
 10
168.3184264545533
 20
575.1487792718063
 30
0.0
 10
170.0092227611907
 20
578.5002323264056
 30
0.0
 10
171.6449687432841
 20
581.9600941202791
 30
0.0
 10
173.2568593890118
 20
585.6558286597641
 30
0.0
 10
174.7865408761365
 20
589.52085644798
 30
0.0
 10
176.1946348005915
 20
593.508810211778
 30
0.0
 10
177.4620163185091
 20
597.6469299908341
 30
0.0
 10
178.5607668716252
 20
601.9348360173391
 30
0.0
 10
179.5898117479194
 20
607.0351745282524
 30
0.0
 10
180.4213348714198
 20
613.0203274838043
 30
0.0
 10
180.539863060797
 20
617.5893176069579
 30
0.0
 10
180.5991030331157
 20
619.8728828064376
 30
0.0
  0
LINE
  5
218
330
1F
100
AcDbEntity
  8
0
  6
Continuous
 62
     7
370
    15
100
AcDbLine
 10
412.6528282999
 20
747.8728828064
 30
0.0
 11
412.6528282999
 21
742.8728828064
 31
0.0
  0
LINE
  5
219
330
1F
100
AcDbEntity
  8
0
  6
Continuous
 62
     7
370
    15
100
AcDbLine
 10
417.8489807226
 20
747.8728828064
 30
0.0
 11
417.8489807226
 21
742.8728828064
 31
0.0
  0
LINE
  5
21A
330
1F
100
AcDbEntity
  8
0
  6
Continuous
 62
     7
370
    15
100
AcDbLine
 10
412.6528282999
 20
747.8728828064
 30
0.0
 11
417.8489807226
 21
747.8728828064
 31
0.0
  0
LINE
  5
21B
330
1F
100
AcDbEntity
  8
0
  6
Continuous
 62
     7
370
    15
100
AcDbLine
 10
402.2605234545
 20
747.8728828064
 30
0.0
 11
402.2605234545
 21
742.8728828064
 31
0.0
  0
LINE
  5
21C
330
1F
100
AcDbEntity
  8
0
  6
Continuous
 62
     7
370
    15
100
AcDbLine
 10
402.2605234545
 20
747.8728828064
 30
0.0
 11
412.6528282999
 21
747.8728828064
 31
0.0
  0
LINE
  5
21D
330
1F
100
AcDbEntity
  8
0
  6
Continuous
 62
     7
370
    15
100
AcDbLine
 10
397.0643710318
 20
747.8728828064
 30
0.0
 11
397.0643710318
 21
742.8728828064
 31
0.0
  0
LINE
  5
21E
330
1F
100
AcDbEntity
  8
0
  6
Continuous
 62
     7
370
    15
100
AcDbLine
 10
397.0643710318
 20
747.8728828064
 30
0.0
 11
402.2605234545
 21
747.8728828064
 31
0.0
  0
LINE
  5
21F
330
1F
100
AcDbEntity
  8
0
  6
Continuous
 62
     7
370
    15
100
AcDbLine
 10
145.0643710318
 20
747.8728828064
 30
0.0
 11
145.0643710318
 21
742.8728828064
 31
0.0
  0
LINE
  5
220
330
1F
100
AcDbEntity
  8
0
  6
Continuous
 62
     7
370
    15
100
AcDbLine
 10
150.2605234545
 20
747.8728828064
 30
0.0
 11
150.2605234545
 21
742.8728828064
 31
0.0
  0
LINE
  5
221
330
1F
100
AcDbEntity
  8
0
  6
Continuous
 62
     7
370
    15
100
AcDbLine
 10
145.0643710318
 20
747.8728828064
 30
0.0
 11
150.2605234545
 21
747.8728828064
 31
0.0
  0
LINE
  5
222
330
1F
100
AcDbEntity
  8
0
  6
Continuous
 62
     7
370
    15
100
AcDbLine
 10
160.6528282999
 20
747.8728828064
 30
0.0
 11
160.6528282999
 21
742.8728828064
 31
0.0
  0
LINE
  5
223
330
1F
100
AcDbEntity
  8
0
  6
Continuous
 62
     7
370
    15
100
AcDbLine
 10
150.2605234545
 20
747.8728828064
 30
0.0
 11
160.6528282999
 21
747.8728828064
 31
0.0
  0
LINE
  5
224
330
1F
100
AcDbEntity
  8
0
  6
Continuous
 62
     7
370
    15
100
AcDbLine
 10
165.8489807226
 20
747.8728828064
 30
0.0
 11
165.8489807226
 21
742.8728828064
 31
0.0
  0
LINE
  5
225
330
1F
100
AcDbEntity
  8
0
  6
Continuous
 62
     7
370
    15
100
AcDbLine
 10
160.6528282999
 20
747.8728828064
 30
0.0
 11
165.8489807226
 21
747.8728828064
 31
0.0
  0
LINE
  5
226
330
1F
100
AcDbEntity
  8
0
  6
Continuous
 62
     8
370
    15
100
AcDbLine
 10
123.4566758772
 20
619.8728828064
 30
0.0
 11
123.4566758772
 21
551.8728828064
 31
0.0
  0
LINE
  5
227
330
1F
100
AcDbEntity
  8
0
  6
Continuous
 62
     8
370
    15
100
AcDbLine
 10
123.4566758772
 20
687.8728828064
 30
0.0
 11
123.4566758772
 21
619.8728828064
 31
0.0
  0
LINE
  5
228
330
1F
100
AcDbEntity
  8
0
  6
Continuous
 62
     8
370
    15
100
AcDbLine
 10
439.4566758772
 20
551.8728828064
 30
0.0
 11
439.4566758772
 21
687.8728828064
 31
0.0
  0
LINE
  5
229
330
1F
100
AcDbEntity
  8
0
  6
Continuous
 62
     7
370
    15
100
AcDbLine
 10
964.381939675
 20
730.8728828064
 30
0.0
 11
963.381939675
 21
731.8728828064
 31
0.0
  0
LINE
  5
22A
330
1F
100
AcDbEntity
  8
0
  6
Continuous
 62
     7
370
    15
100
AcDbLine
 10
685.381939675
 20
731.8728828064
 30
0.0
 11
684.381939675
 21
730.8728828064
 31
0.0
  0
LINE
  5
22B
330
1F
100
AcDbEntity
  8
0
  6
Continuous
 62
     7
370
    15
100
AcDbLine
 10
964.381939675
 20
722.8728828064
 30
0.0
 11
964.381939675
 21
730.8728828064
 31
0.0
  0
LINE
  5
22C
330
1F
100
AcDbEntity
  8
0
  6
Continuous
 62
     7
370
    15
100
AcDbLine
 10
684.381939675
 20
730.8728828064
 30
0.0
 11
684.381939675
 21
722.8728828064
 31
0.0
  0
LINE
  5
22D
330
1F
100
AcDbEntity
  8
0
  6
Continuous
 62
     7
370
    15
100
AcDbLine
 10
964.381939675
 20
740.8728828064
 30
0.0
 11
962.381939675
 21
742.8728828064
 31
0.0
  0
LINE
  5
22E
330
1F
100
AcDbEntity
  8
0
  6
Continuous
 62
     7
370
    15
100
AcDbLine
 10
686.381939675
 20
742.8728828064
 30
0.0
 11
684.381939675
 21
740.8728828064
 31
0.0
  0
LINE
  5
22F
330
1F
100
AcDbEntity
  8
0
  6
Continuous
 62
     7
370
    15
100
AcDbLine
 10
964.381939675
 20
732.8728828064
 30
0.0
 11
964.381939675
 21
740.8728828064
 31
0.0
  0
LINE
  5
230
330
1F
100
AcDbEntity
  8
0
  6
Continuous
 62
     7
370
    15
100
AcDbLine
 10
684.381939675
 20
740.8728828064
 30
0.0
 11
684.381939675
 21
732.8728828064
 31
0.0
  0
LINE
  5
231
330
1F
100
AcDbEntity
  8
0
  6
Continuous
 62
     7
370
    15
100
AcDbLine
 10
684.381939675
 20
732.8728828064
 30
0.0
 11
685.381939675
 21
731.8728828064
 31
0.0
  0
LINE
  5
232
330
1F
100
AcDbEntity
  8
0
  6
Continuous
 62
     7
370
    15
100
AcDbLine
 10
963.381939675
 20
731.8728828064
 30
0.0
 11
964.381939675
 21
732.8728828064
 31
0.0
  0
LINE
  5
233
330
1F
100
AcDbEntity
  8
0
  6
Continuous
 62
     7
370
    15
100
AcDbLine
 10
684.381939675
 20
722.8728828064
 30
0.0
 11
686.381939675
 21
720.8728828064
 31
0.0
  0
LINE
  5
234
330
1F
100
AcDbEntity
  8
0
  6
Continuous
 62
     7
370
    15
100
AcDbLine
 10
962.381939675
 20
720.8728828064
 30
0.0
 11
964.381939675
 21
722.8728828064
 31
0.0
  0
LINE
  5
235
330
1F
100
AcDbEntity
  8
0
  6
Continuous
 62
     7
370
    15
100
AcDbLine
 10
701.881939675
 20
720.8728828064
 30
0.0
 11
706.881939675
 21
715.8728828064
 31
0.0
  0
LINE
  5
236
330
1F
100
AcDbEntity
  8
0
  6
Continuous
 62
     7
370
    15
100
AcDbLine
 10
941.881939675
 20
715.8728828064
 30
0.0
 11
946.881939675
 21
720.8728828064
 31
0.0
  0
LINE
  5
237
330
1F
100
AcDbEntity
  8
0
  6
Continuous
 62
     7
370
    15
100
AcDbLine
 10
941.881939675
 20
520.8728828064
 30
0.0
 11
941.881939675
 21
715.8728828064
 31
0.0
  0
LINE
  5
238
330
1F
100
AcDbEntity
  8
0
  6
Continuous
 62
     7
370
    15
100
AcDbLine
 10
706.881939675
 20
715.8728828064
 30
0.0
 11
706.881939675
 21
520.8728828064
 31
0.0
  0
LINE
  5
239
330
1F
100
AcDbEntity
  8
0
  6
Continuous
 62
     7
370
    15
100
AcDbLine
 10
706.881939675
 20
520.8728828064
 30
0.0
 11
711.881939675
 21
515.8728828064
 31
0.0
  0
LINE
  5
23A
330
1F
100
AcDbEntity
  8
0
  6
Continuous
 62
     7
370
    15
100
AcDbLine
 10
936.881939675
 20
515.8728828064
 30
0.0
 11
941.881939675
 21
520.8728828064
 31
0.0
  0
LINE
  5
23B
330
1F
100
AcDbEntity
  8
0
  6
Continuous
 62
     7
370
    15
100
AcDbLine
 10
709.381939675
 20
743.8728828064
 30
0.0
 11
709.381939675
 21
742.8728828064
 31
0.0
  0
LINE
  5
23C
330
1F
100
AcDbEntity
  8
0
  6
Continuous
 62
     7
370
    15
100
AcDbLine
 10
939.381939675
 20
742.8728828064
 30
0.0
 11
939.381939675
 21
743.8728828064
 31
0.0
  0
LINE
  5
23D
330
1F
100
AcDbEntity
  8
0
  6
Continuous
 62
     7
370
    15
100
AcDbLine
 10
939.381939675
 20
743.8728828064
 30
0.0
 11
937.381939675
 21
745.8728828064
 31
0.0
  0
LINE
  5
23E
330
1F
100
AcDbEntity
  8
0
  6
Continuous
 62
     7
370
    15
100
AcDbLine
 10
711.381939675
 20
745.8728828064
 30
0.0
 11
709.381939675
 21
743.8728828064
 31
0.0
  0
CIRCLE
  5
23F
330
1F
100
AcDbEntity
  8
0
  6
Continuous
 62
     7
370
    15
100
AcDbCircle
 10
824.381939675
 20
619.8728828064
 30
0.0
 40
74.99999999999989
  0
CIRCLE
  5
240
330
1F
100
AcDbEntity
  8
0
  6
Continuous
 62
     7
370
    15
100
AcDbCircle
 10
824.381939675
 20
619.8728828064
 30
0.0
 40
60.00000000000011
  0
CIRCLE
  5
241
330
1F
100
AcDbEntity
  8
0
  6
Continuous
 62
     7
370
    15
100
AcDbCircle
 10
824.381939675
 20
619.8728828064
 30
0.0
 40
58.00000000000011
  0
CIRCLE
  5
242
330
1F
100
AcDbEntity
  8
0
  6
Continuous
 62
     7
370
    15
100
AcDbCircle
 10
741.232781749
 20
585.4313738936
 30
0.0
 40
9.0
  0
CIRCLE
  5
243
330
1F
100
AcDbEntity
  8
0
  6
Continuous
 62
     7
370
    15
100
AcDbCircle
 10
907.531097601
 20
585.4313738936
 30
0.0
 40
9.0
  0
CIRCLE
  5
244
330
1F
100
AcDbEntity
  8
0
  6
Continuous
 62
     7
370
    15
100
AcDbCircle
 10
907.531097601
 20
654.3143917193
 30
0.0
 40
9.0
  0
CIRCLE
  5
245
330
1F
100
AcDbEntity
  8
0
  6
Continuous
 62
     7
370
    15
100
AcDbCircle
 10
741.232781749
 20
654.3143917193
 30
0.0
 40
9.0
  0
CIRCLE
  5
246
330
1F
100
AcDbEntity
  8
0
  6
Continuous
 62
     7
370
    15
100
AcDbCircle
 10
858.8234485879
 20
703.0220407325
 30
0.0
 40
9.0
  0
CIRCLE
  5
247
330
1F
100
AcDbEntity
  8
0
  6
Continuous
 62
     7
370
    15
100
AcDbCircle
 10
858.8234485879
 20
536.7237248804
 30
0.0
 40
9.0
  0
CIRCLE
  5
248
330
1F
100
AcDbEntity
  8
0
  6
Continuous
 62
     7
370
    15
100
AcDbCircle
 10
789.9404307622
 20
536.7237248804
 30
0.0
 40
9.0
  0
CIRCLE
  5
249
330
1F
100
AcDbEntity
  8
0
  6
Continuous
 62
     7
370
    15
100
AcDbCircle
 10
789.9404307622
 20
703.0220407325
 30
0.0
 40
9.0
  0
CIRCLE
  5
24A
330
1F
100
AcDbEntity
  8
0
  6
Continuous
 62
     7
370
    15
100
AcDbCircle
 10
824.381939675
 20
619.8728828064
 30
0.0
 40
109.9999999999999
  0
LINE
  5
24B
330
1F
100
AcDbEntity
  8
0
  6
Continuous
 62
     7
370
    15
100
AcDbLine
 10
684.381939675
 20
730.8728828064
 30
0.0
 11
964.381939675
 21
730.8728828064
 31
0.0
  0
LINE
  5
24C
330
1F
100
AcDbEntity
  8
0
  6
Continuous
 62
     7
370
    15
100
AcDbLine
 10
685.381939675
 20
731.8728828064
 30
0.0
 11
963.381939675
 21
731.8728828064
 31
0.0
  0
LINE
  5
24D
330
1F
100
AcDbEntity
  8
0
  6
Continuous
 62
     7
370
    15
100
AcDbLine
 10
684.381939675
 20
722.8728828064
 30
0.0
 11
785.7684705224
 21
722.8728828064
 31
0.0
  0
LINE
  5
24E
330
1F
100
AcDbEntity
  8
0
  6
Continuous
 62
     7
370
    15
100
AcDbLine
 10
862.9954088276
 20
722.8728828064
 30
0.0
 11
964.381939675
 21
722.8728828064
 31
0.0
  0
LINE
  5
24F
330
1F
100
AcDbEntity
  8
0
  6
Continuous
 62
     7
370
    15
100
AcDbLine
 10
686.381939675
 20
742.8728828064
 30
0.0
 11
962.381939675
 21
742.8728828064
 31
0.0
  0
LINE
  5
250
330
1F
100
AcDbEntity
  8
0
  6
Continuous
 62
     7
370
    15
100
AcDbLine
 10
964.381939675
 20
740.8728828064
 30
0.0
 11
684.381939675
 21
740.8728828064
 31
0.0
  0
LINE
  5
251
330
1F
100
AcDbEntity
  8
0
  6
Continuous
 62
     7
370
    15
100
AcDbLine
 10
684.381939675
 20
732.8728828064
 30
0.0
 11
964.381939675
 21
732.8728828064
 31
0.0
  0
LINE
  5
252
330
1F
100
AcDbEntity
  8
0
  6
Continuous
 62
     7
370
    15
100
AcDbLine
 10
962.381939675
 20
720.8728828064
 30
0.0
 11
867.959456814
 21
720.8728828064
 31
0.0
  0
LINE
  5
253
330
1F
100
AcDbEntity
  8
0
  6
Continuous
 62
     7
370
    15
100
AcDbLine
 10
780.804422536
 20
720.8728828064
 30
0.0
 11
686.381939675
 21
720.8728828064
 31
0.0
  0
LINE
  5
254
330
1F
100
AcDbEntity
  8
0
  6
Continuous
 62
     7
370
    15
100
AcDbLine
 10
815.381939675
 20
747.8728828064
 30
0.0
 11
815.381939675
 21
742.8728828064
 31
0.0
  0
LINE
  5
255
330
1F
100
AcDbEntity
  8
0
  6
Continuous
 62
     7
370
    15
100
AcDbLine
 10
824.381939675
 20
747.8728828064
 30
0.0
 11
824.381939675
 21
742.8728828064
 31
0.0
  0
LINE
  5
256
330
1F
100
AcDbEntity
  8
0
  6
Continuous
 62
     7
370
    15
100
AcDbLine
 10
815.381939675
 20
747.8728828064
 30
0.0
 11
824.381939675
 21
747.8728828064
 31
0.0
  0
LINE
  5
257
330
1F
100
AcDbEntity
  8
0
  6
Continuous
 62
     7
370
    15
100
AcDbLine
 10
833.381939675
 20
747.8728828064
 30
0.0
 11
833.381939675
 21
742.8728828064
 31
0.0
  0
LINE
  5
258
330
1F
100
AcDbEntity
  8
0
  6
Continuous
 62
     7
370
    15
100
AcDbLine
 10
824.381939675
 20
747.8728828064
 30
0.0
 11
833.381939675
 21
747.8728828064
 31
0.0
  0
LINE
  5
259
330
1F
100
AcDbEntity
  8
0
  6
Continuous
 62
     7
370
    15
100
AcDbLine
 10
941.881939675
 20
715.8728828064
 30
0.0
 11
878.0848260034
 21
715.8728828064
 31
0.0
  0
LINE
  5
25A
330
1F
100
AcDbEntity
  8
0
  6
Continuous
 62
     7
370
    15
100
AcDbLine
 10
770.6790533466
 20
715.8728828064
 30
0.0
 11
706.881939675
 21
715.8728828064
 31
0.0
  0
LINE
  5
25B
330
1F
100
AcDbEntity
  8
0
  6
Continuous
 62
     7
370
    15
100
AcDbLine
 10
706.881939675
 20
520.8728828064
 30
0.0
 11
776.4340512961
 21
520.8728828064
 31
0.0
  0
LINE
  5
25C
330
1F
100
AcDbEntity
  8
0
  6
Continuous
 62
     7
370
    15
100
AcDbLine
 10
872.329828054
 20
520.8728828064
 30
0.0
 11
941.881939675
 21
520.8728828064
 31
0.0
  0
LINE
  5
25D
330
1F
100
AcDbEntity
  8
0
  6
Continuous
 62
     7
370
    15
100
AcDbLine
 10
936.881939675
 20
515.8728828064
 30
0.0
 11
860.2148854094
 21
515.8728828064
 31
0.0
  0
LINE
  5
25E
330
1F
100
AcDbEntity
  8
0
  6
Continuous
 62
     7
370
    15
100
AcDbLine
 10
788.5489939407
 20
515.8728828064
 30
0.0
 11
711.881939675
 21
515.8728828064
 31
0.0
  0
LINE
  5
25F
330
1F
100
AcDbEntity
  8
0
  6
Continuous
 62
     7
370
    15
100
AcDbLine
 10
939.381939675
 20
743.8728828064
 30
0.0
 11
923.5155897494
 21
743.8728828064
 31
0.0
  0
LINE
  5
260
330
1F
100
AcDbEntity
  8
0
  6
Continuous
 62
     7
370
    15
100
AcDbLine
 10
903.4391984597
 20
743.8728828064
 30
0.0
 11
833.381939675
 21
743.8728828064
 31
0.0
  0
LINE
  5
261
330
1F
100
AcDbEntity
  8
0
  6
Continuous
 62
     7
370
    15
100
AcDbLine
 10
815.381939675
 20
743.8728828064
 30
0.0
 11
745.3246808904
 21
743.8728828064
 31
0.0
  0
LINE
  5
262
330
1F
100
AcDbEntity
  8
0
  6
Continuous
 62
     7
370
    15
100
AcDbLine
 10
725.2482896007
 20
743.8728828064
 30
0.0
 11
709.381939675
 21
743.8728828064
 31
0.0
  0
LINE
  5
263
330
1F
100
AcDbEntity
  8
0
  6
Continuous
 62
     7
370
    15
100
AcDbLine
 10
711.381939675
 20
745.8728828064
 30
0.0
 11
725.2482896007
 21
745.8728828064
 31
0.0
  0
LINE
  5
264
330
1F
100
AcDbEntity
  8
0
  6
Continuous
 62
     7
370
    15
100
AcDbLine
 10
745.3246808904
 20
745.8728828064
 30
0.0
 11
815.381939675
 21
745.8728828064
 31
0.0
  0
LINE
  5
265
330
1F
100
AcDbEntity
  8
0
  6
Continuous
 62
     7
370
    15
100
AcDbLine
 10
833.381939675
 20
745.8728828064
 30
0.0
 11
903.4391984597
 21
745.8728828064
 31
0.0
  0
LINE
  5
266
330
1F
100
AcDbEntity
  8
0
  6
Continuous
 62
     7
370
    15
100
AcDbLine
 10
923.5155897494
 20
745.8728828064
 30
0.0
 11
937.381939675
 21
745.8728828064
 31
0.0
  0
LINE
  5
267
330
1F
100
AcDbEntity
  8
0
  6
Continuous
 62
     7
370
    15
100
AcDbLine
 10
903.4391984597
 20
747.8728828064
 30
0.0
 11
903.4391984597
 21
742.8728828064
 31
0.0
  0
LINE
  5
268
330
1F
100
AcDbEntity
  8
0
  6
Continuous
 62
     7
370
    15
100
AcDbLine
 10
910.787667688
 20
747.8728828064
 30
0.0
 11
910.787667688
 21
742.8728828064
 31
0.0
  0
LINE
  5
269
330
1F
100
AcDbEntity
  8
0
  6
Continuous
 62
     7
370
    15
100
AcDbLine
 10
903.4391984597
 20
747.8728828064
 30
0.0
 11
910.787667688
 21
747.8728828064
 31
0.0
  0
LINE
  5
26A
330
1F
100
AcDbEntity
  8
0
  6
Continuous
 62
     7
370
    15
100
AcDbLine
 10
920.8258633329
 20
747.8728828064
 30
0.0
 11
920.8258633329
 21
742.8728828064
 31
0.0
  0
LINE
  5
26B
330
1F
100
AcDbEntity
  8
0
  6
Continuous
 62
     7
370
    15
100
AcDbLine
 10
910.787667688
 20
747.8728828064
 30
0.0
 11
920.8258633329
 21
747.8728828064
 31
0.0
  0
LINE
  5
26C
330
1F
100
AcDbEntity
  8
0
  6
Continuous
 62
     7
370
    15
100
AcDbLine
 10
727.9380160172
 20
747.8728828064
 30
0.0
 11
727.9380160172
 21
742.8728828064
 31
0.0
  0
LINE
  5
26D
330
1F
100
AcDbEntity
  8
0
  6
Continuous
 62
     7
370
    15
100
AcDbLine
 10
737.976211662
 20
747.8728828064
 30
0.0
 11
737.976211662
 21
742.8728828064
 31
0.0
  0
LINE
  5
26E
330
1F
100
AcDbEntity
  8
0
  6
Continuous
 62
     7
370
    15
100
AcDbLine
 10
727.9380160172
 20
747.8728828064
 30
0.0
 11
737.976211662
 21
747.8728828064
 31
0.0
  0
LINE
  5
26F
330
1F
100
AcDbEntity
  8
0
  6
Continuous
 62
     7
370
    15
100
AcDbLine
 10
745.3246808904
 20
747.8728828064
 30
0.0
 11
745.3246808904
 21
742.8728828064
 31
0.0
  0
LINE
  5
270
330
1F
100
AcDbEntity
  8
0
  6
Continuous
 62
     7
370
    15
100
AcDbLine
 10
737.976211662
 20
747.8728828064
 30
0.0
 11
745.3246808904
 21
747.8728828064
 31
0.0
  0
LINE
  5
271
330
1F
100
AcDbEntity
  8
0
  6
Continuous
 62
     7
370
    15
100
AcDbLine
 10
923.5155897494
 20
747.8728828064
 30
0.0
 11
923.5155897494
 21
742.8728828064
 31
0.0
  0
LINE
  5
272
330
1F
100
AcDbEntity
  8
0
  6
Continuous
 62
     7
370
    15
100
AcDbLine
 10
920.8258633329
 20
747.8728828064
 30
0.0
 11
923.5155897494
 21
747.8728828064
 31
0.0
  0
LINE
  5
273
330
1F
100
AcDbEntity
  8
0
  6
Continuous
 62
     7
370
    15
100
AcDbLine
 10
725.2482896007
 20
747.8728828064
 30
0.0
 11
725.2482896007
 21
742.8728828064
 31
0.0
  0
LINE
  5
274
330
1F
100
AcDbEntity
  8
0
  6
Continuous
 62
     7
370
    15
100
AcDbLine
 10
725.2482896007
 20
747.8728828064
 30
0.0
 11
727.9380160172
 21
747.8728828064
 31
0.0
  0
LINE
  5
275
330
1F
100
AcDbEntity
  8
0
  6
Continuous
 62
     7
370
    15
100
AcDbLine
 10
945.1857872523
 20
747.8728828064
 30
0.0
 11
945.1857872523
 21
742.8728828064
 31
0.0
  0
LINE
  5
276
330
1F
100
AcDbEntity
  8
0
  6
Continuous
 62
     7
370
    15
100
AcDbLine
 10
955.5780920977
 20
747.8728828064
 30
0.0
 11
955.5780920977
 21
742.8728828064
 31
0.0
  0
LINE
  5
277
330
1F
100
AcDbEntity
  8
0
  6
Continuous
 62
     7
370
    15
100
AcDbLine
 10
945.1857872523
 20
747.8728828064
 30
0.0
 11
955.5780920977
 21
747.8728828064
 31
0.0
  0
LINE
  5
278
330
1F
100
AcDbEntity
  8
0
  6
Continuous
 62
     7
370
    15
100
AcDbLine
 10
960.7742445204
 20
747.8728828064
 30
0.0
 11
960.7742445204
 21
742.8728828064
 31
0.0
  0
LINE
  5
279
330
1F
100
AcDbEntity
  8
0
  6
Continuous
 62
     7
370
    15
100
AcDbLine
 10
955.5780920977
 20
747.8728828064
 30
0.0
 11
960.7742445204
 21
747.8728828064
 31
0.0
  0
LINE
  5
27A
330
1F
100
AcDbEntity
  8
0
  6
Continuous
 62
     7
370
    15
100
AcDbLine
 10
939.9896348296
 20
747.8728828064
 30
0.0
 11
939.9896348296
 21
742.8728828064
 31
0.0
  0
LINE
  5
27B
330
1F
100
AcDbEntity
  8
0
  6
Continuous
 62
     7
370
    15
100
AcDbLine
 10
939.9896348296
 20
747.8728828064
 30
0.0
 11
945.1857872523
 21
747.8728828064
 31
0.0
  0
LINE
  5
27C
330
1F
100
AcDbEntity
  8
0
  6
Continuous
 62
     7
370
    15
100
AcDbLine
 10
693.1857872523
 20
747.8728828064
 30
0.0
 11
693.1857872523
 21
742.8728828064
 31
0.0
  0
LINE
  5
27D
330
1F
100
AcDbEntity
  8
0
  6
Continuous
 62
     7
370
    15
100
AcDbLine
 10
703.5780920977
 20
747.8728828064
 30
0.0
 11
703.5780920977
 21
742.8728828064
 31
0.0
  0
LINE
  5
27E
330
1F
100
AcDbEntity
  8
0
  6
Continuous
 62
     7
370
    15
100
AcDbLine
 10
693.1857872523
 20
747.8728828064
 30
0.0
 11
703.5780920977
 21
747.8728828064
 31
0.0
  0
LINE
  5
27F
330
1F
100
AcDbEntity
  8
0
  6
Continuous
 62
     7
370
    15
100
AcDbLine
 10
687.9896348296
 20
747.8728828064
 30
0.0
 11
687.9896348296
 21
742.8728828064
 31
0.0
  0
LINE
  5
280
330
1F
100
AcDbEntity
  8
0
  6
Continuous
 62
     7
370
    15
100
AcDbLine
 10
687.9896348296
 20
747.8728828064
 30
0.0
 11
693.1857872523
 21
747.8728828064
 31
0.0
  0
LINE
  5
281
330
1F
100
AcDbEntity
  8
0
  6
Continuous
 62
     7
370
    15
100
AcDbLine
 10
708.7742445204
 20
747.8728828064
 30
0.0
 11
708.7742445204
 21
742.8728828064
 31
0.0
  0
LINE
  5
282
330
1F
100
AcDbEntity
  8
0
  6
Continuous
 62
     7
370
    15
100
AcDbLine
 10
703.5780920977
 20
747.8728828064
 30
0.0
 11
708.7742445204
 21
747.8728828064
 31
0.0
  0
LINE
  5
283
330
1F
100
AcDbEntity
  8
0
  6
Continuous
 62
     7
370
    15
100
AcDbLine
 10
108.4566758772
 20
141.7367439794
 30
0.0
 11
113.4566758772
 21
146.7367439794
 31
0.0
  0
LINE
  5
284
330
1F
100
AcDbEntity
  8
0
  6
Continuous
 62
     7
370
    15
100
AcDbLine
 10
113.4566758772
 20
356.7367439794
 30
0.0
 11
108.4566758772
 21
361.7367439794
 31
0.0
  0
LINE
  5
285
330
1F
100
AcDbEntity
  8
0
  6
Continuous
 62
     7
370
    15
100
AcDbLine
 10
454.4566758772
 20
361.7367439794
 30
0.0
 11
449.4566758772
 21
356.7367439794
 31
0.0
  0
LINE
  5
286
330
1F
100
AcDbEntity
  8
0
  6
Continuous
 62
     7
370
    15
100
AcDbLine
 10
449.4566758772
 20
146.7367439794
 30
0.0
 11
454.4566758772
 21
141.7367439794
 31
0.0
  0
LINE
  5
287
330
1F
100
AcDbEntity
  8
0
  6
Continuous
 62
     7
370
    15
100
AcDbLine
 10
469.4566758772
 20
361.7367439794
 30
0.0
 11
454.4566758772
 21
361.7367439794
 31
0.0
  0
LINE
  5
288
330
1F
100
AcDbEntity
  8
0
  6
Continuous
 62
     7
370
    15
100
AcDbLine
 10
454.4566758772
 20
141.7367439794
 30
0.0
 11
469.4566758772
 21
141.7367439794
 31
0.0
  0
LINE
  5
289
330
1F
100
AcDbEntity
  8
0
  6
Continuous
 62
     7
370
    15
100
AcDbLine
 10
93.4566758772
 20
141.7367439794
 30
0.0
 11
108.4566758772
 21
141.7367439794
 31
0.0
  0
LINE
  5
28A
330
1F
100
AcDbEntity
  8
0
  6
Continuous
 62
     7
370
    15
100
AcDbLine
 10
108.4566758772
 20
361.7367439794
 30
0.0
 11
93.4566758772
 21
361.7367439794
 31
0.0
  0
ARC
  5
28B
330
1F
100
AcDbEntity
  8
0
  6
Continuous
 62
     7
370
    15
100
AcDbCircle
 10
439.4566758772
 20
329.7367439794
 30
0.0
 40
10.0
100
AcDbArc
 50
270.0
 51
0.0
  0
ARC
  5
28C
330
1F
100
AcDbEntity
  8
0
  6
Continuous
 62
     7
370
    15
100
AcDbCircle
 10
439.4566758772
 20
173.7367439794
 30
0.0
 40
10.0
100
AcDbArc
 50
0.0
 51
90.0
  0
ARC
  5
28D
330
1F
100
AcDbEntity
  8
0
  6
Continuous
 62
     7
370
    15
100
AcDbCircle
 10
123.4566758772
 20
173.7367439794
 30
0.0
 40
10.0
100
AcDbArc
 50
90.0
 51
180.0
  0
ARC
  5
28E
330
1F
100
AcDbEntity
  8
0
  6
Continuous
 62
     7
370
    15
100
AcDbCircle
 10
123.4566758772
 20
329.7367439794
 30
0.0
 40
10.0
100
AcDbArc
 50
180.0
 51
270.0
  0
LINE
  5
28F
330
1F
100
AcDbEntity
  8
0
  6
Continuous
 62
     7
370
    15
100
AcDbLine
 10
471.4566758772
 20
326.7367439794
 30
0.0
 11
469.4566758772
 21
326.7367439794
 31
0.0
  0
LINE
  5
290
330
1F
100
AcDbEntity
  8
0
  6
Continuous
 62
     7
370
    15
100
AcDbLine
 10
469.4566758772
 20
176.7367439794
 30
0.0
 11
471.4566758772
 21
176.7367439794
 31
0.0
  0
LINE
  5
291
330
1F
100
AcDbEntity
  8
0
  6
Continuous
 62
     7
370
    15
100
AcDbLine
 10
91.4566758772
 20
176.7367439794
 30
0.0
 11
93.4566758772
 21
176.7367439794
 31
0.0
  0
LINE
  5
292
330
1F
100
AcDbEntity
  8
0
  6
Continuous
 62
     7
370
    15
100
AcDbLine
 10
93.4566758772
 20
326.7367439794
 30
0.0
 11
91.4566758772
 21
326.7367439794
 31
0.0
  0
LINE
  5
293
330
1F
100
AcDbEntity
  8
0
  6
Continuous
 62
     7
370
    15
100
AcDbLine
 10
403.8331442034
 20
183.7367439794
 30
0.0
 11
439.4566758772
 21
183.7367439794
 31
0.0
  0
LINE
  5
294
330
1F
100
AcDbEntity
  8
0
  6
Continuous
 62
     7
370
    15
100
AcDbLine
 10
439.4566758772
 20
319.7367439794
 30
0.0
 11
403.8331442034
 21
319.7367439794
 31
0.0
  0
LINE
  5
295
330
1F
100
AcDbEntity
  8
0
  6
Continuous
 62
     7
370
    15
100
AcDbLine
 10
123.4566758772
 20
183.7367439794
 30
0.0
 11
159.080207551
 21
183.7367439794
 31
0.0
  0
LINE
  5
296
330
1F
100
AcDbEntity
  8
0
  6
Continuous
 62
     7
370
    15
100
AcDbLine
 10
159.080207551
 20
319.7367439794
 30
0.0
 11
123.4566758772
 21
319.7367439794
 31
0.0
  0
LINE
  5
297
330
1F
100
AcDbEntity
  8
0
  6
Continuous
 62
     7
370
    15
100
AcDbLine
 10
290.4566758772
 20
372.5405915567
 30
0.0
 11
290.4566758772
 21
382.9328964021
 31
0.0
  0
LINE
  5
298
330
1F
100
AcDbEntity
  8
0
  6
Continuous
 62
     7
370
    15
100
AcDbLine
 10
281.4566758772
 20
367.344439134
 30
0.0
 11
290.4566758772
 21
372.5405915567
 31
0.0
  0
LINE
  5
299
330
1F
100
AcDbEntity
  8
0
  6
Continuous
 62
     7
370
    15
100
AcDbLine
 10
272.4566758772
 20
372.5405915567
 30
0.0
 11
281.4566758772
 21
367.344439134
 31
0.0
  0
LINE
  5
29A
330
1F
100
AcDbEntity
  8
0
  6
Continuous
 62
     7
370
    15
100
AcDbLine
 10
272.4566758772
 20
382.9328964021
 30
0.0
 11
272.4566758772
 21
372.5405915567
 31
0.0
  0
LINE
  5
29B
330
1F
100
AcDbEntity
  8
0
  6
Continuous
 62
     7
370
    15
100
AcDbLine
 10
281.4566758772
 20
388.1290488248
 30
0.0
 11
272.4566758772
 21
382.9328964021
 31
0.0
  0
LINE
  5
29C
330
1F
100
AcDbEntity
  8
0
  6
Continuous
 62
     7
370
    15
100
AcDbLine
 10
290.4566758772
 20
382.9328964021
 30
0.0
 11
281.4566758772
 21
388.1290488248
 31
0.0
  0
LINE
  5
29D
330
1F
100
AcDbEntity
  8
0
  6
Continuous
 62
     7
370
    15
100
AcDbLine
 10
373.2418567232
 20
330.7940027641
 30
0.0
 11
380.5903259516
 21
338.1424719924
 31
0.0
  0
LINE
  5
29E
330
1F
100
AcDbEntity
  8
0
  6
Continuous
 62
     7
370
    15
100
AcDbLine
 10
363.2036610784
 20
333.4837291806
 30
0.0
 11
373.2418567232
 21
330.7940027641
 31
0.0
  0
LINE
  5
29F
330
1F
100
AcDbEntity
  8
0
  6
Continuous
 62
     7
370
    15
100
AcDbLine
 10
360.5139346619
 20
343.5219248254
 30
0.0
 11
363.2036610784
 21
333.4837291806
 31
0.0
  0
LINE
  5
2A0
330
1F
100
AcDbEntity
  8
0
  6
Continuous
 62
     7
370
    15
100
AcDbLine
 10
367.8624038902
 20
350.8703940538
 30
0.0
 11
360.5139346619
 21
343.5219248254
 31
0.0
  0
LINE
  5
2A1
330
1F
100
AcDbEntity
  8
0
  6
Continuous
 62
     7
370
    15
100
AcDbLine
 10
377.9005995351
 20
348.1806676373
 30
0.0
 11
367.8624038902
 21
350.8703940538
 31
0.0
  0
LINE
  5
2A2
330
1F
100
AcDbEntity
  8
0
  6
Continuous
 62
     7
370
    15
100
AcDbLine
 10
380.5903259516
 20
338.1424719924
 30
0.0
 11
377.9005995351
 21
348.1806676373
 31
0.0
  0
LINE
  5
2A3
330
1F
100
AcDbEntity
  8
0
  6
Continuous
 62
     7
370
    15
100
AcDbLine
 10
202.3994170926
 20
343.5219248254
 30
0.0
 11
195.0509478642
 21
350.8703940538
 31
0.0
  0
LINE
  5
2A4
330
1F
100
AcDbEntity
  8
0
  6
Continuous
 62
     7
370
    15
100
AcDbLine
 10
189.6714950312
 20
330.7940027641
 30
0.0
 11
199.7096906761
 21
333.4837291806
 31
0.0
  0
LINE
  5
2A5
330
1F
100
AcDbEntity
  8
0
  6
Continuous
 62
     7
370
    15
100
AcDbLine
 10
182.3230258029
 20
338.1424719924
 30
0.0
 11
189.6714950312
 21
330.7940027641
 31
0.0
  0
LINE
  5
2A6
330
1F
100
AcDbEntity
  8
0
  6
Continuous
 62
     7
370
    15
100
AcDbLine
 10
185.0127522194
 20
348.1806676373
 30
0.0
 11
182.3230258029
 21
338.1424719924
 31
0.0
  0
LINE
  5
2A7
330
1F
100
AcDbEntity
  8
0
  6
Continuous
 62
     7
370
    15
100
AcDbLine
 10
195.0509478642
 20
350.8703940538
 30
0.0
 11
185.0127522194
 21
348.1806676373
 31
0.0
  0
LINE
  5
2A8
330
1F
100
AcDbEntity
  8
0
  6
Continuous
 62
     7
370
    15
100
AcDbLine
 10
199.7096906761
 20
333.4837291806
 30
0.0
 11
202.3994170926
 21
343.5219248254
 31
0.0
  0
LINE
  5
2A9
330
1F
100
AcDbEntity
  8
0
  6
Continuous
 62
     7
370
    15
100
AcDbLine
 10
402.2605234545
 20
242.7367439794
 30
0.0
 11
412.6528282999
 21
242.7367439794
 31
0.0
  0
LINE
  5
2AA
330
1F
100
AcDbEntity
  8
0
  6
Continuous
 62
     7
370
    15
100
AcDbLine
 10
397.0643710318
 20
251.7367439794
 30
0.0
 11
402.2605234545
 21
242.7367439794
 31
0.0
  0
LINE
  5
2AB
330
1F
100
AcDbEntity
  8
0
  6
Continuous
 62
     7
370
    15
100
AcDbLine
 10
402.2605234545
 20
260.7367439794
 30
0.0
 11
397.0643710318
 21
251.7367439794
 31
0.0
  0
LINE
  5
2AC
330
1F
100
AcDbEntity
  8
0
  6
Continuous
 62
     7
370
    15
100
AcDbLine
 10
417.8489807226
 20
251.7367439794
 30
0.0
 11
412.6528282999
 21
260.7367439794
 31
0.0
  0
LINE
  5
2AD
330
1F
100
AcDbEntity
  8
0
  6
Continuous
 62
     7
370
    15
100
AcDbLine
 10
412.6528282999
 20
242.7367439794
 30
0.0
 11
417.8489807226
 21
251.7367439794
 31
0.0
  0
LINE
  5
2AE
330
1F
100
AcDbEntity
  8
0
  6
Continuous
 62
     7
370
    15
100
AcDbLine
 10
412.6528282999
 20
260.7367439794
 30
0.0
 11
402.2605234545
 21
260.7367439794
 31
0.0
  0
LINE
  5
2AF
330
1F
100
AcDbEntity
  8
0
  6
Continuous
 62
     7
370
    15
100
AcDbLine
 10
160.6528282999
 20
260.7367439794
 30
0.0
 11
150.2605234545
 21
260.7367439794
 31
0.0
  0
LINE
  5
2B0
330
1F
100
AcDbEntity
  8
0
  6
Continuous
 62
     7
370
    15
100
AcDbLine
 10
160.6528282999
 20
242.7367439794
 30
0.0
 11
165.8489807226
 21
251.7367439794
 31
0.0
  0
LINE
  5
2B1
330
1F
100
AcDbEntity
  8
0
  6
Continuous
 62
     7
370
    15
100
AcDbLine
 10
150.2605234545
 20
242.7367439794
 30
0.0
 11
160.6528282999
 21
242.7367439794
 31
0.0
  0
LINE
  5
2B2
330
1F
100
AcDbEntity
  8
0
  6
Continuous
 62
     7
370
    15
100
AcDbLine
 10
145.0643710318
 20
251.7367439794
 30
0.0
 11
150.2605234545
 21
242.7367439794
 31
0.0
  0
LINE
  5
2B3
330
1F
100
AcDbEntity
  8
0
  6
Continuous
 62
     7
370
    15
100
AcDbLine
 10
165.8489807226
 20
251.7367439794
 30
0.0
 11
160.6528282999
 21
260.7367439794
 31
0.0
  0
LINE
  5
2B4
330
1F
100
AcDbEntity
  8
0
  6
Continuous
 62
     7
370
    15
100
AcDbLine
 10
150.2605234545
 20
260.7367439794
 30
0.0
 11
145.0643710318
 21
251.7367439794
 31
0.0
  0
LINE
  5
2B5
330
1F
100
AcDbEntity
  8
0
  6
Continuous
 62
     7
370
    15
100
AcDbLine
 10
189.6714950312
 20
172.6794851948
 30
0.0
 11
182.3230258029
 21
165.3310159664
 31
0.0
  0
LINE
  5
2B6
330
1F
100
AcDbEntity
  8
0
  6
Continuous
 62
     7
370
    15
100
AcDbLine
 10
195.0509478642
 20
152.6030939051
 30
0.0
 11
202.3994170926
 21
159.9515631334
 31
0.0
  0
LINE
  5
2B7
330
1F
100
AcDbEntity
  8
0
  6
Continuous
 62
     7
370
    15
100
AcDbLine
 10
185.0127522194
 20
155.2928203216
 30
0.0
 11
195.0509478642
 21
152.6030939051
 31
0.0
  0
LINE
  5
2B8
330
1F
100
AcDbEntity
  8
0
  6
Continuous
 62
     7
370
    15
100
AcDbLine
 10
182.3230258029
 20
165.3310159664
 30
0.0
 11
185.0127522194
 21
155.2928203216
 31
0.0
  0
LINE
  5
2B9
330
1F
100
AcDbEntity
  8
0
  6
Continuous
 62
     7
370
    15
100
AcDbLine
 10
202.3994170926
 20
159.9515631334
 30
0.0
 11
199.7096906761
 21
169.9897587783
 31
0.0
  0
LINE
  5
2BA
330
1F
100
AcDbEntity
  8
0
  6
Continuous
 62
     7
370
    15
100
AcDbLine
 10
199.7096906761
 20
169.9897587783
 30
0.0
 11
189.6714950312
 21
172.6794851948
 31
0.0
  0
LINE
  5
2BB
330
1F
100
AcDbEntity
  8
0
  6
Continuous
 62
     7
370
    15
100
AcDbLine
 10
360.5139346619
 20
159.9515631334
 30
0.0
 11
367.8624038902
 21
152.6030939051
 31
0.0
  0
LINE
  5
2BC
330
1F
100
AcDbEntity
  8
0
  6
Continuous
 62
     7
370
    15
100
AcDbLine
 10
380.5903259516
 20
165.3310159664
 30
0.0
 11
373.2418567232
 21
172.6794851948
 31
0.0
  0
LINE
  5
2BD
330
1F
100
AcDbEntity
  8
0
  6
Continuous
 62
     7
370
    15
100
AcDbLine
 10
377.9005995351
 20
155.2928203216
 30
0.0
 11
380.5903259516
 21
165.3310159664
 31
0.0
  0
LINE
  5
2BE
330
1F
100
AcDbEntity
  8
0
  6
Continuous
 62
     7
370
    15
100
AcDbLine
 10
367.8624038902
 20
152.6030939051
 30
0.0
 11
377.9005995351
 21
155.2928203216
 31
0.0
  0
LINE
  5
2BF
330
1F
100
AcDbEntity
  8
0
  6
Continuous
 62
     7
370
    15
100
AcDbLine
 10
373.2418567232
 20
172.6794851948
 30
0.0
 11
363.2036610784
 21
169.9897587783
 31
0.0
  0
LINE
  5
2C0
330
1F
100
AcDbEntity
  8
0
  6
Continuous
 62
     7
370
    15
100
AcDbLine
 10
363.2036610784
 20
169.9897587783
 30
0.0
 11
360.5139346619
 21
159.9515631334
 31
0.0
  0
LINE
  5
2C1
330
1F
100
AcDbEntity
  8
0
  6
Continuous
 62
     7
370
    15
100
AcDbLine
 10
281.4566758772
 20
136.1290488248
 30
0.0
 11
272.4566758772
 21
130.9328964021
 31
0.0
  0
LINE
  5
2C2
330
1F
100
AcDbEntity
  8
0
  6
Continuous
 62
     7
370
    15
100
AcDbLine
 10
290.4566758772
 20
130.9328964021
 30
0.0
 11
281.4566758772
 21
136.1290488248
 31
0.0
  0
LINE
  5
2C3
330
1F
100
AcDbEntity
  8
0
  6
Continuous
 62
     7
370
    15
100
AcDbLine
 10
290.4566758772
 20
120.5405915567
 30
0.0
 11
290.4566758772
 21
130.9328964021
 31
0.0
  0
LINE
  5
2C4
330
1F
100
AcDbEntity
  8
0
  6
Continuous
 62
     7
370
    15
100
AcDbLine
 10
281.4566758772
 20
115.344439134
 30
0.0
 11
290.4566758772
 21
120.5405915567
 31
0.0
  0
LINE
  5
2C5
330
1F
100
AcDbEntity
  8
0
  6
Continuous
 62
     7
370
    15
100
AcDbLine
 10
272.4566758772
 20
120.5405915567
 30
0.0
 11
281.4566758772
 21
115.344439134
 31
0.0
  0
LINE
  5
2C6
330
1F
100
AcDbEntity
  8
0
  6
Continuous
 62
     7
370
    15
100
AcDbLine
 10
272.4566758772
 20
130.9328964021
 30
0.0
 11
272.4566758772
 21
120.5405915567
 31
0.0
  0
CIRCLE
  5
2C7
330
1F
100
AcDbEntity
  8
0
  6
Continuous
 62
     7
370
    15
100
AcDbCircle
 10
281.4566758772
 20
251.7367439794
 30
0.0
 40
113.0
  0
CIRCLE
  5
2C8
330
1F
100
AcDbEntity
  8
0
  6
Continuous
 62
     7
370
    15
100
AcDbCircle
 10
281.4566758772
 20
251.7367439794
 30
0.0
 40
115.0
  0
CIRCLE
  5
2C9
330
1F
100
AcDbEntity
  8
0
  6
Continuous
 62
     7
370
    15
100
AcDbCircle
 10
281.4566758772
 20
251.7367439794
 30
0.0
 40
138.0
  0
CIRCLE
  5
2CA
330
1F
100
AcDbEntity
  8
0
  6
Continuous
 62
     7
370
    15
100
AcDbCircle
 10
281.4566758772
 20
251.7367439794
 30
0.0
 40
140.0
  0
LINE
  5
2CB
330
1F
100
AcDbEntity
  8
0
  6
Continuous
 62
     7
370
    15
100
AcDbLine
 10
108.4566758772
 20
141.7367439794
 30
0.0
 11
108.4566758772
 21
361.7367439794
 31
0.0
  0
LINE
  5
2CC
330
1F
100
AcDbEntity
  8
0
  6
Continuous
 62
     7
370
    15
100
AcDbLine
 10
113.4566758772
 20
356.7367439794
 30
0.0
 11
113.4566758772
 21
146.7367439794
 31
0.0
  0
LINE
  5
2CD
330
1F
100
AcDbEntity
  8
0
  6
Continuous
 62
     7
370
    15
100
AcDbLine
 10
449.4566758772
 20
146.7367439794
 30
0.0
 11
449.4566758772
 21
356.7367439794
 31
0.0
  0
LINE
  5
2CE
330
1F
100
AcDbEntity
  8
0
  6
Continuous
 62
     7
370
    15
100
AcDbLine
 10
454.4566758772
 20
361.7367439794
 30
0.0
 11
454.4566758772
 21
141.7367439794
 31
0.0
  0
LINE
  5
2CF
330
1F
100
AcDbEntity
  8
0
  6
Continuous
 62
     7
370
    15
100
AcDbLine
 10
469.4566758772
 20
141.7367439794
 30
0.0
 11
469.4566758772
 21
361.7367439794
 31
0.0
  0
LINE
  5
2D0
330
1F
100
AcDbEntity
  8
0
  6
Continuous
 62
     7
370
    15
100
AcDbLine
 10
93.4566758772
 20
141.7367439794
 30
0.0
 11
93.4566758772
 21
361.7367439794
 31
0.0
  0
LINE
  5
2D1
330
1F
100
AcDbEntity
  8
0
  6
Continuous
 62
     7
370
    15
100
AcDbLine
 10
471.4566758772
 20
176.7367439794
 30
0.0
 11
471.4566758772
 21
326.7367439794
 31
0.0
  0
LINE
  5
2D2
330
1F
100
AcDbEntity
  8
0
  6
Continuous
 62
     7
370
    15
100
AcDbLine
 10
91.4566758772
 20
176.7367439794
 30
0.0
 11
91.4566758772
 21
326.7367439794
 31
0.0
  0
LINE
  5
2D3
330
1F
100
AcDbEntity
  8
0
  6
Continuous
 62
     8
370
    15
100
AcDbLine
 10
439.4566758772
 20
183.7367439794
 30
0.0
 11
439.4566758772
 21
319.7367439794
 31
0.0
  0
LINE
  5
2D4
330
1F
100
AcDbEntity
  8
0
  6
Continuous
 62
     8
370
    15
100
AcDbLine
 10
123.4566758772
 20
319.7367439794
 30
0.0
 11
123.4566758772
 21
183.7367439794
 31
0.0
  0
LINE
  5
2D5
330
1F
100
AcDbEntity
  8
0
  6
Continuous
 62
     7
370
    15
100
AcDbLine
 10
1024.6442978722
 20
239.0109138772
 30
0.0
 11
1014.0376961544
 21
245.1339747158
 31
0.0
  0
LINE
  5
2D6
330
1F
100
AcDbEntity
  8
0
  6
Continuous
 62
     7
370
    15
100
AcDbLine
 10
904.0466355644
 20
54.6032249921
 30
0.0
 11
914.6532372822
 21
48.4801641534
 31
0.0
  0
LINE
  5
2D7
330
1F
100
AcDbEntity
  8
0
  6
Continuous
 62
     7
370
    15
100
AcDbLine
 10
935.7237276221
 20
376.4286200976
 30
0.0
 11
934.9130960455
 21
376.8967398616
 31
0.0
  0
LINE
  5
2D8
330
1F
100
AcDbEntity
  8
0
  6
Continuous
 62
     7
370
    15
100
AcDbLine
 10
738.5122893827
 20
376.8967398616
 30
0.0
 11
737.701657806
 21
376.4286200976
 31
0.0
  0
LINE
  5
2D9
330
1F
100
AcDbEntity
  8
0
  6
Continuous
 62
     7
370
    15
100
AcDbLine
 10
976.7126927141
 20
312.7570132697
 30
0.0
 11
976.7126927141
 21
319.2893397648
 31
0.0
  0
LINE
  5
2DA
330
1F
100
AcDbEntity
  8
0
  6
Continuous
 62
     7
370
    15
100
AcDbLine
 10
696.7126927141
 20
319.2893397648
 30
0.0
 11
696.7126927141
 21
312.7570132697
 31
0.0
  0
LINE
  5
2DB
330
1F
100
AcDbEntity
  8
0
  6
Continuous
 62
     7
370
    15
100
AcDbLine
 10
959.0295241382
 20
239.6807900648
 30
0.0
 11
955.4945648559
 21
237.639438062
 31
0.0
  0
LINE
  5
2DC
330
1F
100
AcDbEntity
  8
0
  6
Continuous
 62
     7
370
    15
100
AcDbLine
 10
881.2604199288
 20
109.0481942628
 30
0.0
 11
881.2604199288
 21
104.9661537037
 31
0.0
  0
LINE
  5
2DD
330
1F
100
AcDbEntity
  8
0
  6
Continuous
 62
     7
370
    15
100
AcDbLine
 10
737.701657806
 20
255.6177329369
 30
0.0
 11
738.408879484
 21
255.2093298417
 31
0.0
  0
LINE
  5
2DE
330
1F
100
AcDbEntity
  8
0
  6
Continuous
 62
     7
370
    15
100
AcDbLine
 10
935.0165059442
 20
255.2093298417
 30
0.0
 11
935.7237276221
 21
255.6177329369
 31
0.0
  0
LINE
  5
2DF
330
1F
100
AcDbEntity
  8
0
  6
Continuous
 62
     7
370
    15
100
AcDbLine
 10
976.7126927141
 20
304.5916051509
 30
0.0
 11
976.7126927141
 21
311.1239316459
 31
0.0
  0
LINE
  5
2E0
330
1F
100
AcDbEntity
  8
0
  6
Continuous
 62
     7
370
    15
100
AcDbLine
 10
696.7126927141
 20
311.1239316459
 30
0.0
 11
696.7126927141
 21
304.5916051509
 31
0.0
  0
LINE
  5
2E1
330
1F
100
AcDbEntity
  8
0
  6
Continuous
 62
     7
370
    15
100
AcDbLine
 10
737.7016578061
 20
247.4523248181
 30
0.0
 11
739.1161011619
 21
246.6355186276
 31
0.0
  0
LINE
  5
2E2
330
1F
100
AcDbEntity
  8
0
  6
Continuous
 62
     7
370
    15
100
AcDbLine
 10
934.3092842663
 20
246.6355186276
 30
0.0
 11
935.7237276221
 21
247.4523248181
 31
0.0
  0
LINE
  5
2E3
330
1F
100
AcDbEntity
  8
0
  6
Continuous
 62
     7
370
    15
100
AcDbLine
 10
918.0431856743
 20
368.6747996167
 30
0.0
 11
916.6287423185
 21
369.4916058071
 31
0.0
  0
LINE
  5
2E4
330
1F
100
AcDbEntity
  8
0
  6
Continuous
 62
     7
370
    15
100
AcDbLine
 10
756.7966431097
 20
369.4916058071
 30
0.0
 11
755.3821997539
 21
368.6747996167
 31
0.0
  0
LINE
  5
2E5
330
1F
100
AcDbEntity
  8
0
  6
Continuous
 62
     7
370
    15
100
AcDbLine
 10
721.7126927141
 20
321.7389622005
 30
0.0
 11
721.7126927141
 21
320.9224213886
 31
0.0
  0
LINE
  5
2E6
330
1F
100
AcDbEntity
  8
0
  6
Continuous
 62
     7
370
    15
100
AcDbLine
 10
951.7126927141
 20
320.9224213886
 30
0.0
 11
951.7126927141
 21
321.7389622005
 31
0.0
  0
LINE
  5
2E7
330
1F
100
AcDbEntity
  8
0
  6
Continuous
 62
     7
370
    15
100
AcDbLine
 10
1008.5599336134
 20
207.882795582
 30
0.0
 11
1007.145720051
 21
208.6992036938
 31
0.0
  0
LINE
  5
2E8
330
1F
100
AcDbEntity
  8
0
  6
Continuous
 62
     7
370
    15
100
AcDbLine
 10
932.1518151033
 20
78.7918743367
 30
0.0
 11
933.5660286657
 21
77.9754662249
 31
0.0
  0
LINE
  5
2E9
330
1F
100
AcDbEntity
  8
0
  6
Continuous
 62
     7
370
    15
100
AcDbLine
 10
954.2126927141
 20
236.8864090084
 30
0.0
 11
954.2126927141
 21
260.6503772122
 31
0.0
  0
LINE
  5
2EA
330
1F
100
AcDbEntity
  8
0
  6
Continuous
 62
     7
370
    15
100
AcDbLine
 10
719.2126927141
 20
260.6503772122
 30
0.0
 11
719.2126927141
 21
139.6503611499
 31
0.0
  0
LINE
  5
2EB
330
1F
100
AcDbEntity
  8
0
  6
Continuous
 62
     7
370
    15
100
AcDbLine
 10
951.9734000763
 20
235.3731947759
 30
0.0
 11
950.6224264433
 21
238.7007711843
 31
0.0
  0
LINE
  5
2EC
330
1F
100
AcDbEntity
  8
0
  6
Continuous
 62
     7
370
    15
100
AcDbLine
 10
753.6141455591
 20
91.6941794421
 30
0.0
 11
757.1502539487
 21
89.652163966
 31
0.0
  0
LINE
  5
2ED
330
1F
100
AcDbEntity
  8
0
  6
Continuous
 62
     7
370
    15
100
AcDbLine
 10
719.0525849932
 20
211.5122607446
 30
0.0
 11
719.2126927141
 21
211.1179274437
 31
0.0
  0
LINE
  5
2EE
330
1F
100
AcDbEntity
  8
0
  6
Continuous
 62
     7
370
    15
100
AcDbLine
 10
714.39586129
 20
201.2950129885
 30
0.0
 11
717.9308205723
 21
203.3363649912
 31
0.0
  0
LINE
  5
2EF
330
1F
100
AcDbEntity
  8
0
  6
Continuous
 62
     7
370
    15
100
AcDbLine
 10
648.781087556
 20
201.9648891761
 30
0.0
 11
659.3876892738
 21
195.8418283374
 31
0.0
  0
LINE
  5
2F0
330
1F
100
AcDbEntity
  8
0
  6
Continuous
 62
     7
370
    15
100
AcDbLine
 10
764.9069478763
 20
388.9540943994
 30
0.0
 11
758.772148146
 21
392.4956388998
 31
0.0
  0
LINE
  5
2F1
330
1F
100
AcDbEntity
  8
0
  6
Continuous
 62
     7
370
    15
100
AcDbLine
 10
690.992584377
 20
226.0928197187
 30
0.0
 11
719.2126927141
 21
209.801697942
 31
0.0
  0
LWPOLYLINE
  5
2F2
330
1F
100
AcDbEntity
  8
0
  6
Continuous
 62
     7
370
    15
100
AcDbPolyline
 90
      112
 70
   128
 43
0.0
 10
891.8670216466
 20
98.843092865
 10
891.9916008374
 20
103.9965529263
 10
892.3649393449
 20
109.2773409733
 10
892.9858412534
 20
114.6685410499
 10
893.8523176269
 20
120.152883517
 10
894.9615928804
 20
125.7128003723
 10
896.3101136707
 20
131.3304815259
 10
897.8935602793
 20
136.9879318515
 10
899.7068604492
 20
142.66702883
 10
901.7442056335
 20
148.3495806018
 10
903.9990696012
 20
154.0173842404
 10
906.4642293433
 20
159.6522840621
 10
909.1317882099
 20
165.2362297839
 10
911.9932012058
 20
170.7513343442
 10
915.0393023625
 20
176.1799312005
 10
918.2603340997
 20
181.5046309205
 10
921.6459784817
 20
186.7083768856
 10
925.1853902688
 20
191.7744999289
 10
928.867231658
 20
196.6867717308
 10
932.6797086014
 20
201.4294568038
 10
936.6106085859
 20
205.9873628979
 10
940.6473397539
 20
210.3458896657
 10
944.7769712384
 20
214.4910754321
 10
948.9862745848
 20
218.4096419172
 10
953.2617661255
 20
222.0890367714
 10
957.5897501722
 20
225.5174737837
 10
961.956362887
 20
228.6839706367
 10
966.3476166932
 20
231.5783840863
 10
970.7494450808
 20
234.1914424538
 10
975.1477476666
 20
236.5147753253
 10
979.5284353614
 20
238.5409403654
 10
983.8774755017
 20
240.2634471564
 10
988.180936801
 20
241.6767779899
 10
992.4250339753
 20
242.7764055411
 10
996.5961719018
 20
243.5588073715
 10
1000.6809891683
 20
244.0214772121
 10
1004.6664008735
 20
244.162932992
 10
1008.5396405424
 20
243.9827215856
 10
1012.2883010206
 20
243.4814202644
 10
1015.9003742183
 20
242.6606348476
 10
1019.3642895763
 20
241.5229945585
 10
1022.6689511293
 20
240.0721436018
 10
1025.8037730501
 20
238.3127294905
 10
1028.7587135591
 20
236.2503881584
 10
1031.5243070909
 20
233.8917259066
 10
1034.0916946156
 20
231.2442982413
 10
1036.4526520172
 20
228.3165856716
 10
1038.5996164371
 20
225.1179665433
 10
1040.5257105012
 20
221.6586869979
 10
1042.2247643494
 20
217.9498281506
 10
1043.6913354002
 20
214.0032705944
 10
1044.9207257841
 20
209.8316563431
 10
1045.9089973934
 20
205.4483483346
 10
1046.6529844959
 20
200.867387626
 10
1047.1503038768
 20
196.1034484155
 10
1047.3993624721
 20
191.1717910365
 10
1047.3993624721
 20
186.0882130745
 10
1047.1503038768
 20
180.8689987622
 10
1046.6529844959
 20
175.5308668165
 10
1045.9089973934
 20
170.0909168834
 10
1044.9207257841
 20
164.5665747625
 10
1043.6913354002
 20
158.9755365871
 10
1042.2247643494
 20
153.335712138
 10
1040.5257105012
 20
147.6651674731
 10
1038.5996164371
 20
141.9820670567
 10
1036.4526520172
 20
136.3046155726
 10
1034.0916946156
 20
130.6509996095
 10
1031.5243070909
 20
125.0393294038
 10
1028.7587135591
 20
119.487580827
 10
1025.8037730501
 20
114.0135378034
 10
1022.6689511293
 20
108.6347353432
 10
1019.3642895763
 20
103.3684033721
 10
1015.9003742183
 20
98.2314115392
 10
1012.2883010206
 20
93.2402151781
 10
1008.5396405424
 20
88.4108025952
 10
1004.6664008735
 20
83.7586438552
 10
1000.6809891683
 20
79.298641225
 10
996.5961719018
 20
75.0450814375
 10
992.4250339753
 20
71.0115899271
 10
988.180936801
 20
67.2110871831
 10
983.8774755017
 20
63.6557473616
 10
979.5284353614
 20
60.3569592878
 10
975.1477476666
 20
57.3252899745
 10
970.7494450808
 20
54.5704507725
 10
966.3476166932
 20
52.1012662621
 10
961.956362887
 20
49.9256459859
 10
957.5897501722
 20
48.0505591114
 10
953.2617661255
 20
46.4820121073
 10
948.9862745848
 20
45.2250295023
 10
944.7769712384
 20
44.2836377908
 10
940.6473397539
 20
43.6608525342
 10
936.6106085859
 20
43.3586687015
 10
932.6797086014
 20
43.3780542786
 10
928.867231658
 20
43.7189471676
 10
925.1853902688
 20
44.3802553858
 10
921.6459784817
 20
45.3598605636
 10
918.2603340997
 20
46.6546247304
 10
915.0393023625
 20
48.2604003661
 10
911.9932012058
 20
50.1720436874
 10
909.1317882099
 20
52.3834311242
 10
906.4642293433
 20
54.8874789361
 10
903.9990696012
 20
57.6761659029
 10
901.7442056335
 20
60.7405590195
 10
899.7068604492
 20
64.070842111
 10
897.8935602793
 20
67.6563472767
 10
896.3101136707
 20
71.4855890625
 10
894.9615928804
 20
75.5463012526
 10
893.8523176269
 20
79.8254761616
 10
892.9858412534
 20
84.3094063022
 10
892.3649393449
 20
88.9837282945
 10
891.9916008374
 20
93.8334688758
 10
891.8670216466
 20
98.843092865
  0
LWPOLYLINE
  5
2F3
330
1F
100
AcDbEntity
  8
0
  6
Continuous
 62
     7
370
    15
100
AcDbPolyline
 90
       58
 70
   128
 43
0.0
 10
1014.0376961544
 20
245.1339747158
 10
1013.651631074
 20
245.3537385031
 10
1010.4305993368
 20
246.9595141388
 10
1007.0449549548
 20
248.2542783056
 10
1003.5055431678
 20
249.2338834835
 10
999.8237017785
 20
249.8951917017
 10
996.0112248352
 20
250.2360845907
 10
992.0803248506
 20
250.2554701677
 10
988.0435936826
 20
249.953286335
 10
983.9139621981
 20
249.3305010784
 10
979.7046588517
 20
248.389109367
 10
975.429167311
 20
247.132126762
 10
971.1011832644
 20
245.5635797578
 10
966.7345705495
 20
243.6884928833
 10
962.3433167434
 20
241.5128726071
 10
957.9414883557
 20
239.0436880968
 10
953.5431857699
 20
236.2888488947
 10
949.1624980752
 20
233.2571795814
 10
944.8134579348
 20
229.9583915077
 10
940.5099966355
 20
226.4030516862
 10
936.2658994613
 20
222.6025489422
 10
932.0947615348
 20
218.5690574318
 10
928.0099442683
 20
214.3154976443
 10
924.024532563
 20
209.855495014
 10
920.1512928941
 20
205.203336274
 10
916.402632416
 20
200.3739236912
 10
912.7905592182
 20
195.38272733
 10
909.3266438602
 20
190.2457354971
 10
906.0219823072
 20
184.9794035261
 10
902.8871603864
 20
179.6006010659
 10
899.9322198775
 20
174.1265580423
 10
897.1666263457
 20
168.5748094654
 10
894.5992388209
 20
162.9631392597
 10
892.2382814194
 20
157.3095232967
 10
890.0913169994
 20
151.6320718126
 10
888.1652229353
 20
145.9489713961
 10
886.4661690871
 20
140.2784267313
 10
884.9995980364
 20
134.6386022822
 10
883.7702076524
 20
129.0475641067
 10
882.7819360432
 20
123.5232219859
 10
882.0379489406
 20
118.0832720527
 10
881.5406295597
 20
112.7451401071
 10
881.2915709644
 20
107.5259257948
 10
881.2915709644
 20
102.4423478328
 10
881.5406295597
 20
97.5106904538
 10
882.0379489406
 20
92.7467512433
 10
882.7819360432
 20
88.1657905347
 10
883.7702076524
 20
83.7824825262
 10
884.9995980364
 20
79.6108682748
 10
886.4661690871
 20
75.6643107187
 10
888.1652229353
 20
71.9554518714
 10
890.0913169994
 20
68.4961723259
 10
892.2382814194
 20
65.2975531977
 10
894.5992388209
 20
62.3698406279
 10
897.1666263457
 20
59.7224129627
 10
899.9322198775
 20
57.3637507109
 10
902.8871603864
 20
55.3014093788
 10
904.0466355644
 20
54.6032249921
  0
LWPOLYLINE
  5
2F4
330
1F
100
AcDbEntity
  8
0
  6
Continuous
 62
     7
370
    15
100
AcDbPolyline
 90
       32
 70
   128
 43
0.0
 10
1034.8080620273
 20
153.2383013792
 10
1034.6777913711
 20
151.683781617
 10
1034.2923126986
 20
150.0424967783
 10
1033.6674075519
 20
148.3816412574
 10
1032.828659621
 20
146.7692106744
 10
1031.810407345
 20
145.2712181269
 10
1030.6543380915
 20
143.9489916057
 10
1029.4077814716
 20
142.85666322
 10
1028.1217716599
 20
142.0389530222
 10
1026.8489580491
 20
141.5293381639
 10
1025.641449778
 20
141.3486823373
 10
1024.548682377
 20
141.5043816132
 10
1023.6153938721
 20
141.9900616448
 10
1022.8797932042
 20
142.7858386347
 10
1022.371995951
 20
143.8591333794
 10
1022.1127913919
 20
145.1660050659
 10
1022.1127913919
 20
146.6529502138
 10
1022.371995951
 20
148.2590931141
 10
1022.8797932042
 20
149.9186780876
 10
1023.6153938721
 20
151.5637615307
 10
1024.548682377
 20
153.1269935338
 10
1025.641449778
 20
154.5443751951
 10
1026.8489580491
 20
155.7578787429
 10
1028.1217716599
 20
156.7178231992
 10
1029.4077814716
 20
157.3849083253
 10
1030.6543380915
 20
157.7318235777
 10
1031.810407345
 20
157.7443662052
 10
1032.828659621
 20
157.4220227112
 10
1033.6674075519
 20
156.7779898763
 10
1034.2923126986
 20
155.8386344802
 10
1034.6777913711
 20
154.6424138434
 10
1034.8080620273
 20
153.2383013792
  0
LWPOLYLINE
  5
2F5
330
1F
100
AcDbEntity
  8
0
  6
Continuous
 62
     7
370
    15
100
AcDbPolyline
 90
       32
 70
   128
 43
0.0
 10
917.2173951884
 20
85.3546543572
 10
917.0871245322
 20
83.8001345949
 10
916.7016458597
 20
82.1588497563
 10
916.076740713
 20
80.4979942354
 10
915.2379927822
 20
78.8855636524
 10
914.2197405061
 20
77.3875711049
 10
913.0636712526
 20
76.0653445837
 10
911.8171146327
 20
74.973016198
 10
910.531104821
 20
74.1553060002
 10
909.2582912102
 20
73.6456911419
 10
908.0507829391
 20
73.4650353153
 10
906.9580155382
 20
73.6207345912
 10
906.0247270332
 20
74.1064146228
 10
905.2891263653
 20
74.9021916127
 10
904.7813291122
 20
75.9754863574
 10
904.522124553
 20
77.2823580439
 10
904.522124553
 20
78.7693031918
 10
904.7813291122
 20
80.375446092
 10
905.2891263653
 20
82.0350310656
 10
906.0247270332
 20
83.6801145087
 10
906.9580155382
 20
85.2433465118
 10
908.0507829391
 20
86.6607281731
 10
909.2582912102
 20
87.8742317208
 10
910.531104821
 20
88.8341761772
 10
911.8171146327
 20
89.5012613032
 10
913.0636712526
 20
89.8481765556
 10
914.2197405061
 20
89.8607191832
 10
915.2379927822
 20
89.5383756892
 10
916.076740713
 20
88.8943428542
 10
916.7016458597
 20
87.9549874582
 10
917.0871245322
 20
86.7587668214
 10
917.2173951884
 20
85.3546543572
  0
LWPOLYLINE
  5
2F6
330
1F
100
AcDbEntity
  8
0
  6
Continuous
 62
     7
370
    15
100
AcDbPolyline
 90
       32
 70
   128
 43
0.0
 10
917.2173951884
 20
141.6004496578
 10
917.0871245322
 20
140.0459298955
 10
916.7016458597
 20
138.4046450568
 10
916.076740713
 20
136.7437895359
 10
915.2379927822
 20
135.131358953
 10
914.2197405061
 20
133.6333664054
 10
913.0636712526
 20
132.3111398842
 10
911.8171146327
 20
131.2188114985
 10
910.531104821
 20
130.4011013007
 10
909.2582912102
 20
129.8914864425
 10
908.0507829391
 20
129.7108306159
 10
906.9580155382
 20
129.8665298917
 10
906.0247270332
 20
130.3522099234
 10
905.2891263653
 20
131.1479869133
 10
904.7813291122
 20
132.2212816579
 10
904.522124553
 20
133.5281533444
 10
904.522124553
 20
135.0150984923
 10
904.7813291122
 20
136.6212413926
 10
905.2891263653
 20
138.2808263662
 10
906.0247270332
 20
139.9259098092
 10
906.9580155382
 20
141.4891418124
 10
908.0507829391
 20
142.9065234737
 10
909.2582912102
 20
144.1200270214
 10
910.531104821
 20
145.0799714777
 10
911.8171146327
 20
145.7470566038
 10
913.0636712526
 20
146.0939718562
 10
914.2197405061
 20
146.1065144837
 10
915.2379927822
 20
145.7841709898
 10
916.076740713
 20
145.1401381548
 10
916.7016458597
 20
144.2007827587
 10
917.0871245322
 20
143.0045621219
 10
917.2173951884
 20
141.6004496578
  0
LWPOLYLINE
  5
2F7
330
1F
100
AcDbEntity
  8
0
  6
Continuous
 62
     7
370
    15
100
AcDbPolyline
 90
       32
 70
   128
 43
0.0
 10
1034.8080620273
 20
209.4840966798
 10
1034.6777913711
 20
207.9295769175
 10
1034.2923126986
 20
206.2882920789
 10
1033.6674075519
 20
204.627436558
 10
1032.828659621
 20
203.015005975
 10
1031.810407345
 20
201.5170134274
 10
1030.6543380915
 20
200.1947869063
 10
1029.4077814716
 20
199.1024585205
 10
1028.1217716599
 20
198.2847483228
 10
1026.8489580491
 20
197.7751334645
 10
1025.641449778
 20
197.5944776379
 10
1024.548682377
 20
197.7501769137
 10
1023.6153938721
 20
198.2358569454
 10
1022.8797932042
 20
199.0316339353
 10
1022.371995951
 20
200.1049286799
 10
1022.1127913919
 20
201.4118003664
 10
1022.1127913919
 20
202.8987455143
 10
1022.371995951
 20
204.5048884146
 10
1022.8797932042
 20
206.1644733882
 10
1023.6153938721
 20
207.8095568313
 10
1024.548682377
 20
209.3727888344
 10
1025.641449778
 20
210.7901704957
 10
1026.8489580491
 20
212.0036740434
 10
1028.1217716599
 20
212.9636184997
 10
1029.4077814716
 20
213.6307036258
 10
1030.6543380915
 20
213.9776188782
 10
1031.810407345
 20
213.9901615058
 10
1032.828659621
 20
213.6678180118
 10
1033.6674075519
 20
213.0237851768
 10
1034.2923126986
 20
212.0844297808
 10
1034.6777913711
 20
210.888209144
 10
1034.8080620273
 20
209.4840966798
  0
LWPOLYLINE
  5
2F8
330
1F
100
AcDbEntity
  8
0
  6
Continuous
 62
     7
370
    15
100
AcDbPolyline
 90
       32
 70
   128
 43
0.0
 10
951.6589041013
 20
201.2548928091
 10
951.5286334451
 20
199.7003730468
 10
951.1431547726
 20
198.0590882082
 10
950.5182496258
 20
196.3982326873
 10
949.679501695
 20
194.7858021043
 10
948.6612494189
 20
193.2878095567
 10
947.5051801654
 20
191.9655830356
 10
946.2586235456
 20
190.8732546498
 10
944.9726137339
 20
190.0555444521
 10
943.6998001231
 20
189.5459295938
 10
942.4922918519
 20
189.3652737672
 10
941.399524451
 20
189.520973043
 10
940.4662359461
 20
190.0066530747
 10
939.7306352781
 20
190.8024300646
 10
939.222838025
 20
191.8757248093
 10
938.9636334659
 20
193.1825964957
 10
938.9636334659
 20
194.6695416436
 10
939.222838025
 20
196.2756845439
 10
939.7306352781
 20
197.9352695175
 10
940.4662359461
 20
199.5803529606
 10
941.399524451
 20
201.1435849637
 10
942.4922918519
 20
202.560966625
 10
943.6998001231
 20
203.7744701727
 10
944.9726137339
 20
204.734414629
 10
946.2586235456
 20
205.4014997551
 10
947.5051801654
 20
205.7484150075
 10
948.6612494189
 20
205.7609576351
 10
949.679501695
 20
205.4386141411
 10
950.5182496258
 20
204.7945813061
 10
951.1431547726
 20
203.8552259101
 10
951.5286334451
 20
202.6590052733
 10
951.6589041013
 20
201.2548928091
  0
LWPOLYLINE
  5
2F9
330
1F
100
AcDbEntity
  8
0
  6
Continuous
 62
     7
370
    15
100
AcDbPolyline
 90
       32
 70
   128
 43
0.0
 10
951.6589041013
 20
65.465530968
 10
951.5286334451
 20
63.9110112058
 10
951.1431547726
 20
62.2697263671
 10
950.5182496258
 20
60.6088708462
 10
949.679501695
 20
58.9964402632
 10
948.6612494189
 20
57.4984477157
 10
947.5051801654
 20
56.1762211945
 10
946.2586235456
 20
55.0838928088
 10
944.9726137339
 20
54.266182611
 10
943.6998001231
 20
53.7565677527
 10
942.4922918519
 20
53.5759119261
 10
941.399524451
 20
53.731611202
 10
940.4662359461
 20
54.2172912336
 10
939.7306352781
 20
55.0130682235
 10
939.222838025
 20
56.0863629682
 10
938.9636334659
 20
57.3932346547
 10
938.9636334659
 20
58.8801798026
 10
939.222838025
 20
60.4863227029
 10
939.7306352781
 20
62.1459076764
 10
940.4662359461
 20
63.7909911195
 10
941.399524451
 20
65.3542231226
 10
942.4922918519
 20
66.7716047839
 10
943.6998001231
 20
67.9851083317
 10
944.9726137339
 20
68.945052788
 10
946.2586235456
 20
69.6121379141
 10
947.5051801654
 20
69.9590531665
 10
948.6612494189
 20
69.971595794
 10
949.679501695
 20
69.6492523
 10
950.5182496258
 20
69.0052194651
 10
951.1431547726
 20
68.065864069
 10
951.5286334451
 20
66.8696434322
 10
951.6589041013
 20
65.465530968
  0
LWPOLYLINE
  5
2FA
330
1F
100
AcDbEntity
  8
0
  6
Continuous
 62
     7
370
    15
100
AcDbPolyline
 90
       32
 70
   128
 43
0.0
 10
1000.3665531144
 20
93.5838582279
 10
1000.2362824583
 20
92.0293384656
 10
999.8508037857
 20
90.388053627
 10
999.225898639
 20
88.7271981061
 10
998.3871507082
 20
87.1147675231
 10
997.3688984321
 20
85.6167749756
 10
996.2128291786
 20
84.2945484544
 10
994.9662725587
 20
83.2022200687
 10
993.680262747
 20
82.3845098709
 10
992.4074491362
 20
81.8748950126
 10
991.1999408651
 20
81.694239186
 10
990.1071734642
 20
81.8499384619
 10
989.1738849592
 20
82.3356184935
 10
988.4382842913
 20
83.1313954834
 10
987.9304870382
 20
84.2046902281
 10
987.6712824791
 20
85.5115619146
 10
987.6712824791
 20
86.9985070625
 10
987.9304870382
 20
88.6046499627
 10
988.4382842913
 20
90.2642349363
 10
989.1738849592
 20
91.9093183794
 10
990.1071734642
 20
93.4725503825
 10
991.1999408651
 20
94.8899320438
 10
992.4074491362
 20
96.1034355915
 10
993.680262747
 20
97.0633800478
 10
994.9662725587
 20
97.7304651739
 10
996.2128291786
 20
98.0773804263
 10
997.3688984321
 20
98.0899230539
 10
998.3871507082
 20
97.7675795599
 10
999.225898639
 20
97.1235467249
 10
999.8508037857
 20
96.1841913289
 10
1000.2362824583
 20
94.9879706921
 10
1000.3665531144
 20
93.5838582279
  0
LWPOLYLINE
  5
2FB
330
1F
100
AcDbEntity
  8
0
  6
Continuous
 62
     7
370
    15
100
AcDbPolyline
 90
       32
 70
   128
 43
0.0
 10
1000.3665531144
 20
229.373220069
 10
1000.2362824583
 20
227.8187003067
 10
999.8508037857
 20
226.177415468
 10
999.225898639
 20
224.5165599471
 10
998.3871507082
 20
222.9041293642
 10
997.3688984321
 20
221.4061368166
 10
996.2128291786
 20
220.0839102954
 10
994.9662725587
 20
218.9915819097
 10
993.680262747
 20
218.1738717119
 10
992.4074491362
 20
217.6642568537
 10
991.1999408651
 20
217.4836010271
 10
990.1071734642
 20
217.6393003029
 10
989.1738849592
 20
218.1249803346
 10
988.4382842913
 20
218.9207573245
 10
987.9304870382
 20
219.9940520691
 10
987.6712824791
 20
221.3009237556
 10
987.6712824791
 20
222.7878689035
 10
987.9304870382
 20
224.3940118038
 10
988.4382842913
 20
226.0535967774
 10
989.1738849592
 20
227.6986802204
 10
990.1071734642
 20
229.2619122236
 10
991.1999408651
 20
230.6792938849
 10
992.4074491362
 20
231.8927974326
 10
993.680262747
 20
232.8527418889
 10
994.9662725587
 20
233.519827015
 10
996.2128291786
 20
233.8667422674
 10
997.3688984321
 20
233.8792848949
 10
998.3871507082
 20
233.556941401
 10
999.225898639
 20
232.912908566
 10
999.8508037857
 20
231.9735531699
 10
1000.2362824583
 20
230.7773325331
 10
1000.3665531144
 20
229.373220069
  0
LWPOLYLINE
  5
2FC
330
1F
100
AcDbEntity
  8
0
  6
Continuous
 62
     7
370
    15
100
AcDbPolyline
 90
       36
 70
   128
 43
0.0
 10
916.6157589882
 20
113.1302348219
 10
916.7421222067
 20
117.4282391351
 10
917.1206096839
 20
121.851657367
 10
917.7494177548
 20
126.3794099154
 10
918.6255498623
 20
130.9899199775
 10
919.7448308381
 20
135.6612163732
 10
921.1019267986
 20
140.3710382478
 10
922.6903705635
 20
145.0969411553
 10
924.502592475
 20
149.8164040162
 10
926.5299564702
 20
154.5069364407
 10
928.7628012366
 20
159.1461859058
 10
931.1904862519
 20
163.712044275
 10
933.8014424916
 20
168.1827531539
 10
936.58322756
 20
172.5370075789
 10
939.5225849847
 20
176.7540575445
 10
942.6055073887
 20
180.8138068874
 10
945.817303243
 20
184.6969090531
 10
949.1426668777
 20
188.3848592914
 10
952.5657514206
 20
191.8600828399
 10
956.070244315
 20
195.1060186759
 10
959.6394450564
 20
198.1071984368
 10
963.2563447779
 20
200.8493201345
 10
966.9037073051
 20
203.3193163102
 10
970.5641512946
 20
205.5054163073
 10
974.2202330638
 20
207.3972023639
 10
977.8545297181
 20
208.9856592577
 10
981.4497221789
 20
210.2632172685
 10
984.9886777169
 20
211.2237882504
 10
988.4545315974
 20
211.8627946452
 10
991.8307674482
 20
212.1771912965
 10
995.101295968
 20
212.1654799612
 10
998.250531599
 20
211.8277164489
 10
1001.2634667992
 20
211.1655103567
 10
1004.1257435604
 20
210.1820173982
 10
1006.8237218304
 20
208.8819243652
 10
1007.145720051
 20
208.6992036938
  0
LWPOLYLINE
  5
2FD
330
1F
100
AcDbEntity
  8
0
  6
Continuous
 62
     7
370
    15
100
AcDbPolyline
 90
       13
 70
   128
 43
0.0
 10
932.1518151033
 20
78.7918743367
 10
931.1904862519
 20
79.3760472816
 10
928.7628012366
 20
81.1389601945
 10
926.5299564702
 20
83.2002219663
 10
924.502592475
 20
85.5500097461
 10
922.6903705635
 20
88.1771257249
 10
921.1019267986
 20
91.0690504987
 10
919.7448308381
 20
94.2120027291
 10
918.6255498623
 20
97.5910048174
 10
917.7494177548
 20
101.1899542797
 10
917.1206096839
 20
104.9917004831
 10
916.7421222067
 20
108.9781263754
 10
916.6157589882
 20
113.1302348219
  0
LWPOLYLINE
  5
2FE
330
1F
100
AcDbEntity
  8
0
  6
Continuous
 62
     7
370
    15
100
AcDbPolyline
 90
       15
 70
   128
 43
0.0
 10
925.6342978176
 20
381.8445981212
 10
923.9206940197
 20
382.6645890826
 10
918.3917251707
 20
385.1352306564
 10
912.6530874169
 20
387.4410388698
 10
906.719511759
 20
389.5760947461
 10
900.6062296006
 20
391.5349176275
 10
894.3289336494
 20
393.3124792439
 10
887.9037376341
 20
394.9042166199
 10
881.3471349407
 20
396.3060437886
 10
874.6759562742
 20
397.5143622798
 10
867.9073264547
 20
398.5260703573
 10
861.0586204577
 20
399.3385709808
 10
854.1474188134
 20
399.949778473
 10
847.1914624772
 20
400.3581238729
 10
845.7126927141
 20
400.4185237281
  0
LWPOLYLINE
  5
2FF
330
1F
100
AcDbEntity
  8
0
  6
Continuous
 62
     7
370
    15
100
AcDbPolyline
 90
       15
 70
   128
 43
0.0
 10
827.7126927141
 20
400.4185237281
 10
826.233922951
 20
400.3581238729
 10
819.2779666148
 20
399.949778473
 10
812.3667649705
 20
399.3385709808
 10
805.5180589735
 20
398.5260703573
 10
798.749429154
 20
397.5143622798
 10
792.0782504875
 20
396.3060437886
 10
785.5216477941
 20
394.9042166199
 10
779.0964517788
 20
393.3124792439
 10
772.8191558276
 20
391.5349176275
 10
766.7058736692
 20
389.5760947461
 10
760.7722980113
 20
387.4410388698
 10
755.0336602575
 20
385.1352306564
 10
749.5046914085
 20
382.6645890826
 10
747.7910876106
 20
381.8445981212
  0
LWPOLYLINE
  5
300
330
1F
100
AcDbEntity
  8
0
  6
Continuous
 62
     7
370
    15
100
AcDbPolyline
 90
       94
 70
   128
 43
0.0
 10
738.5109060935
 20
376.8937596106
 10
734.3148179219
 20
374.3291021128
 10
729.7605328094
 20
371.2665289378
 10
725.4807923574
 20
368.0747231608
 10
721.4865825984
 20
364.7618781014
 10
717.7881566115
 20
361.3364977854
 10
714.3950082031
 20
357.8073751148
 10
711.3158475366
 20
354.1835692971
 10
708.5585787731
 20
350.4743825897
 10
706.1302797822
 20
346.6893364218
 10
704.0371839724
 20
342.8381469525
 10
702.2846642907
 20
338.93070013
 10
700.87721943
 20
334.9770263143
 10
699.8184622811
 20
330.9872745293
 10
699.1111106583
 20
326.9716864106
 10
698.7569803232
 20
322.9405699154
 10
698.7569803232
 20
318.9042728618
 10
699.1111106583
 20
314.8731563666
 10
699.8184622811
 20
310.8575682479
 10
700.87721943
 20
306.8678164629
 10
702.2846642907
 20
302.9141426471
 10
704.0371839724
 20
299.0066958247
 10
706.1302797822
 20
295.1555063554
 10
708.5585787731
 20
291.3704601874
 10
711.3158475366
 20
287.66127348
 10
714.3950082031
 20
284.0374676623
 10
717.7881566115
 20
280.5083449918
 10
721.4865825984
 20
277.0829646757
 10
725.4807923574
 20
273.7701196163
 10
729.7605328094
 20
270.5783138393
 10
734.3148179219
 20
267.5157406643
 10
739.1319569104
 20
264.5902616728
 10
744.1995842481
 20
261.8093865273
 10
749.5046914085
 20
259.1802536946
 10
755.0336602575
 20
256.7096121208
 10
760.7722980113
 20
254.4038039074
 10
766.7058736692
 20
252.2687480311
 10
772.8191558276
 20
250.3099251496
 10
779.0964517788
 20
248.5323635333
 10
785.5216477941
 20
246.9406261572
 10
792.0782504875
 20
245.5387989885
 10
798.749429154
 20
244.3304804973
 10
805.5180589735
 20
243.3187724199
 10
812.3667649705
 20
242.5062717964
 10
819.2779666148
 20
241.8950643042
 10
826.233922951
 20
241.4867189042
 10
833.2167781389
 20
241.2822838133
 10
840.2086072893
 20
241.2822838133
 10
847.1914624772
 20
241.4867189042
 10
854.1474188134
 20
241.8950643042
 10
861.0586204577
 20
242.5062717964
 10
867.9073264547
 20
243.3187724199
 10
874.6759562742
 20
244.3304804973
 10
881.3471349407
 20
245.5387989885
 10
887.9037376341
 20
246.9406261572
 10
894.3289336494
 20
248.5323635333
 10
900.6062296006
 20
250.3099251496
 10
906.719511759
 20
252.2687480311
 10
912.6530874169
 20
254.4038039074
 10
918.3917251707
 20
256.7096121208
 10
923.9206940197
 20
259.1802536946
 10
929.2258011801
 20
261.8093865274
 10
934.2934285178
 20
264.5902616728
 10
939.1105675063
 20
267.5157406643
 10
943.6648526188
 20
270.5783138393
 10
947.9445930708
 20
273.7701196163
 10
951.9388028298
 20
277.0829646757
 10
955.6372288167
 20
280.5083449918
 10
959.0303772251
 20
284.0374676623
 10
962.1095378916
 20
287.66127348
 10
964.8668066551
 20
291.3704601874
 10
967.295105646
 20
295.1555063554
 10
969.3882014558
 20
299.0066958247
 10
971.1407211375
 20
302.9141426471
 10
972.5481659982
 20
306.8678164629
 10
973.6069231471
 20
310.8575682479
 10
974.3142747699
 20
314.8731563666
 10
974.668405105
 20
318.9042728618
 10
974.668405105
 20
322.9405699154
 10
974.3142747699
 20
326.9716864106
 10
973.6069231471
 20
330.9872745293
 10
972.5481659982
 20
334.9770263143
 10
971.1407211375
 20
338.93070013
 10
969.3882014558
 20
342.8381469525
 10
967.295105646
 20
346.6893364218
 10
964.8668066551
 20
350.4743825897
 10
962.1095378916
 20
354.1835692971
 10
959.0303772251
 20
357.8073751148
 10
955.6372288167
 20
361.3364977854
 10
951.9388028298
 20
364.7618781014
 10
947.9445930707
 20
368.0747231608
 10
943.6648526188
 20
371.2665289378
 10
939.1105675063
 20
374.3291021128
 10
934.9144793347
 20
376.8937596106
  0
LWPOLYLINE
  5
301
330
1F
100
AcDbEntity
  8
0
  6
Continuous
 62
     7
370
    15
100
AcDbPolyline
 90
       95
 70
   128
 43
0.0
 10
935.7076420802
 20
376.4379075924
 10
940.5565408975
 20
373.4943356459
 10
945.1431211419
 20
370.4138371754
 10
949.4557967137
 20
367.2041937875
 10
953.4836734199
 20
363.8735133199
 10
957.2165764946
 20
360.4302093605
 10
960.6450763006
 20
356.882979994
 10
963.7605121499
 20
353.2407858297
 10
966.555014181
 20
349.5128273659
 10
969.0215232393
 20
345.7085217495
 10
971.1538087089
 20
341.8374789865
 10
972.9464842516
 20
337.9094776669
 10
974.3950214134
 20
333.9344402629
 10
975.4957610638
 20
329.9224080641
 10
976.2459226389
 20
325.883515812
 10
976.6436111653
 20
321.8279660988
 10
976.6878220474
 20
317.7660035952
 10
976.3784436047
 20
313.707889171
 10
975.7162573539
 20
309.6638739754
 10
974.702936035
 20
305.6441735418
 10
973.3410393855
 20
301.6589419822
 10
971.6340076747
 20
297.7182463376
 10
969.5861530127
 20
293.8320411471
 10
967.2026484582
 20
290.0101433022
 10
964.4895149506
 20
286.2622072487
 10
961.4536061005
 20
282.5977005984
 10
958.1025908771
 20
279.0258802129
 10
954.4449342358
 20
275.5557688206
 10
950.4898757347
 20
272.1961322241
 10
946.2474061948
 20
268.955457157
 10
941.7282424624
 20
265.8419298457
 10
936.9438003372
 20
262.8634153305
 10
931.9061657352
 20
260.0274375975
 10
926.6280641588
 20
257.3411605725
 10
921.1228285506
 20
254.8113700246
 10
915.4043656134
 20
252.4444564241
 10
909.487120681
 20
250.2463988003
 10
903.3860412276
 20
248.2227496375
 10
897.1165391094
 20
246.378620849
 10
890.6944516329
 20
244.7186708643
 10
884.1360015484
 20
243.2470928611
 10
877.4577560701
 20
241.9676041731
 10
870.6765850255
 20
240.8834368998
 10
863.8096182412
 20
239.9973297419
 10
856.8742022714
 20
239.3115210828
 10
849.8878565787
 20
238.8277433349
 10
842.8682292786
 20
238.5472185626
 10
835.8330525589
 20
238.470655396
 10
828.8000978866
 20
238.5982472401
 10
821.7871311156
 20
238.929671787
 10
814.8118676085
 20
239.4640918294
 10
807.8919274863
 20
240.200157376
 10
801.0447911184
 20
241.1360090613
 10
794.2877549655
 20
242.2692828427
 10
787.6378878873
 20
243.5971159723
 10
781.1119880252
 20
245.1161542284
 10
774.7265403687
 20
246.8225603885
 10
768.4976751126
 20
248.7120239226
 10
762.4411269112
 20
250.7797718817
 10
756.5721951309
 20
253.0205809551
 10
750.9057052027
 20
255.4287906646
 10
745.455971172
 20
257.9983176634
 10
740.2367595399
 20
260.7226711034
 10
735.2612544879
 20
263.5949690313
 10
730.5420245737
 20
266.6079557733
 10
726.0909909815
 20
269.7540202634
 10
721.9193974085
 20
273.0252152696
 10
718.0377816622
 20
276.4132774694
 10
714.4559490407
 20
279.9096483237
 10
711.1829475642
 20
283.5054956963
 10
708.2270451183
 20
287.1917361646
 10
705.5957085694
 20
290.9590579653
 10
703.2955849017
 20
294.7979445166
 10
701.3324844274
 20
298.6986984577
 10
699.7113661085
 20
302.6514661459
 10
698.4363250308
 20
306.6462625468
 10
697.5105820585
 20
310.672996458
 10
696.9364756988
 20
314.7214960002
 10
696.7154561942
 20
318.7815343122
 10
696.8480818592
 20
322.8428553848
 10
697.3340176697
 20
326.8951999685
 10
698.1720361097
 20
330.9283314893
 10
699.360020272
 20
334.9320619069
 10
700.8949692055
 20
338.8962774507
 10
702.7730054959
 20
342.8109641683
 10
704.9893850605
 20
346.6662332213
 10
707.5385091323
 20
350.4523458654
 10
710.4139384026
 20
354.1597380515
 10
713.6084092874
 20
357.7790445853
 10
717.1138522762
 20
361.3011227841
 10
720.9214123157
 20
364.717075573
 10
725.0214711787
 20
368.0182739587
 10
729.4036717608
 20
371.1963788274
 10
734.0569442429
 20
374.2433620107
 10
737.701657806
 20
376.4286200976
  0
LWPOLYLINE
  5
302
330
1F
100
AcDbEntity
  8
0
  6
Continuous
 62
     7
370
    15
100
AcDbPolyline
 90
       48
 70
   128
 43
0.0
 10
737.717743348
 20
255.6084454421
 10
742.816711999
 20
252.8092357378
 10
748.1528700463
 20
250.1614593222
 10
753.7127378915
 20
247.6718047084
 10
759.4822708261
 20
245.3465609801
 10
765.446894509
 20
243.1916019046
 10
771.5915417833
 20
241.2123710957
 10
777.9006907364
 20
239.4138682622
 10
784.3584039108
 20
237.8006365782
 10
790.9483685624
 20
236.3767512071
 10
797.6539378686
 20
235.1458090069
 10
804.4581729794
 20
234.1109194443
 10
811.3438858063
 20
233.2746967403
 10
818.2936824412
 20
232.6392532659
 10
825.2900070946
 20
232.2061942065
 10
832.3151864432
 20
231.976613507
 10
839.3514742743
 20
231.951091108
 10
846.3810963141
 20
232.1296914814
 10
853.3862951274
 20
232.5119634671
 10
860.3493749739
 20
233.0969414129
 10
867.2527465096
 20
233.8831476137
 10
874.078971219
 20
234.8685960445
 10
880.8108054658
 20
236.050797377
 10
887.4312440527
 20
237.426765268
 10
893.9235631772
 20
238.9930239033
 10
900.2713626776
 20
240.7456167774
 10
906.4586074616
 20
242.6801166889
 10
912.4696680119
 20
244.7916369229
 10
918.2893598677
 20
247.0748435962
 10
923.9029819824
 20
249.5239691305
 10
929.2963538594
 20
252.1328268221
 10
934.4558513732
 20
254.8948264702
 10
939.3684411853
 20
257.8029910239
 10
944.0217136674
 20
260.8499742071
 10
948.4039142495
 20
264.0280790759
 10
952.5039731125
 20
267.3292774615
 10
956.311533152
 20
270.7452302504
 10
959.8169761408
 20
274.2673084493
 10
963.0114470256
 20
277.886614983
 10
965.8868762959
 20
281.5940071691
 10
968.4360003677
 20
285.3801198132
 10
970.6523799323
 20
289.2353888662
 10
972.5304162227
 20
293.1500755838
 10
974.0653651562
 20
297.1142911276
 10
975.2533493185
 20
301.1180215452
 10
976.0913677585
 20
305.151153066
 10
976.577303569
 20
309.2034976497
 10
976.7126927141
 20
312.7570132697
  0
LWPOLYLINE
  5
303
330
1F
100
AcDbEntity
  8
0
  6
Continuous
 62
     7
370
    15
100
AcDbPolyline
 90
       17
 70
   128
 43
0.0
 10
696.7126927141
 20
312.7570132697
 10
696.7817742629
 20
310.2183869357
 10
697.1794627893
 20
306.1628372225
 10
697.9296243644
 20
302.1239449704
 10
699.0303640148
 20
298.1119127716
 10
700.4789011766
 20
294.1368753676
 10
702.2715767193
 20
290.2088740481
 10
704.4038621889
 20
286.337831285
 10
706.8703712472
 20
282.5335256686
 10
709.6648732783
 20
278.8055672049
 10
712.7803091276
 20
275.1633730405
 10
716.2088089335
 20
271.616143674
 10
719.9417120083
 20
268.1728397146
 10
723.9695887145
 20
264.842159247
 10
728.2822642863
 20
261.6325158591
 10
732.8688445307
 20
258.5520173886
 10
737.717743348
 20
255.6084454421
  0
LINE
  5
304
330
1F
100
AcDbEntity
  8
0
  6
Continuous
 62
     7
370
    15
100
AcDbLine
 10
700.3203878687
 20
320.9224213886
 30
0.0
 11
705.5165402914
 21
315.7268319798
 31
0.0
  0
LINE
  5
305
330
1F
100
AcDbEntity
  8
0
  6
Continuous
 62
     7
370
    15
100
AcDbLine
 10
705.5165402914
 20
315.7268319798
 30
0.0
 11
715.9088451368
 21
315.7268319798
 31
0.0
  0
LINE
  5
306
330
1F
100
AcDbEntity
  8
0
  6
Continuous
 62
     7
370
    15
100
AcDbLine
 10
715.9088451368
 20
315.7268319798
 30
0.0
 11
721.1049975595
 21
320.9224213886
 31
0.0
  0
LINE
  5
307
330
1F
100
AcDbEntity
  8
0
  6
Continuous
 62
     7
370
    15
100
AcDbLine
 10
836.7126927141
 20
242.1848197783
 30
0.0
 11
845.7126927141
 21
245.184494722
 31
0.0
  0
LINE
  5
308
330
1F
100
AcDbEntity
  8
0
  6
Continuous
 62
     7
370
    15
100
AcDbLine
 10
827.7126927141
 20
245.184494722
 30
0.0
 11
836.7126927141
 21
242.1848197783
 31
0.0
  0
LINE
  5
309
330
1F
100
AcDbEntity
  8
0
  6
Continuous
 62
     7
370
    15
100
AcDbLine
 10
952.3203878687
 20
320.9224213886
 30
0.0
 11
957.5165402914
 21
315.7268319798
 31
0.0
  0
LINE
  5
30A
330
1F
100
AcDbEntity
  8
0
  6
Continuous
 62
     7
370
    15
100
AcDbLine
 10
957.5165402914
 20
315.7268319798
 30
0.0
 11
967.9088451368
 21
315.7268319798
 31
0.0
  0
LINE
  5
30B
330
1F
100
AcDbEntity
  8
0
  6
Continuous
 62
     7
370
    15
100
AcDbLine
 10
967.9088451368
 20
315.7268319798
 30
0.0
 11
973.1049975595
 21
320.9224213886
 31
0.0
  0
LINE
  5
30C
330
1F
100
AcDbEntity
  8
0
  6
Continuous
 62
     7
370
    15
100
AcDbLine
 10
827.7126927141
 20
390.6609981676
 30
0.0
 11
833.9386738572
 21
388.5858959859
 31
0.0
  0
LINE
  5
30D
330
1F
100
AcDbEntity
  8
0
  6
Continuous
 62
     7
370
    15
100
AcDbLine
 10
839.486711571
 20
388.5858959859
 30
0.0
 11
845.7126927141
 21
390.6609981676
 31
0.0
  0
LWPOLYLINE
  5
30E
330
1F
100
AcDbEntity
  8
0
  6
Continuous
 62
     7
370
    15
100
AcDbPolyline
 90
       14
 70
   128
 43
0.0
 10
757.2250129907
 20
272.9459961337
 10
760.0402749057
 20
271.4426327501
 10
764.9221269833
 20
269.0592497326
 10
770.0258795855
 20
266.8361728065
 10
775.3357573053
 20
264.7802733753
 10
780.8353476151
 20
262.8979061061
 10
786.5076515964
 20
261.1948892885
 10
792.3351364827
 20
259.6764868497
 10
798.2997898522
 20
258.3473920847
 10
804.383175303
 20
257.2117131493
 10
810.5664894394
 20
256.2729603619
 10
816.8306199917
 20
255.5340353536
 10
823.1562048914
 20
254.9972220994
 10
827.7126927141
 20
254.737952428
  0
LWPOLYLINE
  5
30F
330
1F
100
AcDbEntity
  8
0
  6
Continuous
 62
     7
370
    15
100
AcDbPolyline
 90
       14
 70
   128
 43
0.0
 10
845.7126927141
 20
254.737952428
 10
848.6804700098
 20
254.8948069998
 10
855.0183695891
 20
255.3808085257
 10
861.2996873701
 20
256.0693954211
 10
867.5050081597
 20
256.958439303
 10
873.6151516669
 20
258.045192188
 10
879.6112317883
 20
259.3262949851
 10
885.4747149838
 20
260.797787879
 10
891.1874775629
 20
262.4551225695
 10
896.7318617039
 20
264.29317633
 10
902.090730033
 20
266.3062678417
 10
907.2475185955
 20
268.488174754
 10
912.1862880534
 20
270.8321529178
 10
916.2003724375
 20
272.9459961337
  0
LWPOLYLINE
  5
310
330
1F
100
AcDbEntity
  8
0
  6
Continuous
 62
     7
370
    15
100
AcDbPolyline
 90
       14
 70
   128
 43
0.0
 10
925.8144219896
 20
278.9512549781
 10
929.4669491769
 20
281.6768423087
 10
933.101722695
 20
284.7132954773
 10
936.4385632453
 20
287.861668979
 10
939.4671568448
 20
291.1122313718
 10
942.1781422843
 20
294.4549353536
 10
944.5631400632
 20
297.8794488179
 10
946.61477829
 20
301.3751867899
 10
948.3267154685
 20
304.9313441439
 10
949.693660099
 20
308.5369290012
 10
950.711387034
 20
312.1807967057
 10
951.3767505378
 20
315.8516842711
 10
951.6876940101
 20
319.5382451943
 10
951.7126927141
 20
320.9224213886
  0
LWPOLYLINE
  5
311
330
1F
100
AcDbEntity
  8
0
  6
Continuous
 62
     7
370
    15
100
AcDbPolyline
 90
       15
 70
   128
 43
0.0
 10
721.7126927141
 20
320.9224213886
 10
721.7154704373
 20
320.4609996036
 10
721.9376158445
 20
316.7722996824
 10
722.5145244367
 20
313.0964275495
 10
723.4444130226
 20
309.4447451152
 10
724.72440737
 20
305.8285395204
 10
726.3505510895
 20
302.2589882495
 10
728.3178178642
 20
298.7471245808
 10
730.6201269852
 20
295.3038034838
 10
733.250362147
 20
291.9396680666
 10
736.2003934434
 20
288.665116679
 10
739.4611024966
 20
285.4902707716
 10
743.022410642
 20
282.4249436113
 10
746.8733100801
 20
279.4786099485
 10
747.6109634386
 20
278.9512549781
  0
LINE
  5
312
330
1F
100
AcDbEntity
  8
0
  6
Continuous
 62
     7
370
    15
100
AcDbLine
 10
737.5790426397
 20
370.8033864243
 30
0.0
 11
744.9275118681
 21
366.5612054361
 31
0.0
  0
LINE
  5
313
330
1F
100
AcDbEntity
  8
0
  6
Continuous
 62
     7
370
    15
100
AcDbLine
 10
744.9275118681
 20
366.5612054361
 30
0.0
 11
754.2306429996
 21
368.0002488905
 31
0.0
  0
LINE
  5
314
330
1F
100
AcDbEntity
  8
0
  6
Continuous
 62
     7
370
    15
100
AcDbLine
 10
755.1686314372
 20
368.5511443582
 30
0.0
 11
757.6554339294
 21
373.9088784425
 31
0.0
  0
LINE
  5
315
330
1F
100
AcDbEntity
  8
0
  6
Continuous
 62
     7
370
    15
100
AcDbLine
 10
915.7699514987
 20
373.9088784425
 30
0.0
 11
918.256753991
 21
368.5511443582
 31
0.0
  0
LINE
  5
316
330
1F
100
AcDbEntity
  8
0
  6
Continuous
 62
     7
370
    15
100
AcDbLine
 10
919.1947424286
 20
368.0002488905
 30
0.0
 11
928.4978735601
 21
366.5612054361
 31
0.0
  0
LINE
  5
317
330
1F
100
AcDbEntity
  8
0
  6
Continuous
 62
     7
370
    15
100
AcDbLine
 10
928.4978735601
 20
366.5612054361
 30
0.0
 11
935.8463427885
 21
370.8033864243
 31
0.0
  0
LINE
  5
318
330
1F
100
AcDbEntity
  8
0
  6
Continuous
 62
     7
370
    15
100
AcDbLine
 10
933.156616372
 20
265.2465293556
 30
0.0
 11
935.8463427885
 21
271.0414563529
 31
0.0
  0
LINE
  5
319
330
1F
100
AcDbEntity
  8
0
  6
Continuous
 62
     7
370
    15
100
AcDbLine
 10
915.7699514987
 20
267.9359643346
 30
0.0
 11
923.1184207271
 21
263.6937833465
 31
0.0
  0
LINE
  5
31A
330
1F
100
AcDbEntity
  8
0
  6
Continuous
 62
     7
370
    15
100
AcDbLine
 10
923.1184207271
 20
263.6937833465
 30
0.0
 11
933.156616372
 21
265.2465293556
 31
0.0
  0
LINE
  5
31B
330
1F
100
AcDbEntity
  8
0
  6
Continuous
 62
     7
370
    15
100
AcDbLine
 10
740.2687690562
 20
265.2465293556
 30
0.0
 11
750.3069647011
 21
263.6937833465
 31
0.0
  0
LINE
  5
31C
330
1F
100
AcDbEntity
  8
0
  6
Continuous
 62
     7
370
    15
100
AcDbLine
 10
750.3069647011
 20
263.6937833465
 30
0.0
 11
757.6554339294
 21
267.9359643346
 31
0.0
  0
LINE
  5
31D
330
1F
100
AcDbEntity
  8
0
  6
Continuous
 62
     7
370
    15
100
AcDbLine
 10
737.5790426397
 20
271.0414563529
 30
0.0
 11
740.2687690562
 21
265.2465293556
 31
0.0
  0
LWPOLYLINE
  5
31E
330
1F
100
AcDbEntity
  8
0
  6
Continuous
 62
     7
370
    15
100
AcDbPolyline
 90
       28
 70
   128
 43
0.0
 10
881.2604199288
 20
109.0481942628
 10
881.3860327686
 20
114.1058597212
 10
881.7624462536
 20
119.2914411384
 10
882.3883867198
 20
124.5873921482
 10
883.2617361829
 20
129.9757929289
 10
884.3795395047
 20
135.4384108379
 10
885.7380143926
 20
140.9567621053
 10
887.3325641976
 20
146.5121743772
 10
889.1577934679
 20
152.085849897
 10
891.2075262054
 20
157.6589291111
 10
893.4748267633
 20
163.2125544835
 10
895.9520233143
 20
168.7279343039
 10
898.6307338094
 20
174.1864062729
 10
901.5018943401
 20
179.5695006491
 10
904.5557898081
 20
184.8590027452
 10
907.7820867979
 20
190.0370145605
 10
911.1698685416
 20
195.0860153419
 10
914.7076718582
 20
199.9889208691
 10
918.3835259411
 20
204.7291412618
 10
922.1849928638
 20
209.2906371145
 10
926.0992096654
 20
213.6579737694
 10
930.1129318754
 20
217.8163735415
 10
934.2125783282
 20
221.7517657224
 10
938.3842771181
 20
225.4508341907
 10
942.6139125367
 20
228.9010624694
 10
946.8871728367
 20
232.0907760784
 10
951.189598658
 20
235.0091820364
 10
955.4945648559
 20
237.639438062
  0
LWPOLYLINE
  5
31F
330
1F
100
AcDbEntity
  8
0
  6
Continuous
 62
     7
370
    15
100
AcDbPolyline
 90
       33
 70
   128
 43
0.0
 10
738.4248501292
 20
255.2001086862
 10
743.4873975755
 20
252.4208933368
 10
748.7854402082
 20
249.7920296099
 10
754.3055947117
 20
247.3201582434
 10
760.0339166967
 20
245.0115233988
 10
765.9559359248
 20
242.8719568882
 10
772.0566928613
 20
240.9068634422
 10
778.3207764649
 20
239.1212070575
 10
784.7323631165
 20
237.519498457
 10
791.2752565921
 20
236.1057836957
 10
797.9329289746
 20
234.8836339397
 10
804.6885624061
 20
233.8561364454
 10
811.5250915699
 20
233.0258867607
 10
818.4252468003
 20
232.3949821683
 10
825.3715977061
 20
231.965016388
 10
832.3465972022
 20
231.7370755506
 10
839.3326258345
 20
231.7117354544
 10
846.3120362884
 20
231.8890601108
 10
853.2671979673
 20
232.2686015824
 10
860.1805415292
 20
232.8494011143
 10
867.0346032682
 20
233.6299915565
 10
873.8120692296
 20
234.60840107
 10
880.4958189462
 20
235.7821581072
 10
887.068968686
 20
237.1482976562
 10
893.5149141025
 20
238.7033687297
 10
899.8173721779
 20
240.4434430834
 10
905.9604223563
 20
242.3641251383
 10
911.9285467597
 20
244.4605630849
 10
917.706669388
 20
246.7274611391
 10
923.2801942019
 20
249.1590929196
 10
928.6350419941
 20
251.7493159134
 10
933.7576859542
 20
254.4915869926
 10
935.0165059442
 20
255.2093298417
  0
LWPOLYLINE
  5
320
330
1F
100
AcDbEntity
  8
0
  6
Continuous
 62
     7
370
    15
100
AcDbPolyline
 90
       49
 70
   128
 43
0.0
 10
737.717743348
 20
253.9753638184
 10
742.816711999
 20
251.176154114
 10
748.1528700463
 20
248.5283776984
 10
753.7127378915
 20
246.0387230846
 10
759.4822708261
 20
243.7134793563
 10
765.446894509
 20
241.5585202808
 10
771.5915417833
 20
239.579289472
 10
777.9006907364
 20
237.7807866384
 10
784.3584039108
 20
236.1675549545
 10
790.9483685624
 20
234.7436695834
 10
797.6539378686
 20
233.5127273831
 10
804.4581729794
 20
232.4778378205
 10
811.3438858063
 20
231.6416151165
 10
818.2936824412
 20
231.0061716421
 10
825.2900070946
 20
230.5731125828
 10
832.3151864432
 20
230.3435318832
 10
839.3514742743
 20
230.3180094842
 10
846.3810963141
 20
230.4966098576
 10
853.3862951274
 20
230.8788818433
 10
860.3493749739
 20
231.4638597891
 10
867.2527465096
 20
232.25006599
 10
874.078971219
 20
233.2355144208
 10
880.8108054658
 20
234.4177157533
 10
887.4312440527
 20
235.7936836443
 10
893.9235631772
 20
237.3599422795
 10
900.2713626776
 20
239.1125351537
 10
906.4586074616
 20
241.0470350651
 10
912.4696680119
 20
243.1585552992
 10
918.2893598677
 20
245.4417619724
 10
923.9029819824
 20
247.8908875067
 10
929.2963538594
 20
250.4997451984
 10
934.4558513732
 20
253.2617448464
 10
939.3684411853
 20
256.1699094001
 10
944.0217136674
 20
259.2168925833
 10
948.4039142495
 20
262.3949974521
 10
952.5039731125
 20
265.6961958377
 10
956.311533152
 20
269.1121486266
 10
959.8169761408
 20
272.6342268255
 10
963.0114470256
 20
276.2535333592
 10
965.8868762959
 20
279.9609255453
 10
968.4360003677
 20
283.7470381894
 10
970.6523799323
 20
287.6023072424
 10
972.5304162227
 20
291.51699396
 10
974.0653651562
 20
295.4812095038
 10
975.2533493185
 20
299.4849399214
 10
976.0913677585
 20
303.5180714422
 10
976.577303569
 20
307.570416026
 10
976.709929234
 20
311.6317370986
 10
976.7055473524
 20
311.9404724563
  0
LWPOLYLINE
  5
321
330
1F
100
AcDbEntity
  8
0
  6
Continuous
 62
     7
370
    15
100
AcDbPolyline
 90
       33
 70
   128
 43
0.0
 10
737.7016578061
 20
368.2632119787
 10
736.481585091
 20
367.5498560803
 10
731.6971429658
 20
364.571341565
 10
727.1779792334
 20
361.4578142537
 10
722.9355096935
 20
358.2171391866
 10
718.9804511924
 20
354.8575025901
 10
715.3227945511
 20
351.3873911979
 10
711.9717793277
 20
347.8155708124
 10
708.9358704776
 20
344.151064162
 10
706.2227369699
 20
340.4031281085
 10
703.8392324155
 20
336.5812302637
 10
701.7913777535
 20
332.6950250732
 10
700.0843460427
 20
328.7543294285
 10
698.7224493932
 20
324.769097869
 10
697.7091280743
 20
320.7493974353
 10
697.0469418235
 20
316.7053822397
 10
696.7375633808
 20
312.6472678155
 10
696.7817742629
 20
308.5853053119
 10
697.1794627893
 20
304.5297555988
 10
697.9296243644
 20
300.4908633466
 10
699.0303640148
 20
296.4788311478
 10
700.4789011766
 20
292.5037937439
 10
702.2715767193
 20
288.5757924243
 10
704.4038621889
 20
284.7047496613
 10
706.8703712472
 20
280.9004440448
 10
709.6648732783
 20
277.1724855811
 10
712.7803091276
 20
273.5302914167
 10
716.2088089335
 20
269.9830620502
 10
719.9417120083
 20
266.5397580908
 10
723.9695887145
 20
263.2090776232
 10
728.2822642863
 20
259.9994342353
 10
732.8688445307
 20
256.9189357649
 10
737.717743348
 20
253.9753638184
  0
LWPOLYLINE
  5
322
330
1F
100
AcDbEntity
  8
0
  6
Continuous
 62
     7
370
    15
100
AcDbPolyline
 90
       48
 70
   128
 43
0.0
 10
737.717743348
 20
247.4430373233
 10
742.816711999
 20
244.6438276189
 10
748.1528700463
 20
241.9960512033
 10
753.7127378915
 20
239.5063965895
 10
759.4822708261
 20
237.1811528612
 10
765.446894509
 20
235.0261937858
 10
771.5915417833
 20
233.0469629769
 10
777.9006907364
 20
231.2484601433
 10
784.3584039108
 20
229.6352284594
 10
790.9483685624
 20
228.2113430883
 10
797.6539378686
 20
226.980400888
 10
804.4581729794
 20
225.9455113254
 10
811.3438858063
 20
225.1092886214
 10
818.2936824412
 20
224.473845147
 10
825.2900070946
 20
224.0407860877
 10
832.3151864432
 20
223.8112053881
 10
839.3514742743
 20
223.7856829892
 10
846.3810963141
 20
223.9642833625
 10
853.3862951274
 20
224.3465553482
 10
860.3493749739
 20
224.931533294
 10
867.2527465096
 20
225.7177394949
 10
874.078971219
 20
226.7031879257
 10
880.8108054658
 20
227.8853892582
 10
887.4312440527
 20
229.2613571492
 10
893.9235631772
 20
230.8276157844
 10
900.2713626776
 20
232.5802086586
 10
906.4586074616
 20
234.51470857
 10
912.4696680119
 20
236.6262288041
 10
918.2893598677
 20
238.9094354773
 10
923.9029819824
 20
241.3585610116
 10
929.2963538594
 20
243.9674187033
 10
934.4558513732
 20
246.7294183513
 10
939.3684411853
 20
249.637582905
 10
944.0217136674
 20
252.6845660882
 10
948.4039142495
 20
255.862670957
 10
952.5039731125
 20
259.1638693426
 10
956.311533152
 20
262.5798221315
 10
959.8169761408
 20
266.1019003304
 10
963.0114470256
 20
269.7212068641
 10
965.8868762959
 20
273.4285990503
 10
968.4360003677
 20
277.2147116944
 10
970.6523799323
 20
281.0699807473
 10
972.5304162227
 20
284.9846674649
 10
974.0653651562
 20
288.9488830088
 10
975.2533493185
 20
292.9526134263
 10
976.0913677585
 20
296.9857449471
 10
976.577303569
 20
301.0380895309
 10
976.7126927141
 20
304.5916051509
  0
LWPOLYLINE
  5
323
330
1F
100
AcDbEntity
  8
0
  6
Continuous
 62
     7
370
    15
100
AcDbPolyline
 90
       17
 70
   128
 43
0.0
 10
696.7126927141
 20
304.5916051509
 10
696.7817742629
 20
302.0529788168
 10
697.1794627893
 20
297.9974291037
 10
697.9296243644
 20
293.9585368515
 10
699.0303640148
 20
289.9465046527
 10
700.4789011766
 20
285.9714672488
 10
702.2715767193
 20
282.0434659292
 10
704.4038621889
 20
278.1724231662
 10
706.8703712472
 20
274.3681175497
 10
709.6648732783
 20
270.640159086
 10
712.7803091276
 20
266.9979649216
 10
716.2088089335
 20
263.4507355551
 10
719.9417120083
 20
260.0074315957
 10
723.9695887145
 20
256.6767511281
 10
728.2822642863
 20
253.4671077402
 10
732.8688445307
 20
250.3866092698
 10
737.717743348
 20
247.4430373233
  0
LWPOLYLINE
  5
324
330
1F
100
AcDbEntity
  8
0
  6
Continuous
 62
     7
370
    15
100
AcDbPolyline
 90
       33
 70
   128
 43
0.0
 10
934.3092842663
 20
246.6355186276
 10
934.2934285178
 20
246.6263638113
 10
929.2258011801
 20
243.8454886659
 10
923.9206940197
 20
241.2163558331
 10
918.3917251707
 20
238.7457142593
 10
912.6530874169
 20
236.4399060459
 10
906.719511759
 20
234.3048501696
 10
900.6062296006
 20
232.3460272881
 10
894.3289336494
 20
230.5684656718
 10
887.9037376341
 20
228.9767282958
 10
881.3471349407
 20
227.574901127
 10
874.6759562742
 20
226.3665826358
 10
867.9073264547
 20
225.3548745584
 10
861.0586204577
 20
224.5423739349
 10
854.1474188133
 20
223.9311664427
 10
847.1914624772
 20
223.5228210428
 10
840.2086072893
 20
223.3183859518
 10
833.2167781389
 20
223.3183859518
 10
826.233922951
 20
223.5228210428
 10
819.2779666148
 20
223.9311664427
 10
812.3667649705
 20
224.5423739349
 10
805.5180589735
 20
225.3548745584
 10
798.749429154
 20
226.3665826358
 10
792.0782504875
 20
227.574901127
 10
785.5216477941
 20
228.9767282958
 10
779.0964517788
 20
230.5684656718
 10
772.8191558276
 20
232.3460272881
 10
766.7058736692
 20
234.3048501696
 10
760.7722980113
 20
236.4399060459
 10
755.0336602575
 20
238.7457142593
 10
749.5046914085
 20
241.2163558331
 10
744.1995842481
 20
243.8454886659
 10
739.1319569104
 20
246.6263638113
  0
LWPOLYLINE
  5
325
330
1F
100
AcDbEntity
  8
0
  6
Continuous
 62
     7
370
    15
100
AcDbPolyline
 90
       71
 70
   128
 43
0.0
 10
916.6157589882
 20
369.4991021422
 10
912.0098560227
 20
372.0129005364
 10
907.1670403241
 20
374.3736568
 10
902.1025491824
 20
376.5739431204
 10
896.8323173603
 20
378.6068365828
 10
891.372926957
 20
380.4659409523
 10
885.7415552344
 20
382.1454067988
 10
879.9559205714
 20
383.6399499012
 10
874.034226715
 20
384.9448678742
 10
867.9951055051
 20
386.0560549629
 10
861.8575582512
 20
386.9700149617
 10
855.6408959475
 20
387.6838722144
 10
849.3646785138
 20
388.1953806619
 10
843.0486532519
 20
388.5029309093
 10
836.7126927141
 20
388.6055552899
 10
830.3767321763
 20
388.5029309093
 10
824.0607069144
 20
388.1953806619
 10
817.7844894807
 20
387.6838722144
 10
811.567827177
 20
386.9700149617
 10
805.4302799231
 20
386.0560549629
 10
799.3911587132
 20
384.9448678742
 10
793.4694648568
 20
383.6399499012
 10
787.6838301938
 20
382.1454067988
 10
782.0524584712
 20
380.4659409523
 10
776.5930680679
 20
378.6068365828
 10
771.3228362458
 20
376.5739431204
 10
766.2583451041
 20
374.3736568
 10
761.4155294055
 20
372.0129005364
 10
756.80962644
 20
369.4991021422
 10
752.4551280823
 20
366.8401709572
 10
748.3657351952
 20
364.0444729625
 10
744.5543145217
 20
361.1208044584
 10
741.0328582013
 20
358.0783643877
 10
737.8124460384
 20
354.9267253924
 10
734.9032106411
 20
351.6758036947
 10
732.3143055403
 20
348.3358278971
 10
730.0538763893
 20
344.9173067992
 10
728.1290353343
 20
341.4309963329
 10
726.5458386376
 20
337.8878657208
 10
725.3092676215
 20
334.2990629628
 10
724.4232129962
 20
330.6758797599
 10
723.8904626171
 20
327.029715987
 10
723.7126927141
 20
323.3720438242
 10
723.8904626171
 20
319.7143716615
 10
724.4232129962
 20
316.0682078886
 10
725.3092676215
 20
312.4450246857
 10
726.5458386376
 20
308.8562219276
 10
728.1290353343
 20
305.3130913156
 10
730.0538763893
 20
301.8267808493
 10
732.3143055403
 20
298.4082597513
 10
734.9032106411
 20
295.0682839537
 10
737.8124460384
 20
291.8173622561
 10
741.0328582013
 20
288.6657232608
 10
744.5543145217
 20
285.62328319
 10
748.3657351952
 20
282.699614686
 10
752.4551280823
 20
279.9039166913
 10
756.80962644
 20
277.2449855062
 10
761.4155294055
 20
274.731187112
 10
766.2583451041
 20
272.3704308484
 10
771.3228362458
 20
270.170144528
 10
776.5930680679
 20
268.1372510656
 10
782.0524584712
 20
266.2781466961
 10
787.6838301938
 20
264.5986808497
 10
793.4694648568
 20
263.1041377473
 10
799.3911587132
 20
261.7992197743
 10
805.4302799231
 20
260.6880326856
 10
811.567827177
 20
259.7740726867
 10
817.7844894807
 20
259.0602154341
 10
824.0607069144
 20
258.5487069866
 10
830.3767321763
 20
258.2411567391
 10
836.3306957785
 20
258.1389050976
  0
LWPOLYLINE
  5
326
330
1F
100
AcDbEntity
  8
0
  6
Continuous
 62
     7
370
    15
100
AcDbPolyline
 90
       43
 70
   128
 43
0.0
 10
837.0946896497
 20
258.1389050976
 10
843.0486532519
 20
258.2411567391
 10
849.3646785138
 20
258.5487069866
 10
855.6408959475
 20
259.0602154341
 10
861.8575582512
 20
259.7740726867
 10
867.9951055051
 20
260.6880326856
 10
874.034226715
 20
261.7992197743
 10
879.9559205714
 20
263.1041377473
 10
885.7415552344
 20
264.5986808497
 10
891.372926957
 20
266.2781466961
 10
896.8323173603
 20
268.1372510656
 10
902.1025491824
 20
270.170144528
 10
907.1670403241
 20
272.3704308484
 10
912.0098560227
 20
274.731187112
 10
916.6157589882
 20
277.2449855062
 10
920.9702573459
 20
279.9039166913
 10
925.059650233
 20
282.699614686
 10
928.8710709065
 20
285.62328319
 10
932.3925272269
 20
288.6657232608
 10
935.6129393898
 20
291.8173622561
 10
938.5221747871
 20
295.0682839537
 10
941.1110798879
 20
298.4082597513
 10
943.3715090389
 20
301.8267808493
 10
945.2963500939
 20
305.3130913156
 10
946.8795467906
 20
308.8562219276
 10
948.1161178067
 20
312.4450246857
 10
949.002172432
 20
316.0682078886
 10
949.5349228111
 20
319.7143716615
 10
949.7126927141
 20
323.3720438242
 10
949.5349228111
 20
327.029715987
 10
949.002172432
 20
330.6758797599
 10
948.1161178067
 20
334.2990629628
 10
946.8795467906
 20
337.8878657208
 10
945.2963500939
 20
341.4309963329
 10
943.3715090389
 20
344.9173067992
 10
941.1110798879
 20
348.3358278971
 10
938.5221747871
 20
351.6758036947
 10
935.6129393898
 20
354.9267253924
 10
932.3925272269
 20
358.0783643877
 10
928.8710709065
 20
361.1208044584
 10
925.059650233
 20
364.0444729625
 10
920.9702573459
 20
366.8401709572
 10
916.6157589882
 20
369.4991021422
  0
LWPOLYLINE
  5
327
330
1F
100
AcDbEntity
  8
0
  6
Continuous
 62
     7
370
    15
100
AcDbPolyline
 90
       28
 70
   128
 43
0.0
 10
918.0299725506
 20
368.6824286303
 10
922.4234875268
 20
366.0010068571
 10
926.5520753481
 20
363.1827736405
 10
930.4029747862
 20
360.2364399778
 10
933.9642829316
 20
357.1711128174
 10
937.2249919848
 20
353.9962669101
 10
940.1750232812
 20
350.7217155224
 10
942.805258443
 20
347.3575801052
 10
945.107567564
 20
343.9142590082
 10
947.0748343387
 20
340.4023953396
 10
948.7009780582
 20
336.8328440687
 10
949.9809724056
 20
333.2166384739
 10
950.9108609915
 20
329.5649560395
 10
951.4877695837
 20
325.8890839067
 10
951.7099149909
 20
322.2003839855
 10
951.5766105741
 20
318.510257836
 10
951.0882683699
 20
314.8301114267
 10
950.2463978159
 20
311.1713198791
 10
949.0536010858
 20
307.5451923084
 10
947.5135650459
 20
303.962936867
 10
945.6310498594
 20
300.4356261012
 10
943.4118742728
 20
296.9741627265
 10
940.8628976307
 20
293.5892459277
 10
937.9919986738
 20
290.2913382887
 10
934.8080511862
 20
287.0906334531
 10
931.3208965673
 20
283.997024616
 10
927.541313412
 20
281.020073945
 10
924.2969832259
 20
278.7165318199
  0
LWPOLYLINE
  5
328
330
1F
100
AcDbEntity
  8
0
  6
Continuous
 62
     7
370
    15
100
AcDbPolyline
 90
       15
 70
   128
 43
0.0
 10
916.7110611369
 20
274.0462581207
 10
914.5691175352
 20
272.8792144029
 10
909.745126161
 20
270.4568870742
 10
904.6953957204
 20
268.1930697009
 10
899.4355346406
 20
266.0947596126
 10
893.981800851
 20
264.1684425658
 10
888.3510515301
 20
262.4200726959
 10
882.5606910014
 20
260.855054114
 10
876.6286169374
 20
259.4782242029
 10
870.5731650391
 20
258.2938386649
 10
864.4130523613
 20
257.3055583679
 10
858.1673194593
 20
256.5164380296
 10
851.8552715356
 20
255.9289167758
 10
845.4964187684
 20
255.544810601
 10
844.9482647618
 20
255.5213303773
  0
LWPOLYLINE
  5
329
330
1F
100
AcDbEntity
  8
0
  6
Continuous
 62
     7
370
    15
100
AcDbPolyline
 90
       15
 70
   128
 43
0.0
 10
828.4771206664
 20
255.5213303773
 10
826.3359384859
 20
255.6216912668
 10
819.9869489032
 20
256.0567871541
 10
813.6896576362
 20
256.6949028804
 10
807.4635292512
 20
257.5340660665
 10
801.3278083542
 20
258.5716829072
 10
795.301460107
 20
259.8045461882
 10
789.4031116065
 20
261.2288451997
 10
783.6509943101
 20
262.8401775153
 10
778.0628876826
 20
264.6335625989
 10
772.6560642414
 20
266.6034572001
 10
767.4472361678
 20
268.7437724876
 10
762.452503651
 20
271.0478928694
 10
757.6873051229
 20
273.5086964416
 10
756.7143242913
 20
274.0462581207
  0
LWPOLYLINE
  5
32A
330
1F
100
AcDbEntity
  8
0
  6
Continuous
 62
     7
370
    15
100
AcDbPolyline
 90
       29
 70
   128
 43
0.0
 10
749.1284022023
 20
278.7165318199
 10
748.9036708524
 20
278.8694675572
 10
744.9123848201
 20
281.7528652643
 10
741.2048482786
 20
284.7598577055
 10
737.792521011
 20
287.8811504396
 10
734.6859503252
 20
291.1070957295
 10
731.8947384533
 20
294.4277223632
 10
729.427512871
 20
297.832766474
 10
727.2918996314
 20
301.3117032659
 10
725.4944997926
 20
304.8537795445
 10
724.0408690145
 20
308.4480469551
 10
722.9355003864
 20
312.083395823
 10
722.1818105395
 20
315.7485894932
 10
721.7821290859
 20
319.4322990622
 10
721.7376914181
 20
323.1231383947
 10
722.0486348904
 20
326.809699318
 10
722.7139983942
 20
330.4805868834
 10
723.7317253292
 20
334.1244545879
 10
725.0986699597
 20
337.7300394451
 10
726.8106071382
 20
341.2861967991
 10
728.862245365
 20
344.7819347711
 10
731.2472431439
 20
348.2064482354
 10
733.9582285834
 20
351.5491522172
 10
736.9868221829
 20
354.79971461
 10
740.3236627332
 20
357.9480881117
 10
743.9584362513
 20
360.9845412803
 10
747.8799078606
 20
363.8996886131
 10
752.0759565171
 20
366.6845195566
 10
755.3821997539
 20
368.6747996167
  0
LWPOLYLINE
  5
32B
330
1F
100
AcDbEntity
  8
0
  6
Continuous
 62
     7
370
    15
100
AcDbPolyline
 90
       92
 70
   128
 43
0.0
 10
918.0299725506
 20
112.3138267101
 10
918.1563357691
 20
116.6118310233
 10
918.5348232463
 20
121.0352492552
 10
919.1636313171
 20
125.5630018036
 10
920.0397634247
 20
130.1735118657
 10
921.1590444005
 20
134.8448082613
 10
922.516140361
 20
139.554630136
 10
924.1045841259
 20
144.2805330435
 10
925.9168060373
 20
148.9999959044
 10
927.9441700326
 20
153.6905283289
 10
930.1770147989
 20
158.3297777939
 10
932.6046998143
 20
162.8956361631
 10
935.2156560539
 20
167.3663450421
 10
937.9974411224
 20
171.720599467
 10
940.936798547
 20
175.9376494327
 10
944.0197209511
 20
179.9973987756
 10
947.2315168054
 20
183.8805009413
 10
950.5568804401
 20
187.5684511795
 10
953.979964983
 20
191.0436747281
 10
957.4844578774
 20
194.2896105641
 10
961.0536586188
 20
197.290790325
 10
964.6705583403
 20
200.0329120227
 10
968.3179208675
 20
202.5029081984
 10
971.9783648569
 20
204.6890081955
 10
975.6344466261
 20
206.580794252
 10
979.2687432804
 20
208.1692511459
 10
982.8639357413
 20
209.4468091567
 10
986.4028912793
 20
210.4073801385
 10
989.8687451598
 20
211.0463865334
 10
993.2449810106
 20
211.3607831847
 10
996.5155095304
 20
211.3490718493
 10
999.6647451614
 20
211.0113083371
 10
1002.6776803616
 20
210.3491022449
 10
1005.5399571228
 20
209.3656092864
 10
1008.2379353927
 20
208.0655162534
 10
1010.7587580763
 20
206.4550186812
 10
1013.0904123053
 20
204.5417913243
 10
1015.2217866857
 20
202.3349515822
 10
1017.1427242478
 20
199.8450160513
 10
1018.8440708494
 20
197.0838504083
 10
1020.3177187992
 20
194.0646128649
 10
1021.5566454935
 20
190.8016914631
 10
1022.5549468825
 20
187.3106355091
 10
1023.3078656054
 20
183.6080814744
 10
1023.8118136617
 20
179.7116737152
 10
1024.0643895093
 20
175.6399803888
 10
1024.0643895093
 20
171.4124049682
 10
1023.8118136617
 20
167.0490937755
 10
1023.3078656054
 20
162.5708399755
 10
1022.5549468825
 20
157.9989844869
 10
1021.5566454935
 20
153.3553142833
 10
1020.3177187992
 20
148.6619585678
 10
1018.8440708494
 20
143.9412833178
 10
1017.1427242478
 20
139.2157847006
 10
1015.2217866857
 20
134.5079818691
 10
1013.0904123053
 20
129.8403096477
 10
1010.7587580763
 20
125.2350116202
 10
1008.2379353927
 20
120.714034129
 10
1005.5399571228
 20
116.2989216906
 10
1002.6776803616
 20
112.0107143264
 10
999.6647451614
 20
107.8698472974
 10
996.5155095304
 20
103.8960537207
 10
993.2449810106
 20
100.1082705323
 10
989.8687451598
 20
96.5245482441
 10
986.4028912793
 20
93.1619649248
 10
982.8639357413
 20
90.0365448152
 10
979.2687432804
 20
87.1631819655
 10
975.6344466261
 20
84.5555692582
 10
971.9783648569
 20
82.2261331552
 10
968.3179208675
 20
80.1859744806
 10
964.6705583403
 20
78.4448155193
 10
961.0536586188
 20
77.0109536869
 10
957.4844578774
 20
75.8912219879
 10
953.979964983
 20
75.0909564537
 10
950.5568804401
 20
74.6139707142
 10
947.2315168054
 20
74.4625378235
 10
944.0197209511
 20
74.6373794283
 10
940.936798547
 20
75.1376623289
 10
937.9974411224
 20
75.9610024492
 10
935.2156560539
 20
77.1034761987
 10
932.6046998143
 20
78.5596391698
 10
930.1770147989
 20
80.3225520827
 10
927.9441700326
 20
82.3838138545
 10
925.9168060373
 20
84.7336016342
 10
924.1045841259
 20
87.3607176131
 10
922.516140361
 20
90.2526423869
 10
921.1590444005
 20
93.3955946173
 10
920.0397634247
 20
96.7745967056
 10
919.1636313171
 20
100.3735461679
 10
918.5348232463
 20
104.1752923712
 10
918.1563357691
 20
108.1617182636
 10
918.0299725506
 20
112.3138267101
  0
LWPOLYLINE
  5
32C
330
1F
100
AcDbEntity
  8
0
  6
Continuous
 62
     7
370
    15
100
AcDbPolyline
 90
       83
 70
   128
 43
0.0
 10
1013.4893880107
 20
167.4213742582
 10
1013.3649004979
 20
163.5991738031
 10
1012.9921685017
 20
159.6556733172
 10
1012.3733793616
 20
155.6140148294
 10
1011.5121643784
 20
151.4979163988
 10
1010.413577504
 20
147.3315329277
 10
1009.0840656831
 20
143.1393144109
 10
1007.5314310197
 20
138.9458624538
 10
1005.7647849913
 20
134.7757858998
 10
1003.7944949794
 20
130.6535564164
 10
1001.6321234291
 20
126.6033648852
 10
999.2903599966
 20
122.6489794406
 10
996.7829470809
 20
118.8136059889
 10
994.1245991779
 20
115.1197520265
 10
991.3309165302
 20
111.5890945572
 10
988.4182935784
 20
108.2423528831
 10
985.4038227522
 20
105.0991670149
 10
982.3051941651
 20
102.1779824173
 10
979.1405918016
 20
99.495941763
 10
975.9285868069
 20
97.068784333
 10
972.6880285034
 20
94.9107536522
 10
969.4379337757
 20
93.0345139029
 10
966.1973754722
 20
91.4510756058
 10
962.9853704775
 20
90.1697310065
 10
959.820768114
 20
89.1979995447
 10
956.7221395269
 20
88.541583727
 10
953.7076687007
 20
88.2043356623
 10
950.7950457489
 20
88.1882344565
 10
948.0013631012
 20
88.4933745978
 10
945.3430151982
 20
89.1179654025
 10
942.8356022825
 20
90.0583415234
 10
940.49383885
 20
91.3089844596
 10
938.3314672997
 20
92.862554941
 10
936.3611772878
 20
94.7099359982
 10
934.5945312594
 20
96.8402864646
 10
933.041896596
 20
99.2411045966
 10
931.7123847751
 20
101.8983014388
 10
930.6137979007
 20
104.7962835034
 10
929.7525829175
 20
107.9180442795
 10
929.1337937774
 20
111.2452640334
 10
928.7610617812
 20
114.7584173166
 10
928.6365742683
 20
118.4368875488
 10
928.7610617812
 20
122.2590880039
 10
929.1337937774
 20
126.2025884898
 10
929.7525829175
 20
130.2442469776
 10
930.6137979007
 20
134.3603454082
 10
931.7123847751
 20
138.5267288793
 10
933.041896596
 20
142.718947396
 10
934.5945312594
 20
146.9123993531
 10
936.3611772878
 20
151.0824759071
 10
938.3314672997
 20
155.2047053906
 10
940.49383885
 20
159.2548969218
 10
942.8356022825
 20
163.2092823663
 10
945.3430151982
 20
167.0446558181
 10
948.0013631012
 20
170.7385097805
 10
950.7950457489
 20
174.2691672497
 10
953.7076687007
 20
177.6159089239
 10
956.7221395269
 20
180.759094792
 10
959.820768114
 20
183.6802793896
 10
962.9853704775
 20
186.362320044
 10
966.1973754722
 20
188.7894774739
 10
969.4379337757
 20
190.9475081547
 10
972.6880285034
 20
192.8237479041
 10
975.9285868069
 20
194.4071862012
 10
979.1405918016
 20
195.6885308004
 10
982.3051941651
 20
196.6602622622
 10
985.4038227522
 20
197.31667808
 10
988.4182935784
 20
197.6539261446
 10
991.3309165302
 20
197.6700273505
 10
994.1245991779
 20
197.3648872092
 10
996.7829470809
 20
196.7402964044
 10
999.2903599966
 20
195.7999202835
 10
1001.6321234291
 20
194.5492773473
 10
1003.7944949794
 20
192.995706866
 10
1005.7647849913
 20
191.1483258088
 10
1007.5314310197
 20
189.0179753424
 10
1009.0840656831
 20
186.6171572103
 10
1010.413577504
 20
183.9599603682
 10
1011.5121643784
 20
181.0619783035
 10
1012.3733793616
 20
177.9402175275
 10
1012.9921685017
 20
174.6129977736
 10
1013.3649004979
 20
171.0998444903
 10
1013.4893880107
 20
167.4213742582
  0
SPLINE
  5
32D
330
1F
100
AcDbEntity
  8
0
  6
Continuous
 62
     7
370
    15
100
AcDbSpline
210
0.0
220
0.0
230
1.0
 70
     8
 71
     3
 72
    34
 73
    30
 74
     0
 42
0.000000001
 43
0.00000001
 40
0.0
 40
0.0
 40
0.0
 40
0.0
 40
0.0398167839876893
 40
0.079981597806721
 40
0.1200646734599209
 40
0.1596909123723936
 40
0.1991492345313341
 40
0.2384275464959256
 40
0.2771992203054244
 40
0.3157817642485253
 40
0.3542564236714643
 40
0.3921333490024963
 40
0.4296892136302247
 40
0.4673044905299074
 40
0.5047369841338722
 40
0.5416285700707847
 40
0.5784856859226745
 40
0.615703439184976
 40
0.6526321564270298
 40
0.6896036805198128
 40
0.7270268029780071
 40
0.7643894471127481
 40
0.8019727311601892
 40
0.8400079409223145
 40
0.8780453397767423
 40
0.9163428640301325
 40
0.9551368802496129
 40
0.993932937562565
 40
1.0
 40
1.0
 40
1.0
 40
1.0
 10
851.607771217968
 20
153.203819697715
 30
0.0
 10
851.6948442852016
 20
155.3347015035019
 30
0.0
 10
851.8697515063733
 20
159.6150906885452
 30
0.0
 10
853.2717909725264
 20
166.0428252651003
 30
0.0
 10
855.4437981675886
 20
172.3762498155276
 30
0.0
 10
858.3701977657053
 20
178.5546604643133
 30
0.0
 10
861.9264645733244
 20
184.5530051735484
 30
0.0
 10
866.0234995713002
 20
190.3631914921678
 30
0.0
 10
870.5712577429632
 20
195.9844965295926
 30
0.0
 10
875.4947921812153
 20
201.421130437528
 30
0.0
 10
880.7197934073615
 20
206.6649233272996
 30
0.0
 10
886.1696695310434
 20
211.7002816156068
 30
0.0
 10
891.7812004460329
 20
216.517352827529
 30
0.0
 10
897.5022614882262
 20
221.1046442497801
 30
0.0
 10
903.2409467570332
 20
225.4128448937712
 30
0.0
 10
908.9032739124198
 20
229.3922037621082
 30
0.0
 10
914.4241259249683
 20
233.0103774148289
 30
0.0
 10
919.7200774300042
 20
236.2165723957623
 30
0.0
 10
924.7042121073729
 20
238.9588400044368
 30
0.0
 10
929.3081637546911
 20
241.1988383470008
 30
0.0
 10
933.4859276996972
 20
242.9083977139127
 30
0.0
 10
937.2112989911507
 20
244.0702130304836
 30
0.0
 10
940.4749125239425
 20
244.675973025566
 30
0.0
 10
943.284613857385
 20
244.7217968089497
 30
0.0
 10
945.6589431774443
 20
244.2004440820289
 30
0.0
 10
947.6372530074415
 20
243.1274646194545
 30
0.0
 10
949.2184011084238
 20
241.4204173732334
 30
0.0
 10
950.184795894037
 20
239.9219799883637
 30
0.0
 10
950.5539889942736
 20
238.8112403872379
 30
0.0
 10
950.6039168103299
 20
238.6610295559525
 30
0.0
  0
SPLINE
  5
32E
330
1F
100
AcDbEntity
  8
0
  6
Continuous
 62
     7
370
    15
100
AcDbSpline
210
0.0
220
0.0
230
1.0
 70
     8
 71
     3
 72
    17
 73
    13
 74
     0
 42
0.000000001
 43
0.00000001
 40
0.0
 40
0.0
 40
0.0
 40
0.0
 40
0.0082657370704459
 40
0.1153673971924744
 40
0.2235546956987176
 40
0.3328330991887476
 40
0.4419055218880624
 40
0.5516110664217171
 40
0.6630395904617741
 40
0.775001436853296
 40
0.8869490501688049
 40
1.0
 40
1.0
 40
1.0
 40
1.0
 10
881.2604199288496
 20
108.3566562969196
 30
0.0
 10
881.119012305411
 20
108.415662817465
 30
0.0
 10
879.1453432520343
 20
109.2392347064193
 30
0.0
 10
875.5651643180105
 20
111.4555107630087
 30
0.0
 10
870.6065623280697
 20
114.9947582338586
 30
0.0
 10
866.0572842822058
 20
119.1748946114835
 30
0.0
 10
861.9633120966807
 20
123.8484699597313
 30
0.0
 10
858.4090855892358
 20
129.0010023005447
 30
0.0
 10
855.4752630807394
 20
134.5885776492203
 30
0.0
 10
853.2942608273164
 20
140.5443723657932
 30
0.0
 10
851.8762987617976
 20
146.774296966229
 30
0.0
 10
851.6975725420946
 20
151.0536504951246
 30
0.0
 10
851.607771217968
 20
153.203819697715
 30
0.0
  0
LWPOLYLINE
  5
32F
330
1F
100
AcDbEntity
  8
0
  6
Continuous
 62
     7
370
    15
100
AcDbPolyline
 90
       24
 70
   128
 43
0.0
 10
753.6276459247
 20
91.6863845804
 10
758.2888343415
 20
89.1386811412
 10
763.184070375
 20
86.741724408
 10
768.2987447168
 20
84.5026678417
 10
773.6175931684
 20
82.4281936673
 10
779.1247421957
 20
80.5244929308
 10
784.8037563013
 20
78.7972470236
 10
790.6376870752
 20
77.2516107264
 10
796.609123775
 20
75.8921968252
 10
802.7002452865
 20
74.7230623456
 10
808.8928733093
 20
73.7476964442
 10
815.1685266073
 20
72.9690099964
 10
821.5084761645
 20
72.3893269084
 10
827.8938010798
 20
72.0103771825
 10
834.3054450338
 20
71.8332917536
 10
840.7242731609
 20
71.8585991143
 10
847.1311291554
 20
72.0862237373
 10
853.5068924407
 20
72.5154863014
 10
859.8325352333
 20
73.1451057183
 10
866.089179329
 20
73.9732029563
 10
872.2581524426
 20
74.9973066478
 10
878.3210439338
 20
76.2143604647
 10
884.2597597515
 20
77.6207322402
 10
885.573517242
 20
77.9619088436
  0
LWPOLYLINE
  5
330
330
1F
100
AcDbEntity
  8
0
  6
Continuous
 62
     7
370
    15
100
AcDbPolyline
 90
       16
 70
   128
 43
0.0
 10
719.2126927141
 20
139.6503611499
 10
719.2373542017
 20
138.2606866441
 10
719.5441083993
 20
134.5593233752
 10
720.2005397037
 20
130.873153764
 10
721.204689066
 20
127.2131787893
 10
722.5535597098
 20
123.5903212551
 10
724.243126075
 20
120.0153931921
 10
726.2683458314
 20
116.4990635906
 10
728.6231749273
 20
113.0518265603
 10
731.3005856272
 20
109.6839700114
 10
734.2925874852
 20
106.4055449515
 10
737.5902511919
 20
103.2263354894
 10
741.1837352226
 20
100.1558296358
 10
745.0623152085
 20
97.203190987
 10
749.2144159428
 20
94.3772313771
 10
753.6276459247
 20
91.6863845804
  0
LINE
  5
331
330
1F
100
AcDbEntity
  8
0
  6
Continuous
 62
     7
370
    15
100
AcDbLine
 10
827.7126927141
 20
255.266548669
 30
0.0
 11
827.7126927141
 21
249.2671987815
 31
0.0
  0
LINE
  5
332
330
1F
100
AcDbEntity
  8
0
  6
Continuous
 62
     7
370
    15
100
AcDbLine
 10
836.7126927141
 20
258.2662236127
 30
0.0
 11
827.7126927141
 21
255.266548669
 31
0.0
  0
LINE
  5
333
330
1F
100
AcDbEntity
  8
0
  6
Continuous
 62
     7
370
    15
100
AcDbLine
 10
845.7126927141
 20
255.266548669
 30
0.0
 11
836.7126927141
 21
258.2662236127
 31
0.0
  0
LINE
  5
334
330
1F
100
AcDbEntity
  8
0
  6
Continuous
 62
     7
370
    15
100
AcDbLine
 10
845.7126927141
 20
249.2671987815
 30
0.0
 11
845.7126927141
 21
255.266548669
 31
0.0
  0
LINE
  5
335
330
1F
100
AcDbEntity
  8
0
  6
Continuous
 62
     7
370
    15
100
AcDbLine
 10
836.7126927141
 20
246.2675238377
 30
0.0
 11
845.7126927141
 21
249.2671987815
 31
0.0
  0
LINE
  5
336
330
1F
100
AcDbEntity
  8
0
  6
Continuous
 62
     7
370
    15
100
AcDbLine
 10
827.7126927141
 20
249.2671987815
 30
0.0
 11
836.7126927141
 21
246.2675238377
 31
0.0
  0
LINE
  5
337
330
1F
100
AcDbEntity
  8
0
  6
Continuous
 62
     7
370
    15
100
AcDbLine
 10
836.7126927141
 20
246.2675238377
 30
0.0
 11
836.7126927141
 21
242.1848197783
 31
0.0
  0
LINE
  5
338
330
1F
100
AcDbEntity
  8
0
  6
Continuous
 62
     7
370
    15
100
AcDbLine
 10
845.7126927141
 20
249.2671987815
 30
0.0
 11
845.7126927141
 21
245.184494722
 31
0.0
  0
LINE
  5
339
330
1F
100
AcDbEntity
  8
0
  6
Continuous
 62
     7
370
    15
100
AcDbLine
 10
827.7126927141
 20
249.2671987815
 30
0.0
 11
827.7126927141
 21
245.184494722
 31
0.0
  0
LWPOLYLINE
  5
33A
330
1F
100
AcDbEntity
  8
0
  6
Continuous
 62
     7
370
    15
100
AcDbPolyline
 90
       21
 70
   128
 43
0.0
 10
1010.660960886
 20
167.4213742582
 10
1010.5345339811
 20
171.0641626756
 10
1010.1560327305
 20
174.5385226938
 10
1009.5277907202
 20
177.8230337279
 10
1008.6536812711
 20
180.8974456752
 10
1007.5390935586
 20
183.7428037637
 10
1006.1908993866
 20
186.3415654145
 10
1004.6174108205
 20
188.677708398
 10
1002.8283289406
 20
190.7368296158
 10
1000.8346840315
 20
192.5062339009
 10
998.6487675772
 20
193.9750122874
 10
996.2840564793
 20
195.1341092682
 10
993.7551299683
 20
195.9763786249
 10
991.0775797169
 20
196.4966274869
 10
988.2679137129
 20
196.691648347
 10
985.3434544814
 20
196.5602388367
 10
982.3222322862
 20
196.1032091393
 10
979.2228739667
 20
195.3233769949
 10
976.0644880976
 20
194.225550328
 10
972.866547178
 20
192.8164976051
 10
970.3431024553
 20
191.4989494549
  0
LWPOLYLINE
  5
33B
330
1F
100
AcDbEntity
  8
0
  6
Continuous
 62
     7
370
    15
100
AcDbPolyline
 90
       41
 70
   128
 43
0.0
 10
928.6425656117
 20
119.2636740988
 10
928.7630011732
 20
116.426915355
 10
929.1415024238
 20
112.9525553368
 10
929.7697444341
 20
109.6680443027
 10
930.6438538833
 20
106.5936323554
 10
931.7584415958
 20
103.7482742669
 10
933.1066357677
 20
101.149512616
 10
934.6801243338
 20
98.8133696325
 10
936.4692062137
 20
96.7542484148
 10
938.4628511228
 20
94.9848441297
 10
940.6487675772
 20
93.5160657432
 10
943.013478675
 20
92.3569687624
 10
945.5424051861
 20
91.5146994057
 10
948.2199554375
 20
90.9944505437
 10
951.0296214415
 20
90.7994296836
 10
953.9540806729
 20
90.9308391939
 10
956.9753028682
 20
91.3878688913
 10
960.0746611877
 20
92.1677010357
 10
963.2330470568
 20
93.2655277026
 10
966.4309879763
 20
94.6745804255
 10
969.6487675772
 20
96.3861719259
 10
972.866547178
 20
98.389749673
 10
976.0644880976
 20
100.6729609438
 10
979.2228739667
 20
103.2217289814
 10
982.3222322862
 20
106.0203397834
 10
985.3434544814
 20
109.0515389836
 10
988.2679137129
 20
112.2966382309
 10
991.0775797169
 20
115.7356304093
 10
993.7551299683
 20
119.3473129886
 10
996.2840564793
 20
123.1094187446
 10
998.6487675772
 20
126.9987530442
 10
1000.8346840315
 20
130.9913368482
 10
1002.8283289406
 20
135.0625545497
 10
1004.6174108205
 20
139.1873057379
 10
1006.1908993866
 20
143.34015995
 10
1007.5390935586
 20
147.4955134589
 10
1008.6536812711
 20
151.6277471283
 10
1009.5277907202
 20
155.7113843636
 10
1010.1560327305
 20
159.7212481832
 10
1010.5345339811
 20
163.6326164434
 10
1010.660960886
 20
167.4213742582
  0
SPLINE
  5
33C
330
1F
100
AcDbEntity
  8
0
  6
Continuous
 62
     7
370
    15
100
AcDbSpline
210
0.0
220
0.0
230
1.0
 70
     8
 71
     3
 72
    18
 73
    14
 74
     0
 42
0.000000001
 43
0.00000001
 40
0.0
 40
0.0
 40
0.0
 40
0.0
 40
0.0881895185749282
 40
0.1760110424430013
 40
0.2645276132555308
 40
0.3521226337531823
 40
0.4405065653664657
 40
0.5308540784172743
 40
0.6356351243383086
 40
0.7403784127664084
 40
0.849442557718806
 40
0.9490331080614967
 40
1.0
 40
1.0
 40
1.0
 40
1.0
 10
859.9465052854913
 20
151.5595554203193
 30
0.0
 10
859.9864914239034
 20
150.3098919318848
 30
0.0
 10
860.06629684771
 20
147.8157795151646
 30
0.0
 10
860.7061509048056
 20
144.116748844815
 30
0.0
 10
861.7060621034269
 20
140.5014141598405
 30
0.0
 10
863.0824193099135
 20
136.9832492095746
 30
0.0
 10
864.8039430228209
 20
133.5702408542035
 30
0.0
 10
866.9667975081402
 20
130.0986903333288
 30
0.0
 10
869.595505290526
 20
126.6360272353959
 30
0.0
 10
872.722031938641
 20
123.2127160805432
 30
0.0
 10
876.102564248957
 20
120.1481052941644
 30
0.0
 10
879.0686688904175
 20
117.7920259197244
 30
0.0
 10
880.9219151701592
 20
116.6345186948734
 30
0.0
 10
881.5492783974024
 20
116.2426779146824
 30
0.0
  0
SPLINE
  5
33D
330
1F
100
AcDbEntity
  8
0
  6
Continuous
 62
     7
370
    15
100
AcDbSpline
210
0.0
220
0.0
230
1.0
 70
     8
 71
     3
 72
    38
 73
    34
 74
     0
 42
0.000000001
 43
0.00000001
 40
0.0
 40
0.0
 40
0.0
 40
0.0
 40
0.0203593693508081
 40
0.0566779364185341
 40
0.092787415253596
 40
0.1380994845832205
 40
0.18357087839946
 40
0.2285485338991472
 40
0.2735007259586048
 40
0.3188040711970715
 40
0.3636404098389794
 40
0.3933452053541093
 40
0.4233439945112694
 40
0.4538826028476389
 40
0.4762252974431898
 40
0.4993926709674187
 40
0.5214692996448956
 40
0.5446742205486093
 40
0.5665531254023836
 40
0.5901473125500927
 40
0.6114137778493421
 40
0.6360957404963083
 40
0.6692082877812373
 40
0.697769015401826
 40
0.7275513101475206
 40
0.7590955242572988
 40
0.7892931394743669
 40
0.819093975278232
 40
0.849836818855637
 40
0.8800241349007577
 40
0.9100376875922829
 40
0.9550371525563316
 40
1.0
 40
1.0
 40
1.0
 40
1.0
 10
948.3561904295203
 20
233.1029694068596
 30
0.0
 10
948.0296828520558
 20
233.0881674238008
 30
0.0
 10
947.120726616878
 20
233.0469605553454
 30
0.0
 10
945.3265103806194
 20
232.6414565323282
 30
0.0
 10
942.7837090271912
 20
231.8583749852238
 30
0.0
 10
939.6302575257727
 20
230.6050855397619
 30
0.0
 10
935.785201066707
 20
228.8117874859937
 30
0.0
 10
931.4951721592462
 20
226.5852100236949
 30
0.0
 10
926.8027175700645
 20
223.9566508723583
 30
0.0
 10
921.7712978998188
 20
220.963500951308
 30
0.0
 10
917.0756398795642
 20
218.0234094921613
 30
0.0
 10
912.8724699058307
 20
215.2858487769223
 30
0.0
 10
909.1945905945711
 20
212.8151442836187
 30
0.0
 10
905.7949931781422
 20
210.4572790356256
 30
0.0
 10
902.6771345315725
 20
208.2313728257302
 30
0.0
 10
899.9169103188445
 20
206.2083507299259
 30
0.0
 10
897.1417549341645
 20
204.1184899667016
 30
0.0
 10
894.4477344358878
 20
202.02924665228
 30
0.0
 10
891.7305576071909
 20
199.8563846677498
 30
0.0
 10
889.1355226858545
 20
197.7090585107021
 30
0.0
 10
886.4857852187594
 20
195.4372504966452
 30
0.0
 10
883.5467450823891
 20
192.8123907899085
 30
0.0
 10
880.4496344126403
 20
189.8887717617703
 30
0.0
 10
877.3209393128576
 20
186.7263961490118
 30
0.0
 10
874.4051697409634
 20
183.5534761397656
 30
0.0
 10
871.6299218011698
 20
180.2496021142263
 30
0.0
 10
869.075911820503
 20
176.8680949829576
 30
0.0
 10
866.7852429442501
 20
173.4389722844953
 30
0.0
 10
864.7690446442032
 20
169.9308026479024
 30
0.0
 10
863.0541478807862
 20
166.3365924150882
 30
0.0
 10
861.47191955897
 20
162.0986774833726
 30
0.0
 10
860.2133256250222
 20
157.1638472410748
 30
0.0
 10
860.0354212610914
 20
153.4271457084759
 30
0.0
 10
859.9465052854913
 20
151.5595554203193
 30
0.0
  0
LINE
  5
33E
330
1F
100
AcDbEntity
  8
0
  6
Continuous
 62
     7
370
    15
100
AcDbLine
 10
923.1184207271
 20
267.7764874059
 30
0.0
 11
923.1184207271
 21
263.6937833465
 31
0.0
  0
LINE
  5
33F
330
1F
100
AcDbEntity
  8
0
  6
Continuous
 62
     7
370
    15
100
AcDbLine
 10
923.1184207271
 20
267.7764874059
 30
0.0
 11
933.156616372
 21
269.329233415
 31
0.0
  0
LINE
  5
340
330
1F
100
AcDbEntity
  8
0
  6
Continuous
 62
     7
370
    15
100
AcDbLine
 10
933.156616372
 20
269.329233415
 30
0.0
 11
933.156616372
 21
265.2465293556
 31
0.0
  0
LINE
  5
341
330
1F
100
AcDbEntity
  8
0
  6
Continuous
 62
     7
370
    15
100
AcDbLine
 10
915.7699514987
 20
272.0186683941
 30
0.0
 11
923.1184207271
 21
267.7764874059
 31
0.0
  0
LINE
  5
342
330
1F
100
AcDbEntity
  8
0
  6
Continuous
 62
     7
370
    15
100
AcDbLine
 10
918.4596779153
 20
277.8135953913
 30
0.0
 11
915.7699514987
 21
272.0186683941
 31
0.0
  0
LINE
  5
343
330
1F
100
AcDbEntity
  8
0
  6
Continuous
 62
     7
370
    15
100
AcDbLine
 10
928.4978735601
 20
279.3663414005
 30
0.0
 11
918.4596779153
 21
277.8135953913
 31
0.0
  0
LINE
  5
344
330
1F
100
AcDbEntity
  8
0
  6
Continuous
 62
     7
370
    15
100
AcDbLine
 10
935.8463427885
 20
275.1241604123
 30
0.0
 11
928.4978735601
 21
279.3663414005
 31
0.0
  0
LINE
  5
345
330
1F
100
AcDbEntity
  8
0
  6
Continuous
 62
     7
370
    15
100
AcDbLine
 10
933.156616372
 20
269.329233415
 30
0.0
 11
935.8463427885
 21
275.1241604123
 31
0.0
  0
LINE
  5
346
330
1F
100
AcDbEntity
  8
0
  6
Continuous
 62
     7
370
    15
100
AcDbLine
 10
744.9275118681
 20
279.3663414005
 30
0.0
 11
737.5790426397
 21
275.1241604123
 31
0.0
  0
LINE
  5
347
330
1F
100
AcDbEntity
  8
0
  6
Continuous
 62
     7
370
    15
100
AcDbLine
 10
754.9657075129
 20
277.8135953913
 30
0.0
 11
744.9275118681
 21
279.3663414005
 31
0.0
  0
LINE
  5
348
330
1F
100
AcDbEntity
  8
0
  6
Continuous
 62
     7
370
    15
100
AcDbLine
 10
757.6554339294
 20
272.0186683941
 30
0.0
 11
754.9657075129
 21
277.8135953913
 31
0.0
  0
LINE
  5
349
330
1F
100
AcDbEntity
  8
0
  6
Continuous
 62
     7
370
    15
100
AcDbLine
 10
750.3069647011
 20
267.7764874059
 30
0.0
 11
757.6554339294
 21
272.0186683941
 31
0.0
  0
LINE
  5
34A
330
1F
100
AcDbEntity
  8
0
  6
Continuous
 62
     7
370
    15
100
AcDbLine
 10
740.2687690562
 20
269.329233415
 30
0.0
 11
750.3069647011
 21
267.7764874059
 31
0.0
  0
LINE
  5
34B
330
1F
100
AcDbEntity
  8
0
  6
Continuous
 62
     7
370
    15
100
AcDbLine
 10
737.5790426397
 20
275.1241604123
 30
0.0
 11
740.2687690562
 21
269.329233415
 31
0.0
  0
LINE
  5
34C
330
1F
100
AcDbEntity
  8
0
  6
Continuous
 62
     7
370
    15
100
AcDbLine
 10
740.2687690562
 20
269.329233415
 30
0.0
 11
740.2687690562
 21
265.2465293556
 31
0.0
  0
LINE
  5
34D
330
1F
100
AcDbEntity
  8
0
  6
Continuous
 62
     7
370
    15
100
AcDbLine
 10
750.3069647011
 20
267.7764874059
 30
0.0
 11
750.3069647011
 21
263.6937833465
 31
0.0
  0
LINE
  5
34E
330
1F
100
AcDbEntity
  8
0
  6
Continuous
 62
     7
370
    15
100
AcDbLine
 10
915.7699514987
 20
272.0186683941
 30
0.0
 11
915.7699514987
 21
267.9359643346
 31
0.0
  0
LINE
  5
34F
330
1F
100
AcDbEntity
  8
0
  6
Continuous
 62
     7
370
    15
100
AcDbLine
 10
757.6554339294
 20
272.0186683941
 30
0.0
 11
757.6554339294
 21
267.9359643346
 31
0.0
  0
LINE
  5
350
330
1F
100
AcDbEntity
  8
0
  6
Continuous
 62
     7
370
    15
100
AcDbLine
 10
935.8463427885
 20
275.1241604123
 30
0.0
 11
935.8463427885
 21
271.0414563529
 31
0.0
  0
LINE
  5
351
330
1F
100
AcDbEntity
  8
0
  6
Continuous
 62
     7
370
    15
100
AcDbLine
 10
737.5790426397
 20
275.1241604123
 30
0.0
 11
737.5790426397
 21
271.0414563529
 31
0.0
  0
LINE
  5
352
330
1F
100
AcDbEntity
  8
0
  6
Continuous
 62
     7
370
    15
100
AcDbLine
 10
957.5165402914
 20
319.8095360392
 30
0.0
 11
967.9088451368
 21
319.8095360392
 31
0.0
  0
LINE
  5
353
330
1F
100
AcDbEntity
  8
0
  6
Continuous
 62
     7
370
    15
100
AcDbLine
 10
952.3203878687
 20
325.005125448
 30
0.0
 11
957.5165402914
 21
319.8095360392
 31
0.0
  0
LINE
  5
354
330
1F
100
AcDbEntity
  8
0
  6
Continuous
 62
     7
370
    15
100
AcDbLine
 10
957.5165402914
 20
330.2007148568
 30
0.0
 11
952.3203878687
 21
325.005125448
 31
0.0
  0
LINE
  5
355
330
1F
100
AcDbEntity
  8
0
  6
Continuous
 62
     7
370
    15
100
AcDbLine
 10
967.9088451368
 20
330.2007148568
 30
0.0
 11
957.5165402914
 21
330.2007148568
 31
0.0
  0
LINE
  5
356
330
1F
100
AcDbEntity
  8
0
  6
Continuous
 62
     7
370
    15
100
AcDbLine
 10
973.1049975595
 20
325.005125448
 30
0.0
 11
967.9088451368
 21
330.2007148568
 31
0.0
  0
LINE
  5
357
330
1F
100
AcDbEntity
  8
0
  6
Continuous
 62
     7
370
    15
100
AcDbLine
 10
967.9088451368
 20
319.8095360392
 30
0.0
 11
973.1049975595
 21
325.005125448
 31
0.0
  0
LINE
  5
358
330
1F
100
AcDbEntity
  8
0
  6
Continuous
 62
     7
370
    15
100
AcDbLine
 10
957.5165402914
 20
319.8095360392
 30
0.0
 11
957.5165402914
 21
315.7268319798
 31
0.0
  0
LINE
  5
359
330
1F
100
AcDbEntity
  8
0
  6
Continuous
 62
     7
370
    15
100
AcDbLine
 10
967.9088451368
 20
319.8095360392
 30
0.0
 11
967.9088451368
 21
315.7268319798
 31
0.0
  0
LINE
  5
35A
330
1F
100
AcDbEntity
  8
0
  6
Continuous
 62
     7
370
    15
100
AcDbLine
 10
705.5165402914
 20
319.8095360392
 30
0.0
 11
705.5165402914
 21
315.7268319798
 31
0.0
  0
LINE
  5
35B
330
1F
100
AcDbEntity
  8
0
  6
Continuous
 62
     7
370
    15
100
AcDbLine
 10
705.5165402914
 20
319.8095360392
 30
0.0
 11
715.9088451368
 21
319.8095360392
 31
0.0
  0
LINE
  5
35C
330
1F
100
AcDbEntity
  8
0
  6
Continuous
 62
     7
370
    15
100
AcDbLine
 10
715.9088451368
 20
319.8095360392
 30
0.0
 11
715.9088451368
 21
315.7268319798
 31
0.0
  0
LINE
  5
35D
330
1F
100
AcDbEntity
  8
0
  6
Continuous
 62
     7
370
    15
100
AcDbLine
 10
715.9088451368
 20
330.2007148568
 30
0.0
 11
705.5165402914
 21
330.2007148568
 31
0.0
  0
LINE
  5
35E
330
1F
100
AcDbEntity
  8
0
  6
Continuous
 62
     7
370
    15
100
AcDbLine
 10
721.1049975595
 20
325.005125448
 30
0.0
 11
715.9088451368
 21
330.2007148568
 31
0.0
  0
LINE
  5
35F
330
1F
100
AcDbEntity
  8
0
  6
Continuous
 62
     7
370
    15
100
AcDbLine
 10
715.9088451368
 20
319.8095360392
 30
0.0
 11
721.1049975595
 21
325.005125448
 31
0.0
  0
LINE
  5
360
330
1F
100
AcDbEntity
  8
0
  6
Continuous
 62
     7
370
    15
100
AcDbLine
 10
700.3203878687
 20
325.005125448
 30
0.0
 11
705.5165402914
 21
319.8095360392
 31
0.0
  0
LINE
  5
361
330
1F
100
AcDbEntity
  8
0
  6
Continuous
 62
     7
370
    15
100
AcDbLine
 10
705.5165402914
 20
330.2007148568
 30
0.0
 11
700.3203878687
 21
325.005125448
 31
0.0
  0
LINE
  5
362
330
1F
100
AcDbEntity
  8
0
  6
Continuous
 62
     7
370
    15
100
AcDbLine
 10
973.1049975595
 20
325.005125448
 30
0.0
 11
973.1049975595
 21
320.9224213886
 31
0.0
  0
LINE
  5
363
330
1F
100
AcDbEntity
  8
0
  6
Continuous
 62
     7
370
    15
100
AcDbLine
 10
952.3203878687
 20
325.005125448
 30
0.0
 11
952.3203878687
 21
320.9224213886
 31
0.0
  0
LINE
  5
364
330
1F
100
AcDbEntity
  8
0
  6
Continuous
 62
     7
370
    15
100
AcDbLine
 10
721.1049975595
 20
325.005125448
 30
0.0
 11
721.1049975595
 21
320.9224213886
 31
0.0
  0
LINE
  5
365
330
1F
100
AcDbEntity
  8
0
  6
Continuous
 62
     7
370
    15
100
AcDbLine
 10
700.3203878687
 20
325.005125448
 30
0.0
 11
700.3203878687
 21
320.9224213886
 31
0.0
  0
LWPOLYLINE
  5
366
330
1F
100
AcDbEntity
  8
0
  6
Continuous
 62
     7
370
    15
100
AcDbPolyline
 90
       24
 70
   128
 43
0.0
 10
885.8752670204
 20
77.1522695323
 10
885.5246133648
 20
77.0543532442
 10
879.7645788552
 20
75.5664231643
 10
873.8690871841
 20
74.2672791647
 10
867.8566877494
 20
73.161008833
 10
861.7462977842
 20
72.2510929049
 10
855.5571428359
 20
71.5403943127
 10
849.3086962757
 20
71.0311491769
 10
843.0206180283
 20
70.7249597713
 10
836.7126927141
 20
70.6227894809
 10
830.4047673999
 20
70.7249597713
 10
824.1166891525
 20
71.0311491769
 10
817.8682425923
 20
71.5403943127
 10
811.679087644
 20
72.2510929049
 10
805.5686976788
 20
73.161008833
 10
799.5562982441
 20
74.2672791647
 10
793.660806573
 20
75.5664231643
 10
787.9007720634
 20
77.0543532442
 10
782.2943179148
 20
78.7263878258
 10
776.8590841061
 20
80.5772660698
 10
771.6121718939
 20
82.6011644284
 10
766.570090005
 20
84.7917149686
 10
761.7487026945
 20
87.142025408
 10
757.1631798306
 20
89.6447008005
  0
SPLINE
  5
367
330
1F
100
AcDbEntity
  8
0
  6
Continuous
 62
     7
370
    15
100
AcDbSpline
210
0.0
220
0.0
230
1.0
 70
     8
 71
     3
 72
    14
 73
    10
 74
     0
 42
0.000000001
 43
0.00000001
 40
0.0
 40
0.0
 40
0.0
 40
0.0
 40
0.1532554252814561
 40
0.305871350638635
 40
0.4596951257243441
 40
0.6119174342648726
 40
0.7655107091805711
 40
0.922516289758475
 40
0.9999999999999999
 40
0.9999999999999999
 40
0.9999999999999999
 40
0.9999999999999999
 10
717.3123579013331
 20
233.9004960289923
 30
0.0
 10
717.3147119442509
 20
235.174600287783
 30
0.0
 10
717.3194102072024
 20
237.7174922589809
 30
0.0
 10
717.3592069383983
 20
241.8089023688497
 30
0.0
 10
717.4294905554325
 20
246.0419505714503
 30
0.0
 10
717.5388260617307
 20
250.4181474172647
 30
0.0
 10
717.7054109257674
 20
254.9197762128604
 30
0.0
 10
717.8812299124857
 20
258.7435778536702
 30
0.0
 10
718.0465458246748
 20
261.0750939877054
 30
0.0
 10
718.1011721583279
 20
261.8455109219788
 30
0.0
  0
SPLINE
  5
368
330
1F
100
AcDbEntity
  8
0
  6
Continuous
 62
     7
370
    15
100
AcDbSpline
210
0.0
220
0.0
230
1.0
 70
     8
 71
     3
 72
    15
 73
    11
 74
     0
 42
0.000000001
 43
0.00000001
 40
0.0
 40
0.0
 40
0.0
 40
0.0
 40
0.0999017134704431
 40
0.2127299272304267
 40
0.3240756428189286
 40
0.4389410089888706
 40
0.5517307417956777
 40
0.663871237686902
 40
0.8320040263880927
 40
1.0
 40
1.0
 40
1.0
 40
1.0
 10
719.0599284471983
 20
211.53086317751
 30
0.0
 10
718.9081208696882
 20
211.9295409766494
 30
0.0
 10
718.5848630015806
 20
212.7784823636698
 30
0.0
 10
718.2234721256737
 20
214.3913832291583
 30
0.0
 10
717.9217091684006
 20
216.3198979238925
 30
0.0
 10
717.6985269421148
 20
218.5364037908898
 30
0.0
 10
717.5373213069294
 20
221.0472711717531
 30
0.0
 10
717.4104340174972
 20
224.2986202300808
 30
0.0
 10
717.3277716682651
 20
228.4591271781194
 30
0.0
 10
717.3174944292562
 20
232.0871986588354
 30
0.0
 10
717.3123579013331
 20
233.9004960289923
 30
0.0
  0
LWPOLYLINE
  5
369
330
1F
100
AcDbEntity
  8
0
  6
Continuous
 62
     7
370
    15
100
AcDbPolyline
 90
       42
 70
   128
 43
0.0
 10
636.6014736383
 20
246.204757049
 10
636.726052829
 20
251.3582171103
 10
637.0993913366
 20
256.6390051573
 10
637.7202932451
 20
262.0302052339
 10
638.5867696186
 20
267.514547701
 10
639.696044872
 20
273.0744645563
 10
641.0445656624
 20
278.6921457099
 10
642.6280122709
 20
284.3495960355
 10
644.4413124409
 20
290.028693014
 10
646.4786576252
 20
295.7112447858
 10
648.7335215929
 20
301.3790484244
 10
651.198681335
 20
307.0139482461
 10
653.8662402016
 20
312.5978939679
 10
656.7276531975
 20
318.1129985282
 10
659.7737543542
 20
323.5415953845
 10
662.9947860914
 20
328.8662951045
 10
666.3804304733
 20
334.0700410696
 10
669.9198422604
 20
339.1361641129
 10
673.6016836497
 20
344.0484359148
 10
677.414160593
 20
348.7911209878
 10
681.3450605776
 20
353.3490270819
 10
685.3817917456
 20
357.7075538497
 10
689.5114232301
 20
361.8527396161
 10
693.7207265765
 20
365.7713061012
 10
697.9962181172
 20
369.4507009554
 10
702.3242021638
 20
372.8791379677
 10
706.6908148787
 20
376.0456348207
 10
711.0820686848
 20
378.9400482703
 10
715.4838970725
 20
381.5531066378
 10
719.8821996583
 20
383.8764395093
 10
724.262887353
 20
385.9026045494
 10
728.6119274934
 20
387.6251113404
 10
732.9153887927
 20
389.0384421739
 10
737.1594859669
 20
390.1380697251
 10
741.3306238934
 20
390.9204715555
 10
745.4154411599
 20
391.3831413961
 10
749.4008528652
 20
391.524597176
 10
753.2740925341
 20
391.3443857696
 10
757.0227530122
 20
390.8430844484
 10
760.63482621
 20
390.0222990316
 10
764.098741568
 20
388.8846587425
 10
764.390702361
 20
388.7716081292
  0
LWPOLYLINE
  5
36A
330
1F
100
AcDbEntity
  8
0
  6
Continuous
 62
     7
370
    15
100
AcDbPolyline
 90
       29
 70
   128
 43
0.0
 10
714.39586129
 20
201.2950129885
 10
711.0820686848
 20
199.4629304461
 10
706.6908148787
 20
197.2873101699
 10
702.3242021638
 20
195.4122232954
 10
697.9962181172
 20
193.8436762912
 10
693.7207265765
 20
192.5866936863
 10
689.5114232301
 20
191.6453019748
 10
685.3817917456
 20
191.0225167182
 10
681.3450605776
 20
190.7203328855
 10
677.414160593
 20
190.7397184626
 10
673.6016836497
 20
191.0806113516
 10
669.9198422604
 20
191.7419195698
 10
666.3804304733
 20
192.7215247476
 10
662.9947860914
 20
194.0162889144
 10
659.7737543542
 20
195.6220645501
 10
656.7276531975
 20
197.5337078714
 10
653.8662402016
 20
199.7450953082
 10
651.1986813349
 20
202.2491431201
 10
648.7335215929
 20
205.0378300869
 10
646.4786576252
 20
208.1022232035
 10
644.4413124409
 20
211.432506295
 10
642.6280122709
 20
215.0180114607
 10
641.0445656624
 20
218.8472532465
 10
639.696044872
 20
222.9079654366
 10
638.5867696186
 20
227.1871403456
 10
637.7202932451
 20
231.6710704862
 10
637.0993913366
 20
236.3453924785
 10
636.726052829
 20
241.1951330598
 10
636.6014736383
 20
246.204757049
  0
LWPOLYLINE
  5
36B
330
1F
100
AcDbEntity
  8
0
  6
Continuous
 62
     7
370
    15
100
AcDbPolyline
 90
       29
 70
   128
 43
0.0
 10
643.6725414502
 20
246.204757049
 10
643.7981542899
 20
241.2921210883
 10
644.1745677749
 20
236.5411374303
 10
644.8005082412
 20
231.9678818998
 10
645.6738577043
 20
227.5878289459
 10
646.7916610261
 20
223.4157992813
 10
648.1501359139
 20
219.4659097339
 10
649.7446857189
 20
215.7515254794
 10
651.5699149892
 20
212.2852148186
 10
653.6196477267
 20
209.0787066493
 10
655.8869482846
 20
206.1428507803
 10
658.3641448356
 20
203.4875812185
 10
661.0428553307
 20
201.1218825556
 10
663.9140158614
 20
199.053759567
 10
666.9679113295
 20
197.2902101262
 10
670.1942083192
 20
195.8372015264
 10
673.5819900629
 20
194.6996502887
 10
677.1197933795
 20
193.8814055264
 10
680.7956474625
 20
193.3852359208
 10
684.5971143851
 20
193.2128203527
 10
688.5113311868
 20
193.3647422219
 10
692.5250533967
 20
193.8404874728
 10
696.6246998496
 20
194.6384463342
 10
700.7963986394
 20
195.7559187657
 10
705.026034058
 20
197.1891235945
 10
709.2992943581
 20
198.933211309
 10
713.6017201793
 20
200.9822804686
 10
717.9187534748
 20
203.3293976717
 10
719.2126927141
 20
204.0893940448
  0
LWPOLYLINE
  5
36C
330
1F
100
AcDbEntity
  8
0
  6
Continuous
 62
     7
370
    15
100
AcDbPolyline
 90
       37
 70
   128
 43
0.0
 10
754.2697908738
 20
384.8090764052
 10
751.2403925644
 20
384.9195454867
 10
747.3261757627
 20
384.7676236176
 10
743.3124535528
 20
384.2918783666
 10
739.2128071
 20
383.4939195053
 10
735.0411083101
 20
382.3764470737
 10
730.8114728915
 20
380.943242245
 10
726.5382125915
 20
379.1991545304
 10
722.2357867702
 20
377.1500853709
 10
717.9187534748
 20
374.8029681677
 10
713.6017201793
 20
372.1657448227
 10
709.2992943581
 20
369.2473388646
 10
705.026034058
 20
366.0576252557
 10
700.7963986394
 20
362.6073969769
 10
696.6246998496
 20
358.9083285086
 10
692.5250533967
 20
354.9729363278
 10
688.5113311868
 20
350.8145365556
 10
684.5971143851
 20
346.4471999008
 10
680.7956474625
 20
341.885704048
 10
677.1197933795
 20
337.1454836553
 10
673.5819900629
 20
332.2425781281
 10
670.1942083192
 20
327.1935773467
 10
666.9679113295
 20
322.0155655314
 10
663.9140158614
 20
316.7260634353
 10
661.0428553307
 20
311.3429690591
 10
658.3641448356
 20
305.8844970901
 10
655.8869482846
 20
300.3691172697
 10
653.6196477267
 20
294.8154918973
 10
651.5699149892
 20
289.2424126832
 10
649.7446857189
 20
283.6687371634
 10
648.1501359139
 20
278.1133248915
 10
646.7916610261
 20
272.5949736241
 10
645.6738577043
 20
267.1323557151
 10
644.8005082412
 20
261.7439549345
 10
644.1745677749
 20
256.4480039246
 10
643.7981542899
 20
251.2624225075
 10
643.6725414502
 20
246.204757049
  0
LWPOLYLINE
  5
36D
330
1F
100
AcDbEntity
  8
0
  6
Continuous
 62
     7
370
    15
100
AcDbPolyline
 90
       43
 70
   128
 43
0.0
 10
625.9948719205
 20
252.3278178877
 10
626.1194511112
 20
257.4812779489
 10
626.4927896188
 20
262.7620659959
 10
627.1136915273
 20
268.1532660726
 10
627.9801679008
 20
273.6376085397
 10
629.0894431542
 20
279.197525395
 10
630.4379639446
 20
284.8152065486
 10
632.0214105531
 20
290.4726568741
 10
633.8347107231
 20
296.1517538527
 10
635.8720559074
 20
301.8343056245
 10
638.1269198751
 20
307.5021092631
 10
640.5920796172
 20
313.1370090847
 10
643.2596384838
 20
318.7209548065
 10
646.1210514797
 20
324.2360593669
 10
649.1671526364
 20
329.6646562232
 10
652.3881843736
 20
334.9893559431
 10
655.7738287555
 20
340.1931019083
 10
659.3132405426
 20
345.2592249516
 10
662.9950819319
 20
350.1714967535
 10
666.8075588752
 20
354.9141818265
 10
670.7384588598
 20
359.4720879206
 10
674.7751900278
 20
363.8306146884
 10
678.9048215123
 20
367.9758004547
 10
683.1141248587
 20
371.8943669399
 10
687.3896163994
 20
375.5737617941
 10
691.717600446
 20
379.0021988063
 10
696.0842131609
 20
382.1686956593
 10
700.475466967
 20
385.063109109
 10
704.8772953547
 20
387.6761674765
 10
709.2755979405
 20
389.999500348
 10
713.6562856352
 20
392.025665388
 10
718.0053257756
 20
393.7481721791
 10
722.3087870749
 20
395.1615030126
 10
726.5528842491
 20
396.2611305638
 10
730.7240221756
 20
397.0435323942
 10
734.8088394421
 20
397.5062022348
 10
738.7942511474
 20
397.6476580147
 10
742.6674908163
 20
397.4674466083
 10
746.4161512944
 20
396.9661452871
 10
750.0282244922
 20
396.1453598703
 10
753.4921398502
 20
395.0077195812
 10
756.7968014032
 20
393.5568686244
 10
758.772148146
 20
392.4956388998
  0
LWPOLYLINE
  5
36E
330
1F
100
AcDbEntity
  8
0
  6
Continuous
 62
     7
370
    15
100
AcDbPolyline
 90
       15
 70
   128
 43
0.0
 10
648.781087556
 20
201.9648891761
 10
646.1210514797
 20
203.65676871
 10
643.2596384838
 20
205.8681561469
 10
640.5920796172
 20
208.3722039587
 10
638.1269198751
 20
211.1608909255
 10
635.8720559074
 20
214.2252840422
 10
633.8347107231
 20
217.5555671337
 10
632.0214105531
 20
221.1410722994
 10
630.4379639446
 20
224.9703140851
 10
629.0894431542
 20
229.0310262752
 10
627.9801679008
 20
233.3102011842
 10
627.1136915273
 20
237.7941313249
 10
626.4927896188
 20
242.4684533172
 10
626.1194511112
 20
247.3181938985
 10
625.9948719205
 20
252.3278178877
  0
LWPOLYLINE
  5
36F
330
1F
100
AcDbEntity
  8
0
  6
Continuous
 62
     7
370
    15
100
AcDbPolyline
 90
       32
 70
   128
 43
0.0
 10
652.7594590246
 20
223.3276252552
 10
652.8897296808
 20
224.8821450175
 10
653.2752083533
 20
226.5234298562
 10
653.9001135001
 20
228.1842853771
 10
654.7388614309
 20
229.79671596
 10
655.757113707
 20
231.2947085076
 10
656.9131829605
 20
232.6169350288
 10
658.1597395803
 20
233.7092634145
 10
659.445749392
 20
234.5269736123
 10
660.7185630029
 20
235.0365884705
 10
661.926071274
 20
235.2172442971
 10
663.0188386749
 20
235.0615450213
 10
663.9521271798
 20
234.5758649896
 10
664.6877278478
 20
233.7800879997
 10
665.1955251009
 20
232.7067932551
 10
665.45472966
 20
231.3999215686
 10
665.45472966
 20
229.9129764207
 10
665.1955251009
 20
228.3068335204
 10
664.6877278478
 20
226.6472485468
 10
663.9521271798
 20
225.0021651038
 10
663.0188386749
 20
223.4389331006
 10
661.926071274
 20
222.0215514393
 10
660.7185630029
 20
220.8080478916
 10
659.445749392
 20
219.8481034353
 10
658.1597395803
 20
219.1810183092
 10
656.9131829605
 20
218.8341030568
 10
655.757113707
 20
218.8215604293
 10
654.7388614309
 20
219.1439039233
 10
653.9001135001
 20
219.7879367582
 10
653.2752083533
 20
220.7272921543
 10
652.8897296808
 20
221.9235127911
 10
652.7594590246
 20
223.3276252552
  0
LWPOLYLINE
  5
370
330
1F
100
AcDbEntity
  8
0
  6
Continuous
 62
     7
370
    15
100
AcDbPolyline
 90
       32
 70
   128
 43
0.0
 10
652.7594590246
 20
279.5734205558
 10
652.8897296808
 20
281.1279403181
 10
653.2752083533
 20
282.7692251567
 10
653.9001135001
 20
284.4300806776
 10
654.7388614309
 20
286.0425112606
 10
655.757113707
 20
287.5405038081
 10
656.9131829605
 20
288.8627303293
 10
658.1597395803
 20
289.955058715
 10
659.445749392
 20
290.7727689128
 10
660.7185630029
 20
291.2823837711
 10
661.926071274
 20
291.4630395977
 10
663.0188386749
 20
291.3073403218
 10
663.9521271798
 20
290.8216602902
 10
664.6877278478
 20
290.0258833003
 10
665.1955251009
 20
288.9525885556
 10
665.45472966
 20
287.6457168691
 10
665.45472966
 20
286.1587717212
 10
665.1955251009
 20
284.552628821
 10
664.6877278478
 20
282.8930438474
 10
663.9521271798
 20
281.2479604043
 10
663.0188386749
 20
279.6847284012
 10
661.926071274
 20
278.2673467399
 10
660.7185630029
 20
277.0538431922
 10
659.445749392
 20
276.0938987359
 10
658.1597395803
 20
275.4268136098
 10
656.9131829605
 20
275.0798983574
 10
655.757113707
 20
275.0673557298
 10
654.7388614309
 20
275.3896992238
 10
653.9001135001
 20
276.0337320588
 10
653.2752083533
 20
276.9730874548
 10
652.8897296808
 20
278.1693080916
 10
652.7594590246
 20
279.5734205558
  0
LWPOLYLINE
  5
371
330
1F
100
AcDbEntity
  8
0
  6
Continuous
 62
     7
370
    15
100
AcDbPolyline
 90
       32
 70
   128
 43
0.0
 10
687.2009679375
 20
339.2278637071
 10
687.3312385937
 20
340.7823834694
 10
687.7167172662
 20
342.423668308
 10
688.3416224129
 20
344.0845238289
 10
689.1803703438
 20
345.6969544119
 10
690.1986226198
 20
347.1949469595
 10
691.3546918733
 20
348.5171734806
 10
692.6012484932
 20
349.6095018664
 10
693.8872583049
 20
350.4272120641
 10
695.1600719157
 20
350.9368269224
 10
696.3675801868
 20
351.117482749
 10
697.4603475878
 20
350.9617834732
 10
698.3936360927
 20
350.4761034415
 10
699.1292367606
 20
349.6803264516
 10
699.6370340137
 20
348.607031707
 10
699.8962385729
 20
347.3001600205
 10
699.8962385729
 20
345.8132148726
 10
699.6370340137
 20
344.2070719723
 10
699.1292367606
 20
342.5474869987
 10
698.3936360927
 20
340.9024035556
 10
697.4603475878
 20
339.3391715525
 10
696.3675801868
 20
337.9217898912
 10
695.1600719157
 20
336.7082863435
 10
693.8872583049
 20
335.7483418872
 10
692.6012484932
 20
335.0812567611
 10
691.3546918733
 20
334.7343415087
 10
690.1986226198
 20
334.7217988812
 10
689.1803703438
 20
335.0441423751
 10
688.3416224129
 20
335.6881752101
 10
687.7167172662
 20
336.6275306061
 10
687.3312385937
 20
337.823751243
 10
687.2009679375
 20
339.2278637071
  0
LWPOLYLINE
  5
372
330
1F
100
AcDbEntity
  8
0
  6
Continuous
 62
     7
370
    15
100
AcDbPolyline
 90
       32
 70
   128
 43
0.0
 10
687.2009679375
 20
203.4385018661
 10
687.3312385937
 20
204.9930216283
 10
687.7167172662
 20
206.634306467
 10
688.3416224129
 20
208.2951619879
 10
689.1803703438
 20
209.9075925709
 10
690.1986226198
 20
211.4055851184
 10
691.3546918733
 20
212.7278116396
 10
692.6012484932
 20
213.8201400253
 10
693.8872583049
 20
214.6378502231
 10
695.1600719157
 20
215.1474650814
 10
696.3675801868
 20
215.328120908
 10
697.4603475878
 20
215.1724216321
 10
698.3936360927
 20
214.6867416005
 10
699.1292367606
 20
213.8909646106
 10
699.6370340138
 20
212.8176698659
 10
699.8962385729
 20
211.5107981794
 10
699.8962385729
 20
210.0238530315
 10
699.6370340138
 20
208.4177101312
 10
699.1292367606
 20
206.7581251577
 10
698.3936360927
 20
205.1130417146
 10
697.4603475878
 20
203.5498097115
 10
696.3675801868
 20
202.1324280502
 10
695.1600719157
 20
200.9189245024
 10
693.8872583049
 20
199.9589800461
 10
692.6012484932
 20
199.29189492
 10
691.3546918733
 20
198.9449796676
 10
690.1986226198
 20
198.9324370401
 10
689.1803703438
 20
199.2547805341
 10
688.3416224129
 20
199.8988133691
 10
687.7167172662
 20
200.8381687651
 10
687.3312385937
 20
202.0343894019
 10
687.2009679375
 20
203.4385018661
  0
LINE
  5
373
330
1F
100
AcDbEntity
  8
0
  6
Continuous
 62
     7
370
    15
100
AcDbLine
 10
928.4978735601
 20
370.6439094955
 30
0.0
 11
935.8463427885
 21
374.8860904837
 31
0.0
  0
LINE
  5
374
330
1F
100
AcDbEntity
  8
0
  6
Continuous
 62
     7
370
    15
100
AcDbLine
 10
918.4596779153
 20
372.1966555047
 30
0.0
 11
928.4978735601
 21
370.6439094955
 31
0.0
  0
LINE
  5
375
330
1F
100
AcDbEntity
  8
0
  6
Continuous
 62
     7
370
    15
100
AcDbLine
 10
915.7699514987
 20
377.991582502
 30
0.0
 11
918.4596779153
 21
372.1966555047
 31
0.0
  0
LINE
  5
376
330
1F
100
AcDbEntity
  8
0
  6
Continuous
 62
     7
370
    15
100
AcDbLine
 10
923.1184207271
 20
382.2337634901
 30
0.0
 11
915.7699514987
 21
377.991582502
 31
0.0
  0
LINE
  5
377
330
1F
100
AcDbEntity
  8
0
  6
Continuous
 62
     7
370
    15
100
AcDbLine
 10
933.156616372
 20
380.681017481
 30
0.0
 11
923.1184207271
 21
382.2337634901
 31
0.0
  0
LINE
  5
378
330
1F
100
AcDbEntity
  8
0
  6
Continuous
 62
     7
370
    15
100
AcDbLine
 10
935.8463427885
 20
374.8860904837
 30
0.0
 11
933.156616372
 21
380.681017481
 31
0.0
  0
LINE
  5
379
330
1F
100
AcDbEntity
  8
0
  6
Continuous
 62
     7
370
    15
100
AcDbLine
 10
918.4596779153
 20
372.1966555047
 30
0.0
 11
918.4596779153
 21
368.4330471771
 31
0.0
  0
LINE
  5
37A
330
1F
100
AcDbEntity
  8
0
  6
Continuous
 62
     7
370
    15
100
AcDbLine
 10
928.4978735601
 20
370.6439094955
 30
0.0
 11
928.4978735601
 21
366.5612054361
 31
0.0
  0
LINE
  5
37B
330
1F
100
AcDbEntity
  8
0
  6
Continuous
 62
     7
370
    15
100
AcDbLine
 10
757.6554339294
 20
377.991582502
 30
0.0
 11
750.3069647011
 21
382.2337634901
 31
0.0
  0
LINE
  5
37C
330
1F
100
AcDbEntity
  8
0
  6
Continuous
 62
     7
370
    15
100
AcDbLine
 10
754.9657075129
 20
372.1966555047
 30
0.0
 11
757.6554339294
 21
377.991582502
 31
0.0
  0
LINE
  5
37D
330
1F
100
AcDbEntity
  8
0
  6
Continuous
 62
     7
370
    15
100
AcDbLine
 10
744.9275118681
 20
370.6439094955
 30
0.0
 11
754.9657075129
 21
372.1966555047
 31
0.0
  0
LINE
  5
37E
330
1F
100
AcDbEntity
  8
0
  6
Continuous
 62
     7
370
    15
100
AcDbLine
 10
737.5790426397
 20
374.8860904837
 30
0.0
 11
744.9275118681
 21
370.6439094955
 31
0.0
  0
LINE
  5
37F
330
1F
100
AcDbEntity
  8
0
  6
Continuous
 62
     7
370
    15
100
AcDbLine
 10
740.2687690562
 20
380.681017481
 30
0.0
 11
737.5790426397
 21
374.8860904837
 31
0.0
  0
LINE
  5
380
330
1F
100
AcDbEntity
  8
0
  6
Continuous
 62
     7
370
    15
100
AcDbLine
 10
750.3069647011
 20
382.2337634901
 30
0.0
 11
740.2687690562
 21
380.681017481
 31
0.0
  0
LINE
  5
381
330
1F
100
AcDbEntity
  8
0
  6
Continuous
 62
     7
370
    15
100
AcDbLine
 10
744.9275118681
 20
370.6439094955
 30
0.0
 11
744.9275118681
 21
366.5612054361
 31
0.0
  0
LINE
  5
382
330
1F
100
AcDbEntity
  8
0
  6
Continuous
 62
     7
370
    15
100
AcDbLine
 10
754.9657075129
 20
372.1966555047
 30
0.0
 11
754.9657075129
 21
368.4330471771
 31
0.0
  0
LINE
  5
383
330
1F
100
AcDbEntity
  8
0
  6
Continuous
 62
     7
370
    15
100
AcDbLine
 10
935.8463427885
 20
374.8860904837
 30
0.0
 11
935.8463427885
 21
370.8033864243
 31
0.0
  0
LINE
  5
384
330
1F
100
AcDbEntity
  8
0
  6
Continuous
 62
     7
370
    15
100
AcDbLine
 10
737.5790426397
 20
374.8860904837
 30
0.0
 11
737.5790426397
 21
370.8033864243
 31
0.0
  0
LINE
  5
385
330
1F
100
AcDbEntity
  8
0
  6
Continuous
 62
     7
370
    15
100
AcDbLine
 10
915.7699514987
 20
377.991582502
 30
0.0
 11
915.7699514987
 21
373.9088784425
 31
0.0
  0
LINE
  5
386
330
1F
100
AcDbEntity
  8
0
  6
Continuous
 62
     7
370
    15
100
AcDbLine
 10
757.6554339294
 20
377.991582502
 30
0.0
 11
757.6554339294
 21
373.9088784425
 31
0.0
  0
LINE
  5
387
330
1F
100
AcDbEntity
  8
0
  6
Continuous
 62
     7
370
    15
100
AcDbLine
 10
845.7126927141
 20
394.743702227
 30
0.0
 11
845.7126927141
 21
400.7430521145
 31
0.0
  0
LINE
  5
388
330
1F
100
AcDbEntity
  8
0
  6
Continuous
 62
     7
370
    15
100
AcDbLine
 10
836.7126927141
 20
391.7440272833
 30
0.0
 11
845.7126927141
 21
394.743702227
 31
0.0
  0
LINE
  5
389
330
1F
100
AcDbEntity
  8
0
  6
Continuous
 62
     7
370
    15
100
AcDbLine
 10
827.7126927141
 20
394.743702227
 30
0.0
 11
836.7126927141
 21
391.7440272833
 31
0.0
  0
LINE
  5
38A
330
1F
100
AcDbEntity
  8
0
  6
Continuous
 62
     7
370
    15
100
AcDbLine
 10
827.7126927141
 20
400.7430521145
 30
0.0
 11
827.7126927141
 21
394.743702227
 31
0.0
  0
LINE
  5
38B
330
1F
100
AcDbEntity
  8
0
  6
Continuous
 62
     7
370
    15
100
AcDbLine
 10
836.7126927141
 20
403.7427270583
 30
0.0
 11
827.7126927141
 21
400.7430521145
 31
0.0
  0
LINE
  5
38C
330
1F
100
AcDbEntity
  8
0
  6
Continuous
 62
     7
370
    15
100
AcDbLine
 10
845.7126927141
 20
400.7430521145
 30
0.0
 11
836.7126927141
 21
403.7427270583
 31
0.0
  0
LINE
  5
38D
330
1F
100
AcDbEntity
  8
0
  6
Continuous
 62
     7
370
    15
100
AcDbLine
 10
836.7126927141
 20
391.7440272833
 30
0.0
 11
836.7126927141
 21
388.6055552899
 31
0.0
  0
LINE
  5
38E
330
1F
100
AcDbEntity
  8
0
  6
Continuous
 62
     7
370
    15
100
AcDbLine
 10
845.7126927141
 20
394.743702227
 30
0.0
 11
845.7126927141
 21
390.6609981676
 31
0.0
  0
LINE
  5
38F
330
1F
100
AcDbEntity
  8
0
  6
Continuous
 62
     7
370
    15
100
AcDbLine
 10
827.7126927141
 20
394.743702227
 30
0.0
 11
827.7126927141
 21
390.6609981676
 31
0.0
  0
LWPOLYLINE
  5
390
330
1F
100
AcDbEntity
  8
0
  6
Continuous
 62
     8
370
    15
100
AcDbPolyline
 90
       20
 70
   128
 43
0.0
 10
662.7644245422
 20
257.2262665586
 10
662.8902528186
 20
261.5986138302
 10
663.2671635221
 20
266.0962893195
 10
663.8934368956
 20
270.698771165
 10
664.7662153975
 20
275.3850592975
 10
665.8815167395
 20
280.1337712593
 10
667.2342520575
 20
284.9232397667
 10
668.8182491305
 20
289.7316115734
 10
670.626280543
 20
294.5369471819
 10
672.6500966626
 20
299.3173209478
 10
674.8804632804
 20
304.0509211221
 10
677.307203745
 20
308.7161493728
 10
679.9192453964
 20
313.2917193336
 10
682.7046700876
 20
317.7567537281
 10
685.6507685646
 20
322.0908796284
 10
688.7440984557
 20
326.2743214122
 10
691.9705456062
 20
330.2879909942
 10
695.3153884777
 20
334.1135749205
 10
698.7633653194
 20
337.7336179292
 10
701.6224163853
 20
340.5050931325
  0
LWPOLYLINE
  5
391
330
1F
100
AcDbEntity
  8
0
  6
Continuous
 62
     8
370
    15
100
AcDbPolyline
 90
       21
 70
   128
 43
0.0
 10
703.0280422243
 20
219.1448977942
 10
702.2987438037
 20
218.9662839536
 10
698.7633653194
 20
218.2824075056
 10
695.3153884777
 20
217.9215011898
 10
691.9705456062
 20
217.885211739
 10
688.7440984557
 20
218.1737047336
 10
685.6507685646
 20
218.7856638462
 10
682.7046700876
 20
219.7182968479
 10
679.9192453964
 20
220.967348348
 10
677.307203745
 20
222.5271192112
 10
674.8804632804
 20
224.3904925606
 10
672.6500966626
 20
226.5489662511
 10
670.626280543
 20
228.9926916624
 10
668.8182491305
 20
231.7105186357
 10
667.2342520575
 20
234.6900463501
 10
665.8815167395
 20
237.9176799039
 10
664.7662153975
 20
241.3786923456
 10
663.8934368956
 20
245.0572918692
 10
663.2671635221
 20
248.9366938687
 10
662.8902528186
 20
252.9991975227
 10
662.7644245422
 20
257.2262665586
  0
LWPOLYLINE
  5
392
330
1F
100
AcDbEntity
  8
0
  6
Continuous
 62
     8
370
    15
100
AcDbPolyline
 90
       12
 70
   128
 43
0.0
 10
676.9065601659
 20
257.2262665586
 10
677.0319020955
 20
253.2920817441
 10
677.4072744096
 20
249.523124659
 10
678.0307200906
 20
245.9390449004
 10
678.8989887815
 20
242.5585282008
 10
680.0075537314
 20
239.3991990088
 10
681.3506353959
 20
236.477528604
 10
682.9212315691
 20
233.8087492229
 10
684.7111538898
 20
231.4067746457
 10
686.7110705319
 20
229.2841276555
 10
688.910554856
 20
227.4518747509
 10
690.992584377
 20
226.0928197187
  0
LWPOLYLINE
  5
393
330
1F
100
AcDbEntity
  8
0
  6
Continuous
 62
     8
370
    15
100
AcDbPolyline
 90
       15
 70
   128
 43
0.0
 10
696.7819891468
 20
313.666502242
 10
696.586904542
 20
313.3898299035
 10
693.8613775095
 20
309.332951055
 10
691.2981397693
 20
305.1491287923
 10
688.910554856
 20
300.8601756275
 10
686.7110705319
 20
296.4884521764
 10
684.7111538898
 20
292.0567505808
 10
682.9212315691
 20
287.5881756809
 10
681.3506353959
 20
283.106024557
 10
680.0075537314
 20
278.6336650697
 10
678.8989887815
 20
274.1944140304
 10
678.0307200906
 20
269.8114156387
 10
677.4072744096
 20
265.5075208186
 10
677.0319020955
 20
261.3051680848
 10
676.9065601659
 20
257.2262665586
  0
ENDSEC
  0
SECTION
  2
OBJECTS
  0
DICTIONARY
  5
C
330
0
100
AcDbDictionary
281
     1
  3
ACAD_GROUP
350
D
  3
ACAD_LAYOUT
350
1A
  3
ACAD_MLINESTYLE
350
17
  3
ACAD_PLOTSETTINGS
350
19
  3
ACAD_PLOTSTYLENAME
350
E
  3
ACAD_SCALELIST
350
47
  0
DICTIONARY
  5
D
102
{ACAD_REACTORS
330
C
102
}
330
C
100
AcDbDictionary
281
     1
  0
DICTIONARY
  5
1A
102
{ACAD_REACTORS
330
C
102
}
330
C
100
AcDbDictionary
281
     1
  3
Layout1
350
1E
  3
Layout2
350
26
  3
Model
350
22
  0
DICTIONARY
  5
17
102
{ACAD_REACTORS
330
C
102
}
330
C
100
AcDbDictionary
281
     1
  3
Standard
350
18
  0
DICTIONARY
  5
19
102
{ACAD_REACTORS
330
C
102
}
330
C
100
AcDbDictionary
281
     1
  0
ACDBDICTIONARYWDFLT
  5
E
102
{ACAD_REACTORS
330
C
102
}
330
C
100
AcDbDictionary
281
     1
  3
Normal
350
F
100
AcDbDictionaryWithDefault
340
F
  0
DICTIONARY
  5
47
102
{ACAD_REACTORS
330
C
102
}
330
C
100
AcDbDictionary
281
     1
  3
A0
350
48
  3
A1
350
49
  3
A2
350
4A
  3
A3
350
4B
  3
A4
350
4C
  3
A5
350
4D
  3
A6
350
4E
  3
A7
350
4F
  3
A8
350
50
  3
A9
350
51
  3
B0
350
52
  3
B1
350
53
  3
B2
350
54
  3
B3
350
55
  3
B4
350
56
  3
B5
350
57
  3
B6
350
58
  3
B7
350
59
  3
B8
350
5A
  3
B9
350
5B
  3
C0
350
5C
  3
C1
350
5D
  3
C2
350
5E
  3
C3
350
5F
  3
C4
350
60
  3
C5
350
61
  3
C6
350
62
  3
C7
350
63
  3
C8
350
64
  3
C9
350
65
  3
D0
350
66
  3
D1
350
67
  3
D2
350
68
  0
LAYOUT
  5
1E
102
{ACAD_REACTORS
330
1A
102
}
330
1A
100
AcDbPlotSettings
  1

  2
none_device
  4

  6

 40
0.0
 41
0.0
 42
0.0
 43
0.0
 44
0.0
 45
0.0
 46
0.0
 47
0.0
 48
0.0
 49
0.0
140
0.0
141
0.0
142
1.0
143
1.0
 70
   688
 72
     1
 73
     0
 74
     5
  7

 75
    16
147
1.0
148
0.0
149
0.0
100
AcDbLayout
  1
Layout1
 70
     1
 71
     1
 10
0.0
 20
0.0
 11
420.0
 21
297.0
 12
0.0
 22
0.0
 32
0.0
 14
1.0000000000E+20
 24
1.0000000000E+20
 34
1.0000000000E+20
 15
-1.0000000000E+20
 25
-1.0000000000E+20
 35
-1.0000000000E+20
146
0.0
 13
0.0
 23
0.0
 33
0.0
 16
1.0
 26
0.0
 36
0.0
 17
0.0
 27
1.0
 37
0.0
 76
     0
330
1B
  0
LAYOUT
  5
26
102
{ACAD_REACTORS
330
1A
102
}
330
1A
100
AcDbPlotSettings
  1

  2
none_device
  4

  6

 40
0.0
 41
0.0
 42
0.0
 43
0.0
 44
0.0
 45
0.0
 46
0.0
 47
0.0
 48
0.0
 49
0.0
140
0.0
141
0.0
142
1.0
143
1.0
 70
   688
 72
     1
 73
     0
 74
     5
  7

 75
    16
147
1.0
148
0.0
149
0.0
100
AcDbLayout
  1
Layout2
 70
     1
 71
     2
 10
0.0
 20
0.0
 11
0.0
 21
0.0
 12
0.0
 22
0.0
 32
0.0
 14
0.0
 24
0.0
 34
0.0
 15
0.0
 25
0.0
 35
0.0
146
0.0
 13
0.0
 23
0.0
 33
0.0
 16
1.0
 26
0.0
 36
0.0
 17
0.0
 27
1.0
 37
0.0
 76
     0
330
23
  0
LAYOUT
  5
22
102
{ACAD_REACTORS
330
1A
102
}
330
1A
100
AcDbPlotSettings
  1

  2
none_device
  4
Letter_(8.50_x_11.00_Inches)
  6

 40
6.35
 41
6.35
 42
6.35000508
 43
6.35000508
 44
215.9
 45
279.4
 46
0.0
 47
0.0
 48
0.0
 49
0.0
140
0.0
141
0.0
142
1.0
143
1.0
 70
  1712
 72
     1
 73
     0
 74
     0
  7

 75
     0
147
1.0
148
0.0
149
0.0
100
AcDbLayout
  1
Model
 70
     1
 71
     0
 10
0.0
 20
0.0
 11
1189.0
 21
841.0
 12
0.0
 22
0.0
 32
0.0
 14
0.0
 24
0.0
 34
0.0
 15
1189.0
 25
841.0
 35
0.0
146
0.0
 13
0.0
 23
0.0
 33
0.0
 16
1.0
 26
0.0
 36
0.0
 17
0.0
 27
1.0
 37
0.0
 76
     0
330
1F
331
29
  0
MLINESTYLE
  5
18
102
{ACAD_REACTORS
330
17
102
}
330
17
100
AcDbMlineStyle
  2
Standard
 70
     0
  3

 62
   256
 51
90.0
 52
90.0
 71
     2
 49
0.5
 62
   256
  6
BYLAYER
 49
-0.5
 62
   256
  6
BYLAYER
  0
ACDBPLACEHOLDER
  5
F
102
{ACAD_REACTORS
330
E
102
}
330
E
  0
SCALE
  5
48
102
{ACAD_REACTORS
330
47
102
}
330
47
100
AcDbScale
 70
     0
300
1:1
140
1.0
141
1.0
290
     1
  0
SCALE
  5
49
102
{ACAD_REACTORS
330
47
102
}
330
47
100
AcDbScale
 70
     0
300
1:2
140
1.0
141
2.0
290
     0
  0
SCALE
  5
4A
102
{ACAD_REACTORS
330
47
102
}
330
47
100
AcDbScale
 70
     0
300
1:4
140
1.0
141
4.0
290
     0
  0
SCALE
  5
4B
102
{ACAD_REACTORS
330
47
102
}
330
47
100
AcDbScale
 70
     0
300
1:5
140
1.0
141
5.0
290
     0
  0
SCALE
  5
4C
102
{ACAD_REACTORS
330
47
102
}
330
47
100
AcDbScale
 70
     0
300
1:8
140
1.0
141
8.0
290
     0
  0
SCALE
  5
4D
102
{ACAD_REACTORS
330
47
102
}
330
47
100
AcDbScale
 70
     0
300
1:10
140
1.0
141
10.0
290
     0
  0
SCALE
  5
4E
102
{ACAD_REACTORS
330
47
102
}
330
47
100
AcDbScale
 70
     0
300
1:16
140
1.0
141
16.0
290
     0
  0
SCALE
  5
4F
102
{ACAD_REACTORS
330
47
102
}
330
47
100
AcDbScale
 70
     0
300
1:20
140
1.0
141
20.0
290
     0
  0
SCALE
  5
50
102
{ACAD_REACTORS
330
47
102
}
330
47
100
AcDbScale
 70
     0
300
1:30
140
1.0
141
30.0
290
     0
  0
SCALE
  5
51
102
{ACAD_REACTORS
330
47
102
}
330
47
100
AcDbScale
 70
     0
300
1:40
140
1.0
141
40.0
290
     0
  0
SCALE
  5
52
102
{ACAD_REACTORS
330
47
102
}
330
47
100
AcDbScale
 70
     0
300
1:50
140
1.0
141
50.0
290
     0
  0
SCALE
  5
53
102
{ACAD_REACTORS
330
47
102
}
330
47
100
AcDbScale
 70
     0
300
1:100
140
1.0
141
100.0
290
     0
  0
SCALE
  5
54
102
{ACAD_REACTORS
330
47
102
}
330
47
100
AcDbScale
 70
     0
300
2:1
140
2.0
141
1.0
290
     0
  0
SCALE
  5
55
102
{ACAD_REACTORS
330
47
102
}
330
47
100
AcDbScale
 70
     0
300
4:1
140
4.0
141
1.0
290
     0
  0
SCALE
  5
56
102
{ACAD_REACTORS
330
47
102
}
330
47
100
AcDbScale
 70
     0
300
8:1
140
8.0
141
1.0
290
     0
  0
SCALE
  5
57
102
{ACAD_REACTORS
330
47
102
}
330
47
100
AcDbScale
 70
     0
300
10:1
140
10.0
141
1.0
290
     0
  0
SCALE
  5
58
102
{ACAD_REACTORS
330
47
102
}
330
47
100
AcDbScale
 70
     0
300
100:1
140
100.0
141
1.0
290
     0
  0
SCALE
  5
59
102
{ACAD_REACTORS
330
47
102
}
330
47
100
AcDbScale
 70
     0
300
1/128" = 1'-0"
140
0.0078125
141
12.0
290
     0
  0
SCALE
  5
5A
102
{ACAD_REACTORS
330
47
102
}
330
47
100
AcDbScale
 70
     0
300
1/64" = 1'-0"
140
0.015625
141
12.0
290
     0
  0
SCALE
  5
5B
102
{ACAD_REACTORS
330
47
102
}
330
47
100
AcDbScale
 70
     0
300
1/32" = 1'-0"
140
0.03125
141
12.0
290
     0
  0
SCALE
  5
5C
102
{ACAD_REACTORS
330
47
102
}
330
47
100
AcDbScale
 70
     0
300
1/16" = 1'-0"
140
0.0625
141
12.0
290
     0
  0
SCALE
  5
5D
102
{ACAD_REACTORS
330
47
102
}
330
47
100
AcDbScale
 70
     0
300
3/32" = 1'-0"
140
0.09375
141
12.0
290
     0
  0
SCALE
  5
5E
102
{ACAD_REACTORS
330
47
102
}
330
47
100
AcDbScale
 70
     0
300
1/8" = 1'-0"
140
0.125
141
12.0
290
     0
  0
SCALE
  5
5F
102
{ACAD_REACTORS
330
47
102
}
330
47
100
AcDbScale
 70
     0
300
3/16" = 1'-0"
140
0.1875
141
12.0
290
     0
  0
SCALE
  5
60
102
{ACAD_REACTORS
330
47
102
}
330
47
100
AcDbScale
 70
     0
300
1/4" = 1'-0"
140
0.25
141
12.0
290
     0
  0
SCALE
  5
61
102
{ACAD_REACTORS
330
47
102
}
330
47
100
AcDbScale
 70
     0
300
3/8" = 1'-0"
140
0.375
141
12.0
290
     0
  0
SCALE
  5
62
102
{ACAD_REACTORS
330
47
102
}
330
47
100
AcDbScale
 70
     0
300
1/2" = 1'-0"
140
0.5
141
12.0
290
     0
  0
SCALE
  5
63
102
{ACAD_REACTORS
330
47
102
}
330
47
100
AcDbScale
 70
     0
300
3/4" = 1'-0"
140
0.75
141
12.0
290
     0
  0
SCALE
  5
64
102
{ACAD_REACTORS
330
47
102
}
330
47
100
AcDbScale
 70
     0
300
1" = 1'-0"
140
1.0
141
12.0
290
     0
  0
SCALE
  5
65
102
{ACAD_REACTORS
330
47
102
}
330
47
100
AcDbScale
 70
     0
300
1-1/2" = 1'-0"
140
1.5
141
12.0
290
     0
  0
SCALE
  5
66
102
{ACAD_REACTORS
330
47
102
}
330
47
100
AcDbScale
 70
     0
300
3" = 1'-0"
140
3.0
141
12.0
290
     0
  0
SCALE
  5
67
102
{ACAD_REACTORS
330
47
102
}
330
47
100
AcDbScale
 70
     0
300
6" = 1'-0"
140
6.0
141
12.0
290
     0
  0
SCALE
  5
68
102
{ACAD_REACTORS
330
47
102
}
330
47
100
AcDbScale
 70
     0
300
1'-0" = 1'-0"
140
12.0
141
12.0
290
     0
  0
ENDSEC
  0
EOF
