  0
SECTION
  2
HEADER
  9
$ACADVER
  1
AC1015
  9
$ACADMAINTVER
 70
     6
  9
$DWGCODEPAGE
  3
ANSI_1252
  9
$INSBASE
 10
0.0
 20
0.0
 30
0.0
  9
$EXTMIN
 10
0.0
 20
0.0
 30
0.0
  9
$EXTMAX
 10
1189.0
 20
841.0
 30
0.0
  9
$LIMMIN
 10
0.0
 20
0.0
  9
$LIMMAX
 10
1189.0
 20
841.0
  9
$ORTHOMODE
 70
     0
  9
$REGENMODE
 70
     1
  9
$FILLMODE
 70
     1
  9
$QTEXTMODE
 70
     0
  9
$MIRRTEXT
 70
     1
  9
$LTSCALE
 40
1.0
  9
$ATTMODE
 70
     1
  9
$TEXTSIZE
 40
3.0
  9
$TRACEWID
 40
1.0
  9
$TEXTSTYLE
  7
Standard
  9
$CLAYER
  8
0
  9
$CELTYPE
  6
ByLayer
  9
$CECOLOR
 62
   256
  9
$CELTSCALE
 40
1.0
  9
$DISPSILH
 70
     0
  9
$DIMSCALE
 40
1.0
  9
$DIMASZ
 40
3.0
  9
$DIMEXO
 40
1.0
  9
$DIMDLI
 40
3.75
  9
$DIMRND
 40
0.0
  9
$DIMDLE
 40
0.0
  9
$DIMEXE
 40
1.0
  9
$DIMTP
 40
0.0
  9
$DIMTM
 40
0.0
  9
$DIMTXT
 40
3.0
  9
$DIMCEN
 40
2.5
  9
$DIMTSZ
 40
0.0
  9
$DIMTOL
 70
     0
  9
$DIMLIM
 70
     0
  9
$DIMTIH
 70
     1
  9
$DIMTOH
 70
     1
  9
$DIMSE1
 70
     0
  9
$DIMSE2
 70
     0
  9
$DIMTAD
 70
     1
  9
$DIMZIN
 70
     0
  9
$DIMBLK
  1

  9
$DIMASO
 70
     1
  9
$DIMSHO
 70
     1
  9
$DIMPOST
  1

  9
$DIMAPOST
  1

  9
$DIMALT
 70
     0
  9
$DIMALTD
 70
     3
  9
$DIMALTF
 40
0.0393700787
  9
$DIMLFAC
 40
1.0
  9
$DIMTOFL
 70
     1
  9
$DIMTVP
 40
0.0
  9
$DIMTIX
 70
     0
  9
$DIMSOXD
 70
     0
  9
$DIMSAH
 70
     0
  9
$DIMBLK1
  1

  9
$DIMBLK2
  1

  9
$DIMSTYLE
  2
ISO-25
  9
$DIMCLRD
 70
     0
  9
$DIMCLRE
 70
     0
  9
$DIMCLRT
 70
     0
  9
$DIMTFAC
 40
1.0
  9
$DIMGAP
 40
3.0
  9
$DIMJUST
 70
     0
  9
$DIMSD1
 70
     0
  9
$DIMSD2
 70
     0
  9
$DIMTOLJ
 70
     0
  9
$DIMTZIN
 70
     0
  9
$DIMALTZ
 70
     0
  9
$DIMALTTZ
 70
     0
  9
$DIMUPT
 70
     0
  9
$DIMDEC
 70
     2
  9
$DIMTDEC
 70
     3
  9
$DIMALTU
 70
     2
  9
$DIMALTTD
 70
     3
  9
$DIMTXSTY
  7
Standard
  9
$DIMAUNIT
 70
     0
  9
$DIMADEC
 70
     2
  9
$DIMALTRND
 40
0.0
  9
$DIMAZIN
 70
     0
  9
$DIMDSEP
 70
    44
  9
$DIMATFIT
 70
     3
  9
$DIMFRAC
 70
     0
  9
$DIMLDRBLK
  1

  9
$DIMLUNIT
 70
     2
  9
$DIMLWD
 70
    -2
  9
$DIMLWE
 70
    -2
  9
$DIMTMOVE
 70
     0
  9
$LUNITS
 70
     2
  9
$LUPREC
 70
     2
  9
$SKETCHINC
 40
1.0
  9
$FILLETRAD
 40
10.0
  9
$AUNITS
 70
     0
  9
$AUPREC
 70
     2
  9
$MENU
  1
.
  9
$ELEVATION
 40
0.0
  9
$PELEVATION
 40
0.0
  9
$THICKNESS
 40
0.0
  9
$LIMCHECK
 70
     0
  9
$CHAMFERA
 40
0.0
  9
$CHAMFERB
 40
0.0
  9
$CHAMFERC
 40
0.0
  9
$CHAMFERD
 40
0.0
  9
$SKPOLY
 70
     0
  9
$TDCREATE
 40
2457877.518400544
  9
$TDUCREATE
 40
2457877.435067211
  9
$TDUPDATE
 40
2457877.518401331
  9
$TDUUPDATE
 40
2457877.435067998
  9
$TDINDWG
 40
0.0000000116
  9
$TDUSRTIMER
 40
0.0000000116
  9
$USRTIMER
 70
     1
  9
$ANGBASE
 50
0.0
  9
$ANGDIR
 70
     0
  9
$PDMODE
 70
     0
  9
$PDSIZE
 40
-1.0
  9
$PLINEWID
 40
0.0
  9
$SPLFRAME
 70
     0
  9
$SPLINETYPE
 70
     6
  9
$SPLINESEGS
 70
     8
  9
$HANDSEED
  5
390
  9
$SURFTAB1
 70
     6
  9
$SURFTAB2
 70
     6
  9
$SURFTYPE
 70
     6
  9
$SURFU
 70
     6
  9
$SURFV
 70
     6
  9
$UCSBASE
  2

  9
$UCSNAME
  2

  9
$UCSORG
 10
0.0
 20
0.0
 30
0.0
  9
$UCSXDIR
 10
1.0
 20
0.0
 30
0.0
  9
$UCSYDIR
 10
0.0
 20
1.0
 30
0.0
  9
$UCSORTHOREF
  2

  9
$UCSORTHOVIEW
 70
     0
  9
$UCSORGTOP
 10
0.0
 20
0.0
 30
0.0
  9
$UCSORGBOTTOM
 10
0.0
 20
0.0
 30
0.0
  9
$UCSORGLEFT
 10
0.0
 20
0.0
 30
0.0
  9
$UCSORGRIGHT
 10
0.0
 20
0.0
 30
0.0
  9
$UCSORGFRONT
 10
0.0
 20
0.0
 30
0.0
  9
$UCSORGBACK
 10
0.0
 20
0.0
 30
0.0
  9
$PUCSBASE
  2

  9
$PUCSNAME
  2

  9
$PUCSORG
 10
0.0
 20
0.0
 30
0.0
  9
$PUCSXDIR
 10
1.0
 20
0.0
 30
0.0
  9
$PUCSYDIR
 10
0.0
 20
1.0
 30
0.0
  9
$PUCSORTHOREF
  2

  9
$PUCSORTHOVIEW
 70
     0
  9
$PUCSORGTOP
 10
0.0
 20
0.0
 30
0.0
  9
$PUCSORGBOTTOM
 10
0.0
 20
0.0
 30
0.0
  9
$PUCSORGLEFT
 10
0.0
 20
0.0
 30
0.0
  9
$PUCSORGRIGHT
 10
0.0
 20
0.0
 30
0.0
  9
$PUCSORGFRONT
 10
0.0
 20
0.0
 30
0.0
  9
$PUCSORGBACK
 10
0.0
 20
0.0
 30
0.0
  9
$USERI1
 70
     0
  9
$USERI2
 70
     0
  9
$USERI3
 70
     0
  9
$USERI4
 70
     0
  9
$USERI5
 70
     0
  9
$USERR1
 40
0.0
  9
$USERR2
 40
0.0
  9
$USERR3
 40
0.0
  9
$USERR4
 40
0.0
  9
$USERR5
 40
0.0
  9
$WORLDVIEW
 70
     1
  9
$SHADEDGE
 70
     3
  9
$SHADEDIF
 70
    70
  9
$TILEMODE
 70
     1
  9
$MAXACTVP
 70
    64
  9
$PINSBASE
 10
0.0
 20
0.0
 30
0.0
  9
$PLIMCHECK
 70
     0
  9
$PEXTMIN
 10
1.0000000000E+20
 20
1.0000000000E+20
 30
1.0000000000E+20
  9
$PEXTMAX
 10
-1.0000000000E+20
 20
-1.0000000000E+20
 30
-1.0000000000E+20
  9
$PLIMMIN
 10
0.0
 20
0.0
  9
$PLIMMAX
 10
420.0
 20
297.0
  9
$UNITMODE
 70
     0
  9
$VISRETAIN
 70
     1
  9
$PLINEGEN
 70
     0
  9
$PSLTSCALE
 70
     1
  9
$TREEDEPTH
 70
  3020
  9
$CMLSTYLE
  2
Standard
  9
$CMLJUST
 70
     0
  9
$CMLSCALE
 40
20.0
  9
$PROXYGRAPHICS
 70
     1
  9
$MEASUREMENT
 70
     1
  9
$CELWEIGHT
370
    -1
  9
$ENDCAPS
280
     0
  9
$JOINSTYLE
280
     0
  9
$LWDISPLAY
290
     1
  9
$INSUNITS
 70
     4
  9
$HYPERLINKBASE
  1

  9
$STYLESHEET
  1

  9
$XEDIT
290
     1
  9
$CEPSNTYPE
380
     0
  9
$PSTYLEMODE
290
     1
  9
$FINGERPRINTGUID
  2
{862526D4-73D5-4096-AF95-0A7FD51F87F1}
  9
$VERSIONGUID
  2
{FAEB1C32-E019-11D5-929B-00C0DF256EC4}
  9
$EXTNAMES
290
     1
  9
$PSVPSCALE
 40
0.0
  9
$OLESTARTUP
290
     0
  0
ENDSEC
  0
SECTION
  2
CLASSES
  0
CLASS
  1
ACDBDICTIONARYWDFLT
  2
AcDbDictionaryWithDefault
  3
ObjectDBX Classes
 90
        0
280
     0
281
     0
  0
CLASS
  1
VISUALSTYLE
  2
AcDbVisualStyle
  3
ObjectDBX Classes
 90
     4095
280
     0
281
     0
  0
CLASS
  1
MATERIAL
  2
AcDbMaterial
  3
ObjectDBX Classes
 90
     1153
280
     0
281
     0
  0
CLASS
  1
SCALE
  2
AcDbScale
  3
ObjectDBX Classes
 90
     1153
280
     0
281
     0
  0
CLASS
  1
TABLESTYLE
  2
AcDbTableStyle
  3
ObjectDBX Classes
 90
     4095
280
     0
281
     0
  0
CLASS
  1
MLEADERSTYLE
  2
AcDbMLeaderStyle
  3
ACDB_MLEADERSTYLE_CLASS
 90
     4095
280
     0
281
     0
  0
CLASS
  1
SUN
  2
AcDbSun
  3
SCENEOE
 90
     1153
280
     0
281
     0
  0
CLASS
  1
ACDBPLACEHOLDER
  2
AcDbPlaceHolder
  3
ObjectDBX Classes
 90
        0
280
     0
281
     0
  0
CLASS
  1
LAYOUT
  2
AcDbLayout
  3
ObjectDBX Classes
 90
        0
280
     0
281
     0
  0
ENDSEC
  0
SECTION
  2
TABLES
  0
TABLE
  2
VPORT
  5
8
330
0
100
AcDbSymbolTable
 70
     1
  0
VPORT
  5
29
330
8
100
AcDbSymbolTableRecord
100
AcDbViewportTableRecord
  2
*Active
 70
     0
 10
0.0
 20
0.0
 11
1.0
 21
1.0
 12
594.5
 22
420.5
 13
0.0
 23
0.0
 14
10.0
 24
10.0
 15
10.0
 25
10.0
 16
0.0
 26
0.0
 36
1.0
 17
0.0
 27
0.0
 37
0.0
 40
841.0
 41
1.4137931034
 42
50.0
 43
0.0
 44
0.0
 50
0.0
 51
0.0
 71
     0
 72
  2000
 73
     1
 74
     3
 75
     0
 76
     0
 77
     0
 78
     0
281
     0
 65
     1
110
0.0
120
0.0
130
0.0
111
1.0
121
0.0
131
0.0
112
0.0
122
1.0
132
0.0
 79
     0
146
0.0
  0
ENDTAB
  0
TABLE
  2
LTYPE
  5
5
330
0
100
AcDbSymbolTable
 70
     6
  0
LTYPE
  5
14
330
5
100
AcDbSymbolTableRecord
100
AcDbLinetypeTableRecord
  2
ByBlock
 70
     0
  3

 72
    65
 73
     0
 40
0.0
  0
LTYPE
  5
15
330
5
100
AcDbSymbolTableRecord
100
AcDbLinetypeTableRecord
  2
ByLayer
 70
     0
  3

 72
    65
 73
     0
 40
0.0
  0
LTYPE
  5
16
330
5
100
AcDbSymbolTableRecord
100
AcDbLinetypeTableRecord
  2
Continuous
 70
     0
  3
Solid line
 72
    65
 73
     0
 40
0.0
  0
LTYPE
  5
6E
330
5
100
AcDbSymbolTableRecord
100
AcDbLinetypeTableRecord
  2
HIDDEN
 70
     0
  3
Hidden __ __ __ __ __ __ __ __ __ __ __ __ __ __
 72
    65
 73
     2
 40
1.905
 49
1.27
 74
     0
 49
-0.635
 74
     0
  0
LTYPE
  5
6F
330
5
100
AcDbSymbolTableRecord
100
AcDbLinetypeTableRecord
  2
PHANTOM
 70
     0
  3
Phantom ______  __  __  ______  __  __  ______
 72
    65
 73
     6
 40
12.7
 49
6.35
 74
     0
 49
-1.27
 74
     0
 49
1.27
 74
     0
 49
-1.27
 74
     0
 49
1.27
 74
     0
 49
-1.27
 74
     0
  0
LTYPE
  5
70
330
5
100
AcDbSymbolTableRecord
100
AcDbLinetypeTableRecord
  2
CENTER
 70
     0
  3
Center ____ _ ____ _ ____ _ ____ _ ____ _ ____
 72
    65
 73
     4
 40
10.16
 49
6.35
 74
     0
 49
-1.27
 74
     0
 49
1.27
 74
     0
 49
-1.27
 74
     0
  0
LTYPE
  5
71
330
5
100
AcDbSymbolTableRecord
100
AcDbLinetypeTableRecord
  2
CENTERX2
 70
     0
  3
Center (2x) ________  __  ________  __  _____
 72
    65
 73
     4
 40
20.32
 49
12.7
 74
     0
 49
-2.54
 74
     0
 49
2.54
 74
     0
 49
-2.54
 74
     0
  0
LTYPE
  5
72
330
5
100
AcDbSymbolTableRecord
100
AcDbLinetypeTableRecord
  2
DOT2
 70
     0
  3
Dot (.5x) ........................................
 72
    65
 73
     2
 40
0.635
 49
0.0
 74
     0
 49
-0.635
 74
     0
  0
ENDTAB
  0
TABLE
  2
LAYER
  5
2
330
0
100
AcDbSymbolTable
 70
     1
  0
LAYER
  5
10
330
2
100
AcDbSymbolTableRecord
100
AcDbLayerTableRecord
  2
0
 70
     0
 62
     7
  6
Continuous
370
    -3
390
F
  0
ENDTAB
  0
TABLE
  2
STYLE
  5
3
330
0
100
AcDbSymbolTable
 70
     5
  0
STYLE
  5
11
330
3
100
AcDbSymbolTableRecord
100
AcDbTextStyleTableRecord
  2
Standard
 70
     0
 40
0.0
 41
1.0
 50
0.0
 71
     0
 42
3.0
  3
txt
  4

  0
STYLE
  5
102
330
3
100
AcDbSymbolTableRecord
100
AcDbTextStyleTableRecord
  2
SLDTEXTSTYLE0
 70
     0
 40
0.0
 41
0.8435443038
 50
0.0
 71
     0
 42
3.0
  3
ISOCP
  4

  0
STYLE
  5
155
330
3
100
AcDbSymbolTableRecord
100
AcDbTextStyleTableRecord
  2
SLDTEXTSTYLE1
 70
     0
 40
0.0
 41
0.5316086498
 50
0.0
 71
     0
 42
3.0
  3
TXT
  4

  0
STYLE
  5
172
330
3
100
AcDbSymbolTableRecord
100
AcDbTextStyleTableRecord
  2
SLDTEXTSTYLE2
 70
     0
 40
0.0
 41
1.0126582278
 50
0.0
 71
     0
 42
3.0
  3
ISOCP
  4

  0
STYLE
  5
1A3
330
3
100
AcDbSymbolTableRecord
100
AcDbTextStyleTableRecord
  2
SLDTEXTSTYLE3
 70
     0
 40
0.0
 41
0.96
 50
0.0
 71
     0
 42
3.0
  3
ISOCP
  4

  0
ENDTAB
  0
TABLE
  2
VIEW
  5
6
330
0
100
AcDbSymbolTable
 70
     0
  0
ENDTAB
  0
TABLE
  2
UCS
  5
7
330
0
100
AcDbSymbolTable
 70
     0
  0
ENDTAB
  0
TABLE
  2
APPID
  5
9
330
0
100
AcDbSymbolTable
 70
     1
  0
APPID
  5
12
330
9
100
AcDbSymbolTableRecord
100
AcDbRegAppTableRecord
  2
ACAD
 70
     0
  0
ENDTAB
  0
TABLE
  2
DIMSTYLE
  5
A
330
0
100
AcDbSymbolTable
 70
     1
100
AcDbDimStyleTable
  0
DIMSTYLE
105
27
330
A
100
AcDbSymbolTableRecord
100
AcDbDimStyleTableRecord
  2
ISO-25
 70
     0
 41
2.5
 42
0.625
 43
3.75
 44
1.25
 73
     0
 74
     0
 77
     1
 78
     8
140
2.5
141
2.5
143
0.0393700787
147
0.625
171
     3
172
     1
178
     0
271
     2
272
     2
274
     3
278
    44
283
     0
284
     8
340
11
  0
ENDTAB
  0
TABLE
  2
BLOCK_RECORD
  5
1
330
0
100
AcDbSymbolTable
 70
     4
  0
BLOCK_RECORD
  5
1F
330
1
100
AcDbSymbolTableRecord
100
AcDbBlockTableRecord
  2
*Model_Space
340
22
  0
BLOCK_RECORD
  5
1B
330
1
100
AcDbSymbolTableRecord
100
AcDbBlockTableRecord
  2
*Paper_Space
340
1E
  0
BLOCK_RECORD
  5
23
330
1
100
AcDbSymbolTableRecord
100
AcDbBlockTableRecord
  2
*Paper_Space0
340
26
  0
BLOCK_RECORD
  5
73
330
1
100
AcDbSymbolTableRecord
100
AcDbBlockTableRecord
  2
A0H
340
0
  0
BLOCK_RECORD
  5
15E
330
1
100
AcDbSymbolTableRecord
100
AcDbBlockTableRecord
  2
ISO2768
340
0
  0
BLOCK_RECORD
  5
1A0
330
1
100
AcDbSymbolTableRecord
100
AcDbBlockTableRecord
  2
Nota legale
340
0
  0
ENDTAB
  0
ENDSEC
  0
SECTION
  2
BLOCKS
  0
BLOCK
  5
20
330
1F
100
AcDbEntity
  8
0
100
AcDbBlockBegin
  2
*Model_Space
 70
     0
 10
0.0
 20
0.0
 30
0.0
  3
*Model_Space
  1

  0
ENDBLK
  5
21
330
1F
100
AcDbEntity
  8
0
100
AcDbBlockEnd
  0
BLOCK
  5
1C
330
1B
100
AcDbEntity
 67
     1
  8
0
100
AcDbBlockBegin
  2
*Paper_Space
 70
     0
 10
0.0
 20
0.0
 30
0.0
  3
*Paper_Space
  1

  0
ENDBLK
  5
1D
330
1B
100
AcDbEntity
 67
     1
  8
0
100
AcDbBlockEnd
  0
BLOCK
  5
24
330
23
100
AcDbEntity
  8
0
100
AcDbBlockBegin
  2
*Paper_Space0
 70
     0
 10
0.0
 20
0.0
 30
0.0
  3
*Paper_Space0
  1

  0
ENDBLK
  5
25
330
23
100
AcDbEntity
  8
0
100
AcDbBlockEnd
  0
BLOCK
  5
74
330
73
100
AcDbEntity
  8
0
100
AcDbBlockBegin
  2
A0H
 70
     0
 10
0.0
 20
0.0
 30
0.0
  3
A0H
  1

  0
LINE
  5
76
330
73
100
AcDbEntity
  8
0
  6
Continuous
 62
     7
370
     0
100
AcDbLine
 10
139.0
 20
830.9999999407
 30
0.0
 11
139.0
 21
836.0
 31
0.0
  0
LINE
  5
77
330
73
100
AcDbEntity
  8
0
  6
Continuous
 62
     7
370
     0
100
AcDbLine
 10
349.0
 20
830.9999999407
 30
0.0
 11
349.0
 21
836.0
 31
0.0
  0
LINE
  5
78
330
73
100
AcDbEntity
  8
0
  6
Continuous
 62
     7
370
     0
100
AcDbLine
 10
559.0
 20
830.9999999407
 30
0.0
 11
559.0
 21
836.0
 31
0.0
  0
LINE
  5
79
330
73
100
AcDbEntity
  8
0
  6
Continuous
 62
     7
370
     0
100
AcDbLine
 10
769.0
 20
830.9999999407
 30
0.0
 11
769.0
 21
836.0
 31
0.0
  0
LINE
  5
7A
330
73
100
AcDbEntity
  8
0
  6
Continuous
 62
     7
370
     0
100
AcDbLine
 10
979.0
 20
830.9999999407
 30
0.0
 11
979.0
 21
836.0
 31
0.0
  0
LINE
  5
7B
330
73
100
AcDbEntity
  8
0
  6
Continuous
 62
     7
370
     0
100
AcDbLine
 10
329.4999999291
 20
830.9999999407
 30
0.0
 11
327.3865971476
 21
836.0
 31
0.0
  0
LINE
  5
7C
330
73
100
AcDbEntity
  8
0
  6
Continuous
 62
     7
370
     0
100
AcDbLine
 10
329.4999999291
 20
830.9999999407
 30
0.0
 11
331.6134037388
 21
836.0
 31
0.0
  0
LINE
  5
7D
330
73
100
AcDbEntity
  8
0
  6
Continuous
 62
     7
370
     0
100
AcDbLine
 10
263.9999999307
 20
830.9999999407
 30
0.0
 11
261.8865971369
 21
836.0
 31
0.0
  0
LINE
  5
7E
330
73
100
AcDbEntity
  8
0
  6
Continuous
 62
     7
370
     0
100
AcDbLine
 10
263.9999999307
 20
830.9999999407
 30
0.0
 11
266.1134037507
 21
836.0
 31
0.0
  0
LINE
  5
7F
330
73
100
AcDbEntity
  8
0
  6
Continuous
 62
     7
370
     0
100
AcDbLine
 10
634.0
 20
830.9999999407
 30
0.0
 11
631.8865971264
 21
836.0
 31
0.0
  0
LINE
  5
80
330
73
100
AcDbEntity
  8
0
  6
Continuous
 62
     7
370
     0
100
AcDbLine
 10
634.0
 20
830.9999999407
 30
0.0
 11
636.1134038095
 21
836.0
 31
0.0
  0
LINE
  5
81
330
73
100
AcDbEntity
  8
0
  6
Continuous
 62
     7
370
     0
100
AcDbLine
 10
1004.0
 20
830.9999999407
 30
0.0
 11
1001.8865971264
 21
836.0
 31
0.0
  0
LINE
  5
82
330
73
100
AcDbEntity
  8
0
  6
Continuous
 62
     7
370
     0
100
AcDbLine
 10
1004.0
 20
830.9999999407
 30
0.0
 11
1006.1134038095
 21
836.0
 31
0.0
  0
LINE
  5
83
330
73
100
AcDbEntity
  8
0
  6
Continuous
 62
     7
370
     0
100
AcDbLine
 10
1179.0
 20
297.0
 30
0.0
 11
1183.9999314379
 21
299.1133751678
 31
0.0
  0
LINE
  5
84
330
73
100
AcDbEntity
  8
0
  6
Continuous
 62
     7
370
     0
100
AcDbLine
 10
1179.0
 20
297.0
 30
0.0
 11
1183.9999314379
 21
294.8866264869
 31
0.0
  0
LINE
  5
85
330
73
100
AcDbEntity
  8
0
  6
Continuous
 62
     7
370
     0
100
AcDbLine
 10
1179.0
 20
594.0
 30
0.0
 11
1183.9999314379
 21
596.1133751678
 31
0.0
  0
LINE
  5
86
330
73
100
AcDbEntity
  8
0
  6
Continuous
 62
     7
370
     0
100
AcDbLine
 10
1179.0
 20
594.0
 30
0.0
 11
1183.9999314379
 21
591.8866264868
 31
0.0
  0
LINE
  5
87
330
73
100
AcDbEntity
  8
0
  6
Continuous
 62
     7
370
     0
100
AcDbLine
 10
979.0
 20
5.0
 30
0.0
 11
979.0
 21
10.0
 31
0.0
  0
LINE
  5
88
330
73
100
AcDbEntity
  8
0
  6
Continuous
 62
     7
370
     0
100
AcDbLine
 10
769.0
 20
5.0
 30
0.0
 11
769.0
 21
10.0
 31
0.0
  0
LINE
  5
89
330
73
100
AcDbEntity
  8
0
  6
Continuous
 62
     7
370
     0
100
AcDbLine
 10
559.0
 20
5.0
 30
0.0
 11
559.0
 21
10.0
 31
0.0
  0
LINE
  5
8A
330
73
100
AcDbEntity
  8
0
  6
Continuous
 62
     7
370
     0
100
AcDbLine
 10
349.0
 20
5.0
 30
0.0
 11
349.0
 21
10.0
 31
0.0
  0
LINE
  5
8B
330
73
100
AcDbEntity
  8
0
  6
Continuous
 62
     7
370
     0
100
AcDbLine
 10
139.0
 20
5.0
 30
0.0
 11
139.0
 21
10.0
 31
0.0
  0
LINE
  5
8C
330
73
100
AcDbEntity
  8
0
  6
Continuous
 62
     7
370
     0
100
AcDbLine
 10
264.0
 20
10.0
 30
0.0
 11
266.1134033203
 21
5.0
 31
0.0
  0
LINE
  5
8D
330
73
100
AcDbEntity
  8
0
  6
Continuous
 62
     7
370
     0
100
AcDbLine
 10
264.0
 20
10.0
 30
0.0
 11
261.8865966797
 21
5.0
 31
0.0
  0
LINE
  5
8E
330
73
100
AcDbEntity
  8
0
  6
Continuous
 62
     7
370
     0
100
AcDbLine
 10
329.5
 20
10.0
 30
0.0
 11
331.6134033203
 21
5.0
 31
0.0
  0
LINE
  5
8F
330
73
100
AcDbEntity
  8
0
  6
Continuous
 62
     7
370
     0
100
AcDbLine
 10
329.5
 20
10.0
 30
0.0
 11
327.3865966797
 21
5.0
 31
0.0
  0
LINE
  5
90
330
73
100
AcDbEntity
  8
0
  6
Continuous
 62
     7
370
     0
100
AcDbLine
 10
634.0
 20
10.0
 30
0.0
 11
636.1134033203
 21
5.0
 31
0.0
  0
LINE
  5
91
330
73
100
AcDbEntity
  8
0
  6
Continuous
 62
     7
370
     0
100
AcDbLine
 10
634.0
 20
10.0
 30
0.0
 11
631.8865966797
 21
5.0
 31
0.0
  0
LINE
  5
92
330
73
100
AcDbEntity
  8
0
  6
Continuous
 62
     7
370
     0
100
AcDbLine
 10
1004.0
 20
10.0
 30
0.0
 11
1006.1134033203
 21
5.0
 31
0.0
  0
LINE
  5
93
330
73
100
AcDbEntity
  8
0
  6
Continuous
 62
     7
370
     0
100
AcDbLine
 10
1004.0
 20
10.0
 30
0.0
 11
1001.8865966797
 21
5.0
 31
0.0
  0
LINE
  5
94
330
73
100
AcDbEntity
  8
0
  6
Continuous
 62
     7
370
     0
100
AcDbLine
 10
1034.124999986
 20
5.0
 30
0.0
 11
1034.124999986
 21
10.0
 31
0.0
  0
LINE
  5
95
330
73
100
AcDbEntity
  8
0
  6
Continuous
 62
     7
370
     0
100
AcDbLine
 10
985.83333332
 20
5.0
 30
0.0
 11
985.83333332
 21
10.0
 31
0.0
  0
LINE
  5
96
330
73
100
AcDbEntity
  8
0
  6
Continuous
 62
     7
370
     0
100
AcDbLine
 10
937.541666654
 20
5.0
 30
0.0
 11
937.541666654
 21
10.0
 31
0.0
  0
LINE
  5
97
330
73
100
AcDbEntity
  8
0
  6
Continuous
 62
     7
370
     0
100
AcDbLine
 10
889.249999988
 20
5.0
 30
0.0
 11
889.249999988
 21
10.0
 31
0.0
  0
LINE
  5
98
330
73
100
AcDbEntity
  8
0
  6
Continuous
 62
     7
370
     0
100
AcDbLine
 10
840.958333322
 20
5.0
 30
0.0
 11
840.958333322
 21
10.0
 31
0.0
  0
LINE
  5
99
330
73
100
AcDbEntity
  8
0
  6
Continuous
 62
     7
370
     0
100
AcDbLine
 10
792.666666656
 20
5.0
 30
0.0
 11
792.666666656
 21
10.0
 31
0.0
  0
LINE
  5
9A
330
73
100
AcDbEntity
  8
0
  6
Continuous
 62
     7
370
     0
100
AcDbLine
 10
744.37499999
 20
5.0
 30
0.0
 11
744.37499999
 21
10.0
 31
0.0
  0
LINE
  5
9B
330
73
100
AcDbEntity
  8
0
  6
Continuous
 62
     7
370
     0
100
AcDbLine
 10
696.083333324
 20
5.0
 30
0.0
 11
696.083333324
 21
10.0
 31
0.0
  0
LINE
  5
9C
330
73
100
AcDbEntity
  8
0
  6
Continuous
 62
     7
370
     0
100
AcDbLine
 10
647.791666658
 20
5.0
 30
0.0
 11
647.791666658
 21
10.0
 31
0.0
  0
LINE
  5
9D
330
73
100
AcDbEntity
  8
0
  6
Continuous
 62
     7
370
     0
100
AcDbLine
 10
599.499999992
 20
5.0
 30
0.0
 11
599.499999992
 21
10.0
 31
0.0
  0
LINE
  5
9E
330
73
100
AcDbEntity
  8
0
  6
Continuous
 62
     7
370
     0
100
AcDbLine
 10
551.208333326
 20
5.0
 30
0.0
 11
551.208333326
 21
10.0
 31
0.0
  0
LINE
  5
9F
330
73
100
AcDbEntity
  8
0
  6
Continuous
 62
     7
370
     0
100
AcDbLine
 10
502.91666666
 20
5.0
 30
0.0
 11
502.91666666
 21
10.0
 31
0.0
  0
LINE
  5
A0
330
73
100
AcDbEntity
  8
0
  6
Continuous
 62
     7
370
     0
100
AcDbLine
 10
454.624999994
 20
5.0
 30
0.0
 11
454.624999994
 21
10.0
 31
0.0
  0
LINE
  5
A1
330
73
100
AcDbEntity
  8
0
  6
Continuous
 62
     7
370
     0
100
AcDbLine
 10
406.333333328
 20
5.0
 30
0.0
 11
406.333333328
 21
10.0
 31
0.0
  0
LINE
  5
A2
330
73
100
AcDbEntity
  8
0
  6
Continuous
 62
     7
370
     0
100
AcDbLine
 10
358.041666662
 20
5.0
 30
0.0
 11
358.041666662
 21
10.0
 31
0.0
  0
LINE
  5
A3
330
73
100
AcDbEntity
  8
0
  6
Continuous
 62
     7
370
     0
100
AcDbLine
 10
309.749999996
 20
5.0
 30
0.0
 11
309.749999996
 21
10.0
 31
0.0
  0
LINE
  5
A4
330
73
100
AcDbEntity
  8
0
  6
Continuous
 62
     7
370
     0
100
AcDbLine
 10
261.45833333
 20
5.0
 30
0.0
 11
261.45833333
 21
10.0
 31
0.0
  0
LINE
  5
A5
330
73
100
AcDbEntity
  8
0
  6
Continuous
 62
     7
370
     0
100
AcDbLine
 10
213.166666664
 20
5.0
 30
0.0
 11
213.166666664
 21
10.0
 31
0.0
  0
LINE
  5
A6
330
73
100
AcDbEntity
  8
0
  6
Continuous
 62
     7
370
     0
100
AcDbLine
 10
164.874999998
 20
5.0
 30
0.0
 11
164.874999998
 21
10.0
 31
0.0
  0
LINE
  5
A7
330
73
100
AcDbEntity
  8
0
  6
Continuous
 62
     7
370
     0
100
AcDbLine
 10
116.583333332
 20
5.0
 30
0.0
 11
116.583333332
 21
10.0
 31
0.0
  0
LINE
  5
A8
330
73
100
AcDbEntity
  8
0
  6
Continuous
 62
     7
370
     0
100
AcDbLine
 10
68.291666666
 20
5.0
 30
0.0
 11
68.291666666
 21
10.0
 31
0.0
  0
LINE
  5
A9
330
73
100
AcDbEntity
  8
0
  6
Continuous
 62
     7
370
     0
100
AcDbLine
 10
1183.9999314379
 20
55.61111113
 30
0.0
 11
1179.0
 21
55.61111113
 31
0.0
  0
LINE
  5
AA
330
73
100
AcDbEntity
  8
0
  6
Continuous
 62
     7
370
     0
100
AcDbLine
 10
1183.9999314379
 20
101.22222224
 30
0.0
 11
1179.0
 21
101.22222224
 31
0.0
  0
LINE
  5
AB
330
73
100
AcDbEntity
  8
0
  6
Continuous
 62
     7
370
     0
100
AcDbLine
 10
1183.9999314379
 20
146.83333335
 30
0.0
 11
1179.0
 21
146.83333335
 31
0.0
  0
LINE
  5
AC
330
73
100
AcDbEntity
  8
0
  6
Continuous
 62
     7
370
     0
100
AcDbLine
 10
1183.9999314379
 20
192.44444446
 30
0.0
 11
1179.0
 21
192.44444446
 31
0.0
  0
LINE
  5
AD
330
73
100
AcDbEntity
  8
0
  6
Continuous
 62
     7
370
     0
100
AcDbLine
 10
1183.9999314379
 20
238.05555557
 30
0.0
 11
1179.0
 21
238.05555557
 31
0.0
  0
LINE
  5
AE
330
73
100
AcDbEntity
  8
0
  6
Continuous
 62
     7
370
     0
100
AcDbLine
 10
1183.9999314379
 20
283.66666668
 30
0.0
 11
1179.0
 21
283.66666668
 31
0.0
  0
LINE
  5
AF
330
73
100
AcDbEntity
  8
0
  6
Continuous
 62
     7
370
     0
100
AcDbLine
 10
1183.9999314379
 20
329.27777779
 30
0.0
 11
1179.0
 21
329.27777779
 31
0.0
  0
LINE
  5
B0
330
73
100
AcDbEntity
  8
0
  6
Continuous
 62
     7
370
     0
100
AcDbLine
 10
1183.9999314379
 20
374.8888889
 30
0.0
 11
1179.0
 21
374.8888889
 31
0.0
  0
LINE
  5
B1
330
73
100
AcDbEntity
  8
0
  6
Continuous
 62
     7
370
     0
100
AcDbLine
 10
1183.9999314379
 20
420.50000001
 30
0.0
 11
1179.0
 21
420.50000001
 31
0.0
  0
LINE
  5
B2
330
73
100
AcDbEntity
  8
0
  6
Continuous
 62
     7
370
     0
100
AcDbLine
 10
1183.9999314379
 20
466.11111112
 30
0.0
 11
1179.0
 21
466.11111112
 31
0.0
  0
LINE
  5
B3
330
73
100
AcDbEntity
  8
0
  6
Continuous
 62
     7
370
     0
100
AcDbLine
 10
1183.9999314379
 20
511.72222223
 30
0.0
 11
1179.0
 21
511.72222223
 31
0.0
  0
LINE
  5
B4
330
73
100
AcDbEntity
  8
0
  6
Continuous
 62
     7
370
     0
100
AcDbLine
 10
1183.9999314379
 20
557.33333334
 30
0.0
 11
1179.0
 21
557.33333334
 31
0.0
  0
LINE
  5
B5
330
73
100
AcDbEntity
  8
0
  6
Continuous
 62
     7
370
     0
100
AcDbLine
 10
1183.9999314379
 20
602.94444445
 30
0.0
 11
1179.0
 21
602.94444445
 31
0.0
  0
LINE
  5
B6
330
73
100
AcDbEntity
  8
0
  6
Continuous
 62
     7
370
     0
100
AcDbLine
 10
1183.9999314379
 20
648.55555556
 30
0.0
 11
1179.0
 21
648.55555556
 31
0.0
  0
LINE
  5
B7
330
73
100
AcDbEntity
  8
0
  6
Continuous
 62
     7
370
     0
100
AcDbLine
 10
1183.9999314379
 20
694.16666667
 30
0.0
 11
1179.0
 21
694.16666667
 31
0.0
  0
LINE
  5
B8
330
73
100
AcDbEntity
  8
0
  6
Continuous
 62
     7
370
     0
100
AcDbLine
 10
1183.9999314379
 20
739.77777778
 30
0.0
 11
1179.0
 21
739.77777778
 31
0.0
  0
LINE
  5
B9
330
73
100
AcDbEntity
  8
0
  6
Continuous
 62
     7
370
     0
100
AcDbLine
 10
1183.9999314379
 20
785.38888889
 30
0.0
 11
1179.0
 21
785.38888889
 31
0.0
  0
LINE
  5
BA
330
73
100
AcDbEntity
  8
0
  6
Continuous
 62
     7
370
     0
100
AcDbLine
 10
20.0
 20
10.0
 30
0.0
 11
15.0
 21
10.0
 31
0.0
  0
LINE
  5
BB
330
73
100
AcDbEntity
  8
0
  6
Continuous
 62
     7
370
     0
100
AcDbLine
 10
20.0
 20
55.61111113
 30
0.0
 11
15.0
 21
55.61111113
 31
0.0
  0
LINE
  5
BC
330
73
100
AcDbEntity
  8
0
  6
Continuous
 62
     7
370
     0
100
AcDbLine
 10
20.0
 20
101.22222224
 30
0.0
 11
15.0
 21
101.22222224
 31
0.0
  0
LINE
  5
BD
330
73
100
AcDbEntity
  8
0
  6
Continuous
 62
     7
370
     0
100
AcDbLine
 10
20.0
 20
146.83333335
 30
0.0
 11
15.0
 21
146.83333335
 31
0.0
  0
LINE
  5
BE
330
73
100
AcDbEntity
  8
0
  6
Continuous
 62
     7
370
     0
100
AcDbLine
 10
20.0
 20
192.44444446
 30
0.0
 11
15.0
 21
192.44444446
 31
0.0
  0
LINE
  5
BF
330
73
100
AcDbEntity
  8
0
  6
Continuous
 62
     7
370
     0
100
AcDbLine
 10
20.0
 20
238.05555557
 30
0.0
 11
15.0
 21
238.05555557
 31
0.0
  0
LINE
  5
C0
330
73
100
AcDbEntity
  8
0
  6
Continuous
 62
     7
370
     0
100
AcDbLine
 10
20.0
 20
283.66666668
 30
0.0
 11
15.0
 21
283.66666668
 31
0.0
  0
LINE
  5
C1
330
73
100
AcDbEntity
  8
0
  6
Continuous
 62
     7
370
     0
100
AcDbLine
 10
20.0
 20
329.27777779
 30
0.0
 11
15.0
 21
329.27777779
 31
0.0
  0
LINE
  5
C2
330
73
100
AcDbEntity
  8
0
  6
Continuous
 62
     7
370
     0
100
AcDbLine
 10
20.0
 20
374.8888889
 30
0.0
 11
15.0
 21
374.8888889
 31
0.0
  0
LINE
  5
C3
330
73
100
AcDbEntity
  8
0
  6
Continuous
 62
     7
370
     0
100
AcDbLine
 10
20.0
 20
420.50000001
 30
0.0
 11
15.0
 21
420.50000001
 31
0.0
  0
LINE
  5
C4
330
73
100
AcDbEntity
  8
0
  6
Continuous
 62
     7
370
     0
100
AcDbLine
 10
20.0
 20
466.11111112
 30
0.0
 11
15.0
 21
466.11111112
 31
0.0
  0
LINE
  5
C5
330
73
100
AcDbEntity
  8
0
  6
Continuous
 62
     7
370
     0
100
AcDbLine
 10
20.0
 20
511.72222223
 30
0.0
 11
15.0
 21
511.72222223
 31
0.0
  0
LINE
  5
C6
330
73
100
AcDbEntity
  8
0
  6
Continuous
 62
     7
370
     0
100
AcDbLine
 10
20.0
 20
557.33333334
 30
0.0
 11
15.0
 21
557.33333334
 31
0.0
  0
LINE
  5
C7
330
73
100
AcDbEntity
  8
0
  6
Continuous
 62
     7
370
     0
100
AcDbLine
 10
20.0
 20
602.94444445
 30
0.0
 11
15.0
 21
602.94444445
 31
0.0
  0
LINE
  5
C8
330
73
100
AcDbEntity
  8
0
  6
Continuous
 62
     7
370
     0
100
AcDbLine
 10
20.0
 20
648.55555556
 30
0.0
 11
15.0
 21
648.55555556
 31
0.0
  0
LINE
  5
C9
330
73
100
AcDbEntity
  8
0
  6
Continuous
 62
     7
370
     0
100
AcDbLine
 10
20.0
 20
694.16666667
 30
0.0
 11
15.0
 21
694.16666667
 31
0.0
  0
LINE
  5
CA
330
73
100
AcDbEntity
  8
0
  6
Continuous
 62
     7
370
     0
100
AcDbLine
 10
20.0
 20
739.77777778
 30
0.0
 11
15.0
 21
739.77777778
 31
0.0
  0
LINE
  5
CB
330
73
100
AcDbEntity
  8
0
  6
Continuous
 62
     7
370
     0
100
AcDbLine
 10
1179.0
 20
830.9999999407
 30
0.0
 11
1179.0
 21
836.0
 31
0.0
  0
LINE
  5
CC
330
73
100
AcDbEntity
  8
0
  6
Continuous
 62
     7
370
     0
100
AcDbLine
 10
1130.708333318
 20
830.9999999407
 30
0.0
 11
1130.708333318
 21
836.0
 31
0.0
  0
LINE
  5
CD
330
73
100
AcDbEntity
  8
0
  6
Continuous
 62
     7
370
     0
100
AcDbLine
 10
1082.416666652
 20
830.9999999407
 30
0.0
 11
1082.416666652
 21
836.0
 31
0.0
  0
LINE
  5
CE
330
73
100
AcDbEntity
  8
0
  6
Continuous
 62
     7
370
     0
100
AcDbLine
 10
1034.124999986
 20
830.9999999407
 30
0.0
 11
1034.124999986
 21
836.0
 31
0.0
  0
LINE
  5
CF
330
73
100
AcDbEntity
  8
0
  6
Continuous
 62
     7
370
     0
100
AcDbLine
 10
985.83333332
 20
830.9999999407
 30
0.0
 11
985.83333332
 21
836.0
 31
0.0
  0
LINE
  5
D0
330
73
100
AcDbEntity
  8
0
  6
Continuous
 62
     7
370
     0
100
AcDbLine
 10
937.541666654
 20
830.9999999407
 30
0.0
 11
937.541666654
 21
836.0
 31
0.0
  0
LINE
  5
D1
330
73
100
AcDbEntity
  8
0
  6
Continuous
 62
     7
370
     0
100
AcDbLine
 10
889.249999988
 20
830.9999999407
 30
0.0
 11
889.249999988
 21
836.0
 31
0.0
  0
LINE
  5
D2
330
73
100
AcDbEntity
  8
0
  6
Continuous
 62
     7
370
     0
100
AcDbLine
 10
840.958333322
 20
830.9999999407
 30
0.0
 11
840.958333322
 21
836.0
 31
0.0
  0
LINE
  5
D3
330
73
100
AcDbEntity
  8
0
  6
Continuous
 62
     7
370
     0
100
AcDbLine
 10
792.666666656
 20
830.9999999407
 30
0.0
 11
792.666666656
 21
836.0
 31
0.0
  0
LINE
  5
D4
330
73
100
AcDbEntity
  8
0
  6
Continuous
 62
     7
370
     0
100
AcDbLine
 10
744.37499999
 20
830.9999999407
 30
0.0
 11
744.37499999
 21
836.0
 31
0.0
  0
LINE
  5
D5
330
73
100
AcDbEntity
  8
0
  6
Continuous
 62
     7
370
     0
100
AcDbLine
 10
696.083333324
 20
830.9999999407
 30
0.0
 11
696.083333324
 21
836.0
 31
0.0
  0
LINE
  5
D6
330
73
100
AcDbEntity
  8
0
  6
Continuous
 62
     7
370
     0
100
AcDbLine
 10
647.791666658
 20
830.9999999407
 30
0.0
 11
647.791666658
 21
836.0
 31
0.0
  0
LINE
  5
D7
330
73
100
AcDbEntity
  8
0
  6
Continuous
 62
     7
370
     0
100
AcDbLine
 10
599.499999992
 20
830.9999999407
 30
0.0
 11
599.499999992
 21
836.0
 31
0.0
  0
LINE
  5
D8
330
73
100
AcDbEntity
  8
0
  6
Continuous
 62
     7
370
     0
100
AcDbLine
 10
551.208333326
 20
830.9999999407
 30
0.0
 11
551.208333326
 21
836.0
 31
0.0
  0
LINE
  5
D9
330
73
100
AcDbEntity
  8
0
  6
Continuous
 62
     7
370
     0
100
AcDbLine
 10
502.91666666
 20
830.9999999407
 30
0.0
 11
502.91666666
 21
836.0
 31
0.0
  0
LINE
  5
DA
330
73
100
AcDbEntity
  8
0
  6
Continuous
 62
     7
370
     0
100
AcDbLine
 10
454.624999994
 20
830.9999999407
 30
0.0
 11
454.624999994
 21
836.0
 31
0.0
  0
LINE
  5
DB
330
73
100
AcDbEntity
  8
0
  6
Continuous
 62
     7
370
     0
100
AcDbLine
 10
406.333333328
 20
830.9999999407
 30
0.0
 11
406.333333328
 21
836.0
 31
0.0
  0
LINE
  5
DC
330
73
100
AcDbEntity
  8
0
  6
Continuous
 62
     7
370
     0
100
AcDbLine
 10
358.041666662
 20
830.9999999407
 30
0.0
 11
358.041666662
 21
836.0
 31
0.0
  0
LINE
  5
DD
330
73
100
AcDbEntity
  8
0
  6
Continuous
 62
     7
370
     0
100
AcDbLine
 10
309.749999996
 20
830.9999999407
 30
0.0
 11
309.749999996
 21
836.0
 31
0.0
  0
LINE
  5
DE
330
73
100
AcDbEntity
  8
0
  6
Continuous
 62
     7
370
     0
100
AcDbLine
 10
261.45833333
 20
830.9999999407
 30
0.0
 11
261.45833333
 21
836.0
 31
0.0
  0
LINE
  5
DF
330
73
100
AcDbEntity
  8
0
  6
Continuous
 62
     7
370
     0
100
AcDbLine
 10
213.166666664
 20
830.9999999407
 30
0.0
 11
213.166666664
 21
836.0
 31
0.0
  0
LINE
  5
E0
330
73
100
AcDbEntity
  8
0
  6
Continuous
 62
     7
370
     0
100
AcDbLine
 10
164.874999998
 20
830.9999999407
 30
0.0
 11
164.874999998
 21
836.0
 31
0.0
  0
LINE
  5
E1
330
73
100
AcDbEntity
  8
0
  6
Continuous
 62
     7
370
     0
100
AcDbLine
 10
116.583333332
 20
830.9999999407
 30
0.0
 11
116.583333332
 21
836.0
 31
0.0
  0
LINE
  5
E2
330
73
100
AcDbEntity
  8
0
  6
Continuous
 62
     7
370
     0
100
AcDbLine
 10
1169.0
 20
10.0
 30
0.0
 11
1169.0
 21
5.0
 31
0.0
  0
LINE
  5
E3
330
73
100
AcDbEntity
  8
0
  6
Continuous
 62
     7
370
     0
100
AcDbLine
 10
1159.0
 20
10.0
 30
0.0
 11
1159.0
 21
5.0
 31
0.0
  0
LINE
  5
E4
330
73
100
AcDbEntity
  8
0
  6
Continuous
 62
     7
370
     0
100
AcDbLine
 10
1149.0
 20
10.0
 30
0.0
 11
1149.0
 21
5.0
 31
0.0
  0
LINE
  5
E5
330
73
100
AcDbEntity
  8
0
  6
Continuous
 62
     7
370
     0
100
AcDbLine
 10
1139.0
 20
10.0
 30
0.0
 11
1139.0
 21
5.0
 31
0.0
  0
LINE
  5
E6
330
73
100
AcDbEntity
  8
0
  6
Continuous
 62
     7
370
     0
100
AcDbLine
 10
1129.0
 20
10.0
 30
0.0
 11
1129.0
 21
5.0
 31
0.0
  0
LINE
  5
E7
330
73
100
AcDbEntity
  8
0
  6
Continuous
 62
     7
370
     0
100
AcDbLine
 10
1119.0
 20
10.0
 30
0.0
 11
1119.0
 21
5.0
 31
0.0
  0
LINE
  5
E8
330
73
100
AcDbEntity
  8
0
  6
Continuous
 62
     7
370
     0
100
AcDbLine
 10
1109.0
 20
10.0
 30
0.0
 11
1109.0
 21
5.0
 31
0.0
  0
LINE
  5
E9
330
73
100
AcDbEntity
  8
0
  6
Continuous
 62
     7
370
     0
100
AcDbLine
 10
1099.0
 20
10.0
 30
0.0
 11
1099.0
 21
5.0
 31
0.0
  0
LINE
  5
EA
330
73
100
AcDbEntity
  8
0
  6
Continuous
 62
     7
370
     0
100
AcDbLine
 10
1089.0
 20
10.0
 30
0.0
 11
1089.0
 21
5.0
 31
0.0
  0
LINE
  5
EB
330
73
100
AcDbEntity
  8
0
  6
Continuous
 62
     7
370
     0
100
AcDbLine
 10
1079.0
 20
10.0
 30
0.0
 11
1079.0
 21
5.0
 31
0.0
  0
LINE
  5
EC
330
73
100
AcDbEntity
  8
0
  6
Continuous
 62
     7
370
     0
100
AcDbLine
 10
20.0
 20
785.38888889
 30
0.0
 11
15.0
 21
785.38888889
 31
0.0
  0
LINE
  5
ED
330
73
100
AcDbEntity
  8
0
  6
Continuous
 62
     7
370
     0
100
AcDbLine
 10
68.291666666
 20
830.9999999407
 30
0.0
 11
68.291666666
 21
836.0
 31
0.0
  0
LINE
  5
EE
330
73
100
AcDbEntity
  8
0
  6
Continuous
 62
     7
370
     0
100
AcDbLine
 10
1183.9999314379
 20
5.0
 30
0.0
 11
1183.9999314379
 21
836.0
 31
0.0
  0
LINE
  5
EF
330
73
100
AcDbEntity
  8
0
  6
Continuous
 62
     7
370
     0
100
AcDbLine
 10
1183.9999314379
 20
5.0
 30
0.0
 11
15.0
 21
5.0
 31
0.0
  0
LINE
  5
F0
330
73
100
AcDbEntity
  8
0
  6
Continuous
 62
     7
370
     0
100
AcDbLine
 10
15.0
 20
836.0
 30
0.0
 11
15.0
 21
5.0
 31
0.0
  0
LINE
  5
F1
330
73
100
AcDbEntity
  8
0
  6
Continuous
 62
     7
370
     0
100
AcDbLine
 10
1179.0
 20
830.9999999407
 30
0.0
 11
1179.0
 21
836.0
 31
0.0
  0
LINE
  5
F2
330
73
100
AcDbEntity
  8
0
  6
Continuous
 62
     7
370
     0
100
AcDbLine
 10
1179.0
 20
10.0
 30
0.0
 11
1179.0
 21
830.9999999407
 31
0.0
  0
LINE
  5
F3
330
73
100
AcDbEntity
  8
0
  6
Continuous
 62
     7
370
     0
100
AcDbLine
 10
1179.0
 20
5.0
 30
0.0
 11
1179.0
 21
10.0
 31
0.0
  0
LINE
  5
F4
330
73
100
AcDbEntity
  8
0
  6
Continuous
 62
     7
370
     0
100
AcDbLine
 10
20.0
 20
10.0
 30
0.0
 11
15.0
 21
10.0
 31
0.0
  0
LINE
  5
F5
330
73
100
AcDbEntity
  8
0
  6
Continuous
 62
     7
370
     0
100
AcDbLine
 10
1179.0
 20
10.0
 30
0.0
 11
20.0
 21
10.0
 31
0.0
  0
LINE
  5
F6
330
73
100
AcDbEntity
  8
0
  6
Continuous
 62
     7
370
     0
100
AcDbLine
 10
1183.9999314379
 20
10.0
 30
0.0
 11
1179.0
 21
10.0
 31
0.0
  0
LINE
  5
F7
330
73
100
AcDbEntity
  8
0
  6
Continuous
 62
     7
370
     0
100
AcDbLine
 10
20.0
 20
10.0
 30
0.0
 11
20.0
 21
5.0
 31
0.0
  0
LINE
  5
F8
330
73
100
AcDbEntity
  8
0
  6
Continuous
 62
     7
370
     0
100
AcDbLine
 10
20.0
 20
830.9999999407
 30
0.0
 11
20.0
 21
10.0
 31
0.0
  0
LINE
  5
F9
330
73
100
AcDbEntity
  8
0
  6
Continuous
 62
     7
370
     0
100
AcDbLine
 10
20.0
 20
836.0
 30
0.0
 11
20.0
 21
830.9999999407
 31
0.0
  0
LINE
  5
FA
330
73
100
AcDbEntity
  8
0
  6
Continuous
 62
     7
370
     0
100
AcDbLine
 10
1179.0
 20
830.9999999407
 30
0.0
 11
1183.9999314379
 21
830.9999999407
 31
0.0
  0
LINE
  5
FB
330
73
100
AcDbEntity
  8
0
  6
Continuous
 62
     7
370
     0
100
AcDbLine
 10
20.0
 20
830.9999999407
 30
0.0
 11
1179.0
 21
830.9999999407
 31
0.0
  0
LINE
  5
FC
330
73
100
AcDbEntity
  8
0
  6
Continuous
 62
     7
370
     0
100
AcDbLine
 10
15.0
 20
830.9999999407
 30
0.0
 11
20.0
 21
830.9999999407
 31
0.0
  0
LINE
  5
FD
330
73
100
AcDbEntity
  8
0
  6
Continuous
 62
     7
370
     0
100
AcDbLine
 10
15.0
 20
836.0
 30
0.0
 11
1183.9999314379
 21
836.0
 31
0.0
  0
LINE
  5
FE
330
73
100
AcDbEntity
  8
0
  6
Continuous
 62
     7
370
     0
100
AcDbLine
 10
0.0
 20
841.0
 30
0.0
 11
1189.0
 21
841.0
 31
0.0
  0
LINE
  5
FF
330
73
100
AcDbEntity
  8
0
  6
Continuous
 62
     7
370
     0
100
AcDbLine
 10
1189.0
 20
0.0
 30
0.0
 11
1189.0
 21
841.0
 31
0.0
  0
LINE
  5
100
330
73
100
AcDbEntity
  8
0
  6
Continuous
 62
     7
370
     0
100
AcDbLine
 10
1189.0
 20
0.0
 30
0.0
 11
0.0
 21
0.0
 31
0.0
  0
LINE
  5
101
330
73
100
AcDbEntity
  8
0
  6
Continuous
 62
     7
370
     0
100
AcDbLine
 10
0.0
 20
841.0
 30
0.0
 11
0.0
 21
0.0
 31
0.0
  0
MTEXT
  5
103
330
73
100
AcDbEntity
  8
0
  6
Continuous
 62
     7
370
     0
100
AcDbMText
 10
43.2001861591
 20
834.6449155598
 30
0.0
 40
3.0
 41
0.0
 71
     1
 72
     1
  1
1
  7
SLDTEXTSTYLE0
 73
     1
 44
1.0
  0
MTEXT
  5
104
330
73
100
AcDbEntity
  8
0
  6
Continuous
 62
     7
370
     0
100
AcDbMText
 10
16.3587006522
 20
809.3393600048
 30
0.0
 40
3.0
 41
0.0
 71
     1
 72
     1
  1
A
  7
SLDTEXTSTYLE0
 73
     1
 44
1.0
  0
MTEXT
  5
105
330
73
100
AcDbEntity
  8
0
  6
Continuous
 62
     7
370
     0
100
AcDbMText
 10
91.4918528251
 20
834.6449155598
 30
0.0
 40
3.0
 41
0.0
 71
     1
 72
     1
  1
2
  7
SLDTEXTSTYLE0
 73
     1
 44
1.0
  0
MTEXT
  5
106
330
73
100
AcDbEntity
  8
0
  6
Continuous
 62
     7
370
     0
100
AcDbMText
 10
139.7835194911
 20
834.6449155598
 30
0.0
 40
3.0
 41
0.0
 71
     1
 72
     1
  1
3
  7
SLDTEXTSTYLE0
 73
     1
 44
1.0
  0
MTEXT
  5
107
330
73
100
AcDbEntity
  8
0
  6
Continuous
 62
     7
370
     0
100
AcDbMText
 10
188.0751861571
 20
834.6449155598
 30
0.0
 40
3.0
 41
0.0
 71
     1
 72
     1
  1
4
  7
SLDTEXTSTYLE0
 73
     1
 44
1.0
  0
MTEXT
  5
108
330
73
100
AcDbEntity
  8
0
  6
Continuous
 62
     7
370
     0
100
AcDbMText
 10
236.3668528231
 20
834.6449155598
 30
0.0
 40
3.0
 41
0.0
 71
     1
 72
     1
  1
5
  7
SLDTEXTSTYLE0
 73
     1
 44
1.0
  0
MTEXT
  5
109
330
73
100
AcDbEntity
  8
0
  6
Continuous
 62
     7
370
     0
100
AcDbMText
 10
284.6585194891
 20
834.6449155598
 30
0.0
 40
3.0
 41
0.0
 71
     1
 72
     1
  1
6
  7
SLDTEXTSTYLE0
 73
     1
 44
1.0
  0
MTEXT
  5
10A
330
73
100
AcDbEntity
  8
0
  6
Continuous
 62
     7
370
     0
100
AcDbMText
 10
332.9501861551
 20
834.6449155598
 30
0.0
 40
3.0
 41
0.0
 71
     1
 72
     1
  1
7
  7
SLDTEXTSTYLE0
 73
     1
 44
1.0
  0
MTEXT
  5
10B
330
73
100
AcDbEntity
  8
0
  6
Continuous
 62
     7
370
     0
100
AcDbMText
 10
381.2418528211
 20
834.6449155598
 30
0.0
 40
3.0
 41
0.0
 71
     1
 72
     1
  1
8
  7
SLDTEXTSTYLE0
 73
     1
 44
1.0
  0
MTEXT
  5
10C
330
73
100
AcDbEntity
  8
0
  6
Continuous
 62
     7
370
     0
100
AcDbMText
 10
429.5335194871
 20
834.6449155598
 30
0.0
 40
3.0
 41
0.0
 71
     1
 72
     1
  1
9
  7
SLDTEXTSTYLE0
 73
     1
 44
1.0
  0
MTEXT
  5
10D
330
73
100
AcDbEntity
  8
0
  6
Continuous
 62
     7
370
     0
100
AcDbMText
 10
476.8795339792
 20
834.6449155598
 30
0.0
 40
3.0
 41
0.0
 71
     1
 72
     1
  1
10
  7
SLDTEXTSTYLE0
 73
     1
 44
1.0
  0
MTEXT
  5
10E
330
73
100
AcDbEntity
  8
0
  6
Continuous
 62
     7
370
     0
100
AcDbMText
 10
525.1712006452
 20
834.6449155598
 30
0.0
 40
3.0
 41
0.0
 71
     1
 72
     1
  1
11
  7
SLDTEXTSTYLE0
 73
     1
 44
1.0
  0
MTEXT
  5
10F
330
73
100
AcDbEntity
  8
0
  6
Continuous
 62
     7
370
     0
100
AcDbMText
 10
573.4628673112
 20
834.6449155598
 30
0.0
 40
3.0
 41
0.0
 71
     1
 72
     1
  1
12
  7
SLDTEXTSTYLE0
 73
     1
 44
1.0
  0
MTEXT
  5
110
330
73
100
AcDbEntity
  8
0
  6
Continuous
 62
     7
370
     0
100
AcDbMText
 10
621.7545339772
 20
834.6449155598
 30
0.0
 40
3.0
 41
0.0
 71
     1
 72
     1
  1
13
  7
SLDTEXTSTYLE0
 73
     1
 44
1.0
  0
MTEXT
  5
111
330
73
100
AcDbEntity
  8
0
  6
Continuous
 62
     7
370
     0
100
AcDbMText
 10
670.0462006432
 20
834.6449155598
 30
0.0
 40
3.0
 41
0.0
 71
     1
 72
     1
  1
14
  7
SLDTEXTSTYLE0
 73
     1
 44
1.0
  0
MTEXT
  5
112
330
73
100
AcDbEntity
  8
0
  6
Continuous
 62
     7
370
     0
100
AcDbMText
 10
718.3378673092
 20
834.6449155598
 30
0.0
 40
3.0
 41
0.0
 71
     1
 72
     1
  1
15
  7
SLDTEXTSTYLE0
 73
     1
 44
1.0
  0
MTEXT
  5
113
330
73
100
AcDbEntity
  8
0
  6
Continuous
 62
     7
370
     0
100
AcDbMText
 10
761.6295339752
 20
834.6449155598
 30
0.0
 40
3.0
 41
0.0
 71
     1
 72
     1
  1
16
  7
SLDTEXTSTYLE0
 73
     1
 44
1.0
  0
MTEXT
  5
114
330
73
100
AcDbEntity
  8
0
  6
Continuous
 62
     7
370
     0
100
AcDbMText
 10
814.9212006412
 20
834.6449155598
 30
0.0
 40
3.0
 41
0.0
 71
     1
 72
     1
  1
17
  7
SLDTEXTSTYLE0
 73
     1
 44
1.0
  0
MTEXT
  5
115
330
73
100
AcDbEntity
  8
0
  6
Continuous
 62
     7
370
     0
100
AcDbMText
 10
863.2128673072
 20
834.6449155598
 30
0.0
 40
3.0
 41
0.0
 71
     1
 72
     1
  1
18
  7
SLDTEXTSTYLE0
 73
     1
 44
1.0
  0
MTEXT
  5
116
330
73
100
AcDbEntity
  8
0
  6
Continuous
 62
     7
370
     0
100
AcDbMText
 10
911.5045339732
 20
834.6449155598
 30
0.0
 40
3.0
 41
0.0
 71
     1
 72
     1
  1
19
  7
SLDTEXTSTYLE0
 73
     1
 44
1.0
  0
MTEXT
  5
117
330
73
100
AcDbEntity
  8
0
  6
Continuous
 62
     7
370
     0
100
AcDbMText
 10
959.7962006392
 20
834.6449155598
 30
0.0
 40
3.0
 41
0.0
 71
     1
 72
     1
  1
20
  7
SLDTEXTSTYLE0
 73
     1
 44
1.0
  0
MTEXT
  5
118
330
73
100
AcDbEntity
  8
0
  6
Continuous
 62
     7
370
     0
100
AcDbMText
 10
1008.0878673052
 20
834.6449155598
 30
0.0
 40
3.0
 41
0.0
 71
     1
 72
     1
  1
21
  7
SLDTEXTSTYLE0
 73
     1
 44
1.0
  0
MTEXT
  5
119
330
73
100
AcDbEntity
  8
0
  6
Continuous
 62
     7
370
     0
100
AcDbMText
 10
1056.3795339712
 20
834.6449155598
 30
0.0
 40
3.0
 41
0.0
 71
     1
 72
     1
  1
22
  7
SLDTEXTSTYLE0
 73
     1
 44
1.0
  0
MTEXT
  5
11A
330
73
100
AcDbEntity
  8
0
  6
Continuous
 62
     7
370
     0
100
AcDbMText
 10
1104.6712006372
 20
834.6449155598
 30
0.0
 40
3.0
 41
0.0
 71
     1
 72
     1
  1
23
  7
SLDTEXTSTYLE0
 73
     1
 44
1.0
  0
MTEXT
  5
11B
330
73
100
AcDbEntity
  8
0
  6
Continuous
 62
     7
370
     0
100
AcDbMText
 10
1152.9628673032
 20
834.6449155598
 30
0.0
 40
3.0
 41
0.0
 71
     1
 72
     1
  1
24
  7
SLDTEXTSTYLE0
 73
     1
 44
1.0
  0
MTEXT
  5
11C
330
73
100
AcDbEntity
  8
0
  6
Continuous
 62
     7
370
     0
100
AcDbMText
 10
16.3587006522
 20
763.7282488948
 30
0.0
 40
3.0
 41
0.0
 71
     1
 72
     1
  1
B
  7
SLDTEXTSTYLE0
 73
     1
 44
1.0
  0
MTEXT
  5
11D
330
73
100
AcDbEntity
  8
0
  6
Continuous
 62
     7
370
     0
100
AcDbMText
 10
16.2934832609
 20
718.1171377848
 30
0.0
 40
3.0
 41
0.0
 71
     1
 72
     1
  1
C
  7
SLDTEXTSTYLE0
 73
     1
 44
1.0
  0
MTEXT
  5
11E
330
73
100
AcDbEntity
  8
0
  6
Continuous
 62
     7
370
     0
100
AcDbMText
 10
16.2934832609
 20
672.5060266748
 30
0.0
 40
3.0
 41
0.0
 71
     1
 72
     1
  1
D
  7
SLDTEXTSTYLE0
 73
     1
 44
1.0
  0
MTEXT
  5
11F
330
73
100
AcDbEntity
  8
0
  6
Continuous
 62
     7
370
     0
100
AcDbMText
 10
16.3587006522
 20
626.8949155648
 30
0.0
 40
3.0
 41
0.0
 71
     1
 72
     1
  1
E
  7
SLDTEXTSTYLE0
 73
     1
 44
1.0
  0
MTEXT
  5
120
330
73
100
AcDbEntity
  8
0
  6
Continuous
 62
     7
370
     0
100
AcDbMText
 10
16.4565267391
 20
581.2838044548
 30
0.0
 40
3.0
 41
0.0
 71
     1
 72
     1
  1
F
  7
SLDTEXTSTYLE0
 73
     1
 44
1.0
  0
MTEXT
  5
121
330
73
100
AcDbEntity
  8
0
  6
Continuous
 62
     7
370
     0
100
AcDbMText
 10
16.1956571739
 20
535.6726933448
 30
0.0
 40
3.0
 41
0.0
 71
     1
 72
     1
  1
G
  7
SLDTEXTSTYLE0
 73
     1
 44
1.0
  0
MTEXT
  5
122
330
73
100
AcDbEntity
  8
0
  6
Continuous
 62
     7
370
     0
100
AcDbMText
 10
16.2934832609
 20
490.0615822348
 30
0.0
 40
3.0
 41
0.0
 71
     1
 72
     1
  1
H
  7
SLDTEXTSTYLE0
 73
     1
 44
1.0
  0
MTEXT
  5
123
330
73
100
AcDbEntity
  8
0
  6
Continuous
 62
     7
370
     0
100
AcDbMText
 10
17.0434832609
 20
444.4504711248
 30
0.0
 40
3.0
 41
0.0
 71
     1
 72
     1
  1
I
  7
SLDTEXTSTYLE0
 73
     1
 44
1.0
  0
MTEXT
  5
124
330
73
100
AcDbEntity
  8
0
  6
Continuous
 62
     7
370
     0
100
AcDbMText
 10
16.652178913
 20
398.8393600148
 30
0.0
 40
3.0
 41
0.0
 71
     1
 72
     1
  1
J
  7
SLDTEXTSTYLE0
 73
     1
 44
1.0
  0
MTEXT
  5
125
330
73
100
AcDbEntity
  8
0
  6
Continuous
 62
     7
370
     0
100
AcDbMText
 10
16.3587006522
 20
353.2282489048
 30
0.0
 40
3.0
 41
0.0
 71
     1
 72
     1
  1
K
  7
SLDTEXTSTYLE0
 73
     1
 44
1.0
  0
MTEXT
  5
126
330
73
100
AcDbEntity
  8
0
  6
Continuous
 62
     7
370
     0
100
AcDbMText
 10
16.5543528261
 20
307.6171377948
 30
0.0
 40
3.0
 41
0.0
 71
     1
 72
     1
  1
L
  7
SLDTEXTSTYLE0
 73
     1
 44
1.0
  0
MTEXT
  5
127
330
73
100
AcDbEntity
  8
0
  6
Continuous
 62
     7
370
     0
100
AcDbMText
 10
16.097831087
 20
262.0060266848
 30
0.0
 40
3.0
 41
0.0
 71
     1
 72
     1
  1
M
  7
SLDTEXTSTYLE0
 73
     1
 44
1.0
  0
MTEXT
  5
128
330
73
100
AcDbEntity
  8
0
  6
Continuous
 62
     7
370
     0
100
AcDbMText
 10
16.2934832609
 20
216.3949155748
 30
0.0
 40
3.0
 41
0.0
 71
     1
 72
     1
  1
N
  7
SLDTEXTSTYLE0
 73
     1
 44
1.0
  0
MTEXT
  5
129
330
73
100
AcDbEntity
  8
0
  6
Continuous
 62
     7
370
     0
100
AcDbMText
 10
16.1956571739
 20
170.7838044648
 30
0.0
 40
3.0
 41
0.0
 71
     1
 72
     1
  1
O
  7
SLDTEXTSTYLE0
 73
     1
 44
1.0
  0
MTEXT
  5
12A
330
73
100
AcDbEntity
  8
0
  6
Continuous
 62
     7
370
     0
100
AcDbMText
 10
16.3587006522
 20
125.1726933548
 30
0.0
 40
3.0
 41
0.0
 71
     1
 72
     1
  1
P
  7
SLDTEXTSTYLE0
 73
     1
 44
1.0
  0
MTEXT
  5
12B
330
73
100
AcDbEntity
  8
0
  6
Continuous
 62
     7
370
     0
100
AcDbMText
 10
16.1956571739
 20
79.5615822448
 30
0.0
 40
3.0
 41
0.0
 71
     1
 72
     1
  1
Q
  7
SLDTEXTSTYLE0
 73
     1
 44
1.0
  0
MTEXT
  5
12C
330
73
100
AcDbEntity
  8
0
  6
Continuous
 62
     7
370
     0
100
AcDbMText
 10
16.2934832609
 20
33.9504711348
 30
0.0
 40
3.0
 41
0.0
 71
     1
 72
     1
  1
R
  7
SLDTEXTSTYLE0
 73
     1
 44
1.0
  0
MTEXT
  5
12D
330
73
100
AcDbEntity
  8
0
  6
Continuous
 62
     7
370
     0
100
AcDbMText
 10
1180.3587006522
 20
809.3393600048
 30
0.0
 40
3.0
 41
0.0
 71
     1
 72
     1
  1
A
  7
SLDTEXTSTYLE0
 73
     1
 44
1.0
  0
MTEXT
  5
12E
330
73
100
AcDbEntity
  8
0
  6
Continuous
 62
     7
370
     0
100
AcDbMText
 10
1180.3587006522
 20
763.7282488948
 30
0.0
 40
3.0
 41
0.0
 71
     1
 72
     1
  1
B
  7
SLDTEXTSTYLE0
 73
     1
 44
1.0
  0
MTEXT
  5
12F
330
73
100
AcDbEntity
  8
0
  6
Continuous
 62
     7
370
     0
100
AcDbMText
 10
1180.2934832609
 20
718.1171377848
 30
0.0
 40
3.0
 41
0.0
 71
     1
 72
     1
  1
C
  7
SLDTEXTSTYLE0
 73
     1
 44
1.0
  0
MTEXT
  5
130
330
73
100
AcDbEntity
  8
0
  6
Continuous
 62
     7
370
     0
100
AcDbMText
 10
1180.2934832609
 20
672.5060266748
 30
0.0
 40
3.0
 41
0.0
 71
     1
 72
     1
  1
D
  7
SLDTEXTSTYLE0
 73
     1
 44
1.0
  0
MTEXT
  5
131
330
73
100
AcDbEntity
  8
0
  6
Continuous
 62
     7
370
     0
100
AcDbMText
 10
1180.3587006522
 20
626.8949155648
 30
0.0
 40
3.0
 41
0.0
 71
     1
 72
     1
  1
E
  7
SLDTEXTSTYLE0
 73
     1
 44
1.0
  0
MTEXT
  5
132
330
73
100
AcDbEntity
  8
0
  6
Continuous
 62
     7
370
     0
100
AcDbMText
 10
1180.4565267391
 20
581.2838044548
 30
0.0
 40
3.0
 41
0.0
 71
     1
 72
     1
  1
F
  7
SLDTEXTSTYLE0
 73
     1
 44
1.0
  0
MTEXT
  5
133
330
73
100
AcDbEntity
  8
0
  6
Continuous
 62
     7
370
     0
100
AcDbMText
 10
1180.1956571739
 20
535.6726933448
 30
0.0
 40
3.0
 41
0.0
 71
     1
 72
     1
  1
G
  7
SLDTEXTSTYLE0
 73
     1
 44
1.0
  0
MTEXT
  5
134
330
73
100
AcDbEntity
  8
0
  6
Continuous
 62
     7
370
     0
100
AcDbMText
 10
1180.2934832609
 20
490.0615822348
 30
0.0
 40
3.0
 41
0.0
 71
     1
 72
     1
  1
H
  7
SLDTEXTSTYLE0
 73
     1
 44
1.0
  0
MTEXT
  5
135
330
73
100
AcDbEntity
  8
0
  6
Continuous
 62
     7
370
     0
100
AcDbMText
 10
1181.0434832609
 20
444.4504711248
 30
0.0
 40
3.0
 41
0.0
 71
     1
 72
     1
  1
I
  7
SLDTEXTSTYLE0
 73
     1
 44
1.0
  0
MTEXT
  5
136
330
73
100
AcDbEntity
  8
0
  6
Continuous
 62
     7
370
     0
100
AcDbMText
 10
1180.652178913
 20
398.8393600148
 30
0.0
 40
3.0
 41
0.0
 71
     1
 72
     1
  1
J
  7
SLDTEXTSTYLE0
 73
     1
 44
1.0
  0
MTEXT
  5
137
330
73
100
AcDbEntity
  8
0
  6
Continuous
 62
     7
370
     0
100
AcDbMText
 10
1180.3587006522
 20
353.2282489048
 30
0.0
 40
3.0
 41
0.0
 71
     1
 72
     1
  1
K
  7
SLDTEXTSTYLE0
 73
     1
 44
1.0
  0
MTEXT
  5
138
330
73
100
AcDbEntity
  8
0
  6
Continuous
 62
     7
370
     0
100
AcDbMText
 10
1180.5543528261
 20
307.6171377948
 30
0.0
 40
3.0
 41
0.0
 71
     1
 72
     1
  1
L
  7
SLDTEXTSTYLE0
 73
     1
 44
1.0
  0
MTEXT
  5
139
330
73
100
AcDbEntity
  8
0
  6
Continuous
 62
     7
370
     0
100
AcDbMText
 10
1180.097831087
 20
262.0060266848
 30
0.0
 40
3.0
 41
0.0
 71
     1
 72
     1
  1
M
  7
SLDTEXTSTYLE0
 73
     1
 44
1.0
  0
MTEXT
  5
13A
330
73
100
AcDbEntity
  8
0
  6
Continuous
 62
     7
370
     0
100
AcDbMText
 10
1180.2934832609
 20
216.3949155748
 30
0.0
 40
3.0
 41
0.0
 71
     1
 72
     1
  1
N
  7
SLDTEXTSTYLE0
 73
     1
 44
1.0
  0
MTEXT
  5
13B
330
73
100
AcDbEntity
  8
0
  6
Continuous
 62
     7
370
     0
100
AcDbMText
 10
1180.1956571739
 20
170.7838044648
 30
0.0
 40
3.0
 41
0.0
 71
     1
 72
     1
  1
O
  7
SLDTEXTSTYLE0
 73
     1
 44
1.0
  0
MTEXT
  5
13C
330
73
100
AcDbEntity
  8
0
  6
Continuous
 62
     7
370
     0
100
AcDbMText
 10
1180.3587006522
 20
125.1726933548
 30
0.0
 40
3.0
 41
0.0
 71
     1
 72
     1
  1
P
  7
SLDTEXTSTYLE0
 73
     1
 44
1.0
  0
MTEXT
  5
13D
330
73
100
AcDbEntity
  8
0
  6
Continuous
 62
     7
370
     0
100
AcDbMText
 10
1180.1956571739
 20
79.5615822448
 30
0.0
 40
3.0
 41
0.0
 71
     1
 72
     1
  1
Q
  7
SLDTEXTSTYLE0
 73
     1
 44
1.0
  0
MTEXT
  5
13E
330
73
100
AcDbEntity
  8
0
  6
Continuous
 62
     7
370
     0
100
AcDbMText
 10
1180.2934832609
 20
33.9504711348
 30
0.0
 40
3.0
 41
0.0
 71
     1
 72
     1
  1
R
  7
SLDTEXTSTYLE0
 73
     1
 44
1.0
  0
MTEXT
  5
13F
330
73
100
AcDbEntity
  8
0
  6
Continuous
 62
     7
370
     0
100
AcDbMText
 10
43.2001861591
 20
8.6449155598
 30
0.0
 40
3.0
 41
0.0
 71
     1
 72
     1
  1
1
  7
SLDTEXTSTYLE0
 73
     1
 44
1.0
  0
MTEXT
  5
140
330
73
100
AcDbEntity
  8
0
  6
Continuous
 62
     7
370
     0
100
AcDbMText
 10
91.4918528251
 20
8.6449155598
 30
0.0
 40
3.0
 41
0.0
 71
     1
 72
     1
  1
2
  7
SLDTEXTSTYLE0
 73
     1
 44
1.0
  0
MTEXT
  5
141
330
73
100
AcDbEntity
  8
0
  6
Continuous
 62
     7
370
     0
100
AcDbMText
 10
139.7835194911
 20
8.6449155598
 30
0.0
 40
3.0
 41
0.0
 71
     1
 72
     1
  1
3
  7
SLDTEXTSTYLE0
 73
     1
 44
1.0
  0
MTEXT
  5
142
330
73
100
AcDbEntity
  8
0
  6
Continuous
 62
     7
370
     0
100
AcDbMText
 10
188.0751861571
 20
8.6449155598
 30
0.0
 40
3.0
 41
0.0
 71
     1
 72
     1
  1
4
  7
SLDTEXTSTYLE0
 73
     1
 44
1.0
  0
MTEXT
  5
143
330
73
100
AcDbEntity
  8
0
  6
Continuous
 62
     7
370
     0
100
AcDbMText
 10
236.3668528231
 20
8.6449155598
 30
0.0
 40
3.0
 41
0.0
 71
     1
 72
     1
  1
5
  7
SLDTEXTSTYLE0
 73
     1
 44
1.0
  0
MTEXT
  5
144
330
73
100
AcDbEntity
  8
0
  6
Continuous
 62
     7
370
     0
100
AcDbMText
 10
284.6585194891
 20
8.6449155598
 30
0.0
 40
3.0
 41
0.0
 71
     1
 72
     1
  1
6
  7
SLDTEXTSTYLE0
 73
     1
 44
1.0
  0
MTEXT
  5
145
330
73
100
AcDbEntity
  8
0
  6
Continuous
 62
     7
370
     0
100
AcDbMText
 10
332.9501861551
 20
8.6449155598
 30
0.0
 40
3.0
 41
0.0
 71
     1
 72
     1
  1
7
  7
SLDTEXTSTYLE0
 73
     1
 44
1.0
  0
MTEXT
  5
146
330
73
100
AcDbEntity
  8
0
  6
Continuous
 62
     7
370
     0
100
AcDbMText
 10
381.2418528211
 20
8.6449155598
 30
0.0
 40
3.0
 41
0.0
 71
     1
 72
     1
  1
8
  7
SLDTEXTSTYLE0
 73
     1
 44
1.0
  0
MTEXT
  5
147
330
73
100
AcDbEntity
  8
0
  6
Continuous
 62
     7
370
     0
100
AcDbMText
 10
429.5335194871
 20
8.6449155598
 30
0.0
 40
3.0
 41
0.0
 71
     1
 72
     1
  1
9
  7
SLDTEXTSTYLE0
 73
     1
 44
1.0
  0
MTEXT
  5
148
330
73
100
AcDbEntity
  8
0
  6
Continuous
 62
     7
370
     0
100
AcDbMText
 10
476.8795339792
 20
8.6449155598
 30
0.0
 40
3.0
 41
0.0
 71
     1
 72
     1
  1
10
  7
SLDTEXTSTYLE0
 73
     1
 44
1.0
  0
MTEXT
  5
149
330
73
100
AcDbEntity
  8
0
  6
Continuous
 62
     7
370
     0
100
AcDbMText
 10
525.1712006452
 20
8.6449155598
 30
0.0
 40
3.0
 41
0.0
 71
     1
 72
     1
  1
11
  7
SLDTEXTSTYLE0
 73
     1
 44
1.0
  0
MTEXT
  5
14A
330
73
100
AcDbEntity
  8
0
  6
Continuous
 62
     7
370
     0
100
AcDbMText
 10
573.4628673112
 20
8.6449155598
 30
0.0
 40
3.0
 41
0.0
 71
     1
 72
     1
  1
12
  7
SLDTEXTSTYLE0
 73
     1
 44
1.0
  0
MTEXT
  5
14B
330
73
100
AcDbEntity
  8
0
  6
Continuous
 62
     7
370
     0
100
AcDbMText
 10
621.7545339772
 20
8.6449155598
 30
0.0
 40
3.0
 41
0.0
 71
     1
 72
     1
  1
13
  7
SLDTEXTSTYLE0
 73
     1
 44
1.0
  0
MTEXT
  5
14C
330
73
100
AcDbEntity
  8
0
  6
Continuous
 62
     7
370
     0
100
AcDbMText
 10
670.0462006432
 20
8.6449155598
 30
0.0
 40
3.0
 41
0.0
 71
     1
 72
     1
  1
14
  7
SLDTEXTSTYLE0
 73
     1
 44
1.0
  0
MTEXT
  5
14D
330
73
100
AcDbEntity
  8
0
  6
Continuous
 62
     7
370
     0
100
AcDbMText
 10
718.3378673092
 20
8.6449155598
 30
0.0
 40
3.0
 41
0.0
 71
     1
 72
     1
  1
15
  7
SLDTEXTSTYLE0
 73
     1
 44
1.0
  0
MTEXT
  5
14E
330
73
100
AcDbEntity
  8
0
  6
Continuous
 62
     7
370
     0
100
AcDbMText
 10
761.6295339752
 20
8.6449155598
 30
0.0
 40
3.0
 41
0.0
 71
     1
 72
     1
  1
16
  7
SLDTEXTSTYLE0
 73
     1
 44
1.0
  0
MTEXT
  5
14F
330
73
100
AcDbEntity
  8
0
  6
Continuous
 62
     7
370
     0
100
AcDbMText
 10
814.9212006412
 20
8.6449155598
 30
0.0
 40
3.0
 41
0.0
 71
     1
 72
     1
  1
17
  7
SLDTEXTSTYLE0
 73
     1
 44
1.0
  0
MTEXT
  5
150
330
73
100
AcDbEntity
  8
0
  6
Continuous
 62
     7
370
     0
100
AcDbMText
 10
863.2128673072
 20
8.6449155598
 30
0.0
 40
3.0
 41
0.0
 71
     1
 72
     1
  1
18
  7
SLDTEXTSTYLE0
 73
     1
 44
1.0
  0
MTEXT
  5
151
330
73
100
AcDbEntity
  8
0
  6
Continuous
 62
     7
370
     0
100
AcDbMText
 10
911.5045339732
 20
8.6449155598
 30
0.0
 40
3.0
 41
0.0
 71
     1
 72
     1
  1
19
  7
SLDTEXTSTYLE0
 73
     1
 44
1.0
  0
MTEXT
  5
152
330
73
100
AcDbEntity
  8
0
  6
Continuous
 62
     7
370
     0
100
AcDbMText
 10
959.7962006392
 20
8.6449155598
 30
0.0
 40
3.0
 41
0.0
 71
     1
 72
     1
  1
20
  7
SLDTEXTSTYLE0
 73
     1
 44
1.0
  0
MTEXT
  5
153
330
73
100
AcDbEntity
  8
0
  6
Continuous
 62
     7
370
     0
100
AcDbMText
 10
1008.0878673052
 20
8.6449155598
 30
0.0
 40
3.0
 41
0.0
 71
     1
 72
     1
  1
21
  7
SLDTEXTSTYLE0
 73
     1
 44
1.0
  0
MTEXT
  5
154
330
73
100
AcDbEntity
  8
0
  6
Continuous
 62
     7
370
     0
100
AcDbMText
 10
1056.3795339712
 20
8.6449155598
 30
0.0
 40
3.0
 41
0.0
 71
     1
 72
     1
  1
22
  7
SLDTEXTSTYLE0
 73
     1
 44
1.0
  0
MTEXT
  5
156
330
73
100
AcDbEntity
  8
0
  6
Continuous
 62
     7
370
     0
100
AcDbMText
 10
1003.527178913
 20
7.389386302
 30
0.0
 40
1.5
 41
0.0
 71
     1
 72
     1
  1
1
  7
SLDTEXTSTYLE1
 73
     1
 44
1.0
  0
MTEXT
  5
157
330
73
100
AcDbEntity
  8
0
  6
Continuous
 62
     7
370
     0
100
AcDbMText
 10
633.527178913
 20
7.389386302
 30
0.0
 40
1.5
 41
0.0
 71
     1
 72
     1
  1
2
  7
SLDTEXTSTYLE1
 73
     1
 44
1.0
  0
MTEXT
  5
158
330
73
100
AcDbEntity
  8
0
  6
Continuous
 62
     7
370
     0
100
AcDbMText
 10
329.027178913
 20
7.389386302
 30
0.0
 40
1.5
 41
0.0
 71
     1
 72
     1
  1
4
  7
SLDTEXTSTYLE1
 73
     1
 44
1.0
  0
MTEXT
  5
159
330
73
100
AcDbEntity
  8
0
  6
Continuous
 62
     7
370
     0
100
AcDbMText
 10
263.527178913
 20
7.389386302
 30
0.0
 40
1.5
 41
0.0
 71
     1
 72
     1
  1
3
  7
SLDTEXTSTYLE1
 73
     1
 44
1.0
  0
MTEXT
  5
15A
330
73
100
AcDbEntity
  8
0
  6
Continuous
 62
     7
370
     0
100
AcDbMText
 10
1003.527178913
 20
835.1028068642
 30
0.0
 40
1.5
 41
0.0
 71
     1
 72
     1
  1
1
  7
SLDTEXTSTYLE1
 73
     1
 44
1.0
  0
MTEXT
  5
15B
330
73
100
AcDbEntity
  8
0
  6
Continuous
 62
     7
370
     0
100
AcDbMText
 10
633.527178913
 20
835.1028068642
 30
0.0
 40
1.5
 41
0.0
 71
     1
 72
     1
  1
2
  7
SLDTEXTSTYLE1
 73
     1
 44
1.0
  0
MTEXT
  5
15C
330
73
100
AcDbEntity
  8
0
  6
Continuous
 62
     7
370
     0
100
AcDbMText
 10
263.527178913
 20
835.1028068642
 30
0.0
 40
1.5
 41
0.0
 71
     1
 72
     1
  1
3
  7
SLDTEXTSTYLE1
 73
     1
 44
1.0
  0
MTEXT
  5
15D
330
73
100
AcDbEntity
  8
0
  6
Continuous
 62
     7
370
     0
100
AcDbMText
 10
329.027178913
 20
835.1028068642
 30
0.0
 40
1.5
 41
0.0
 71
     1
 72
     1
  1
4
  7
SLDTEXTSTYLE1
 73
     1
 44
1.0
  0
ENDBLK
  5
75
330
73
100
AcDbEntity
  8
0
100
AcDbBlockEnd
  0
BLOCK
  5
15F
330
15E
100
AcDbEntity
  8
0
100
AcDbBlockBegin
  2
ISO2768
 70
     0
 10
0.0
 20
0.0
 30
0.0
  3
ISO2768
  1

  0
LINE
  5
161
330
15E
100
AcDbEntity
  8
0
  6
Continuous
 62
     7
370
     0
100
AcDbLine
 10
-25.0
 20
0.0
 30
0.0
 11
-25.0
 21
-20.0
 31
0.0
  0
LINE
  5
162
330
15E
100
AcDbEntity
  8
0
  6
Continuous
 62
     7
370
     0
100
AcDbLine
 10
-50.0
 20
0.0
 30
0.0
 11
-50.0
 21
-20.0
 31
0.0
  0
LINE
  5
163
330
15E
100
AcDbEntity
  8
0
  6
Continuous
 62
     7
370
     0
100
AcDbLine
 10
-75.0
 20
0.0
 30
0.0
 11
-75.0
 21
-20.0
 31
0.0
  0
LINE
  5
164
330
15E
100
AcDbEntity
  8
0
  6
Continuous
 62
     7
370
     0
100
AcDbLine
 10
-95.0
 20
0.0
 30
0.0
 11
-95.0
 21
-20.0
 31
0.0
  0
LINE
  5
165
330
15E
100
AcDbEntity
  8
0
  6
Continuous
 62
     7
370
     0
100
AcDbLine
 10
-115.0
 20
0.0
 30
0.0
 11
-115.0
 21
-20.0
 31
0.0
  0
LINE
  5
166
330
15E
100
AcDbEntity
  8
0
  6
Continuous
 62
     7
370
     0
100
AcDbLine
 10
-130.0
 20
0.0
 30
0.0
 11
-130.0
 21
-20.0
 31
0.0
  0
LINE
  5
167
330
15E
100
AcDbEntity
  8
0
  6
Continuous
 62
     7
370
     0
100
AcDbLine
 10
-145.0
 20
0.0
 30
0.0
 11
-145.0
 21
-20.0
 31
0.0
  0
LINE
  5
168
330
15E
100
AcDbEntity
  8
0
  6
Continuous
 62
     7
370
     0
100
AcDbLine
 10
-155.0
 20
-4.0
 30
0.0
 11
-155.0
 21
-20.0
 31
0.0
  0
LINE
  5
169
330
15E
100
AcDbEntity
  8
0
  6
Continuous
 62
     7
370
     0
100
AcDbLine
 10
-175.0
 20
-16.0
 30
0.0
 11
0.0
 21
-16.0
 31
0.0
  0
LINE
  5
16A
330
15E
100
AcDbEntity
  8
0
  6
Continuous
 62
     7
370
     0
100
AcDbLine
 10
-175.0
 20
-12.0
 30
0.0
 11
0.0
 21
-12.0
 31
0.0
  0
LINE
  5
16B
330
15E
100
AcDbEntity
  8
0
  6
Continuous
 62
     7
370
     0
100
AcDbLine
 10
-175.0
 20
-8.0
 30
0.0
 11
0.0
 21
-8.0
 31
0.0
  0
LINE
  5
16C
330
15E
100
AcDbEntity
  8
0
  6
Continuous
 62
     7
370
     0
100
AcDbLine
 10
-175.0
 20
-4.0
 30
0.0
 11
0.0
 21
-4.0
 31
0.0
  0
LINE
  5
16D
330
15E
100
AcDbEntity
  8
0
  6
Continuous
 62
     7
370
     0
100
AcDbLine
 10
-175.0
 20
0.0
 30
0.0
 11
-175.0
 21
-20.0
 31
0.0
  0
LINE
  5
16E
330
15E
100
AcDbEntity
  8
0
  6
Continuous
 62
     7
370
     0
100
AcDbLine
 10
-180.0
 20
-20.0
 30
0.0
 11
-180.0
 21
0.0
 31
0.0
  0
LINE
  5
16F
330
15E
100
AcDbEntity
  8
0
  6
Continuous
 62
     7
370
     0
100
AcDbLine
 10
0.0
 20
-20.0
 30
0.0
 11
-180.0
 21
-20.0
 31
0.0
  0
LINE
  5
170
330
15E
100
AcDbEntity
  8
0
  6
Continuous
 62
     7
370
     0
100
AcDbLine
 10
0.0
 20
0.0
 30
0.0
 11
0.0
 21
-20.0
 31
0.0
  0
LINE
  5
171
330
15E
100
AcDbEntity
  8
0
  6
Continuous
 62
     7
370
     0
100
AcDbLine
 10
-180.0
 20
0.0
 30
0.0
 11
0.0
 21
0.0
 31
0.0
  0
MTEXT
  5
173
330
15E
100
AcDbEntity
  8
0
  6
Continuous
 62
   179
370
     0
100
AcDbMText
 10
-152.1594291518
 20
-12.9932672184
 30
0.0
 40
2.5
 41
0.0
 71
     1
 72
     1
  1
(c)
  7
SLDTEXTSTYLE2
 73
     1
 44
1.0
  0
MTEXT
  5
174
330
15E
100
AcDbEntity
  8
0
  6
Continuous
 62
   179
370
     0
100
AcDbMText
 10
-14.4385313988
 20
-13.1021223902
 30
0.0
 40
2.5
 41
0.0
 71
     1
 72
     1
  1
±4
  7
SLDTEXTSTYLE2
 73
     1
 44
1.0
  0
MTEXT
  5
175
330
15E
100
AcDbEntity
  8
0
  6
Continuous
 62
   179
370
     0
100
AcDbMText
 10
-14.4385313988
 20
-17.1021223902
 30
0.0
 40
2.5
 41
0.0
 71
     1
 72
     1
  1
±8
  7
SLDTEXTSTYLE2
 73
     1
 44
1.0
  0
MTEXT
  5
176
330
15E
100
AcDbEntity
  8
0
  6
Continuous
 62
   179
370
     0
100
AcDbMText
 10
-23.8407053118
 20
-1.1021223902
 30
0.0
 40
2.5
 41
0.0
 71
     1
 72
     1
  1
>2000 <=4000
  7
SLDTEXTSTYLE2
 73
     1
 44
1.0
  0
MTEXT
  5
177
330
15E
100
AcDbEntity
  8
0
  6
Continuous
 62
   179
370
     0
100
AcDbMText
 10
-13.0798357466
 20
-5.1021223902
 30
0.0
 40
2.5
 41
0.0
 71
     1
 72
     1
  1
-
  7
SLDTEXTSTYLE2
 73
     1
 44
1.0
  0
MTEXT
  5
178
330
15E
100
AcDbEntity
  8
0
  6
Continuous
 62
   179
370
     0
100
AcDbMText
 10
-14.4385313988
 20
-9.1021223902
 30
0.0
 40
2.5
 41
0.0
 71
     1
 72
     1
  1
±2
  7
SLDTEXTSTYLE2
 73
     1
 44
1.0
  0
MTEXT
  5
179
330
15E
100
AcDbEntity
  8
0
  6
Continuous
 62
   179
370
     0
100
AcDbMText
 10
-39.4385313988
 20
-17.1021223902
 30
0.0
 40
2.5
 41
0.0
 71
     1
 72
     1
  1
±6
  7
SLDTEXTSTYLE2
 73
     1
 44
1.0
  0
MTEXT
  5
17A
330
15E
100
AcDbEntity
  8
0
  6
Continuous
 62
   179
370
     0
100
AcDbMText
 10
-39.4385313988
 20
-13.1021223902
 30
0.0
 40
2.5
 41
0.0
 71
     1
 72
     1
  1
±3
  7
SLDTEXTSTYLE2
 73
     1
 44
1.0
  0
MTEXT
  5
17B
330
15E
100
AcDbEntity
  8
0
  6
Continuous
 62
   179
370
     0
100
AcDbMText
 10
-72.8624444423
 20
-1.1021223902
 30
0.0
 40
2.5
 41
0.0
 71
     1
 72
     1
  1
>400 <=1000
  7
SLDTEXTSTYLE2
 73
     1
 44
1.0
  0
MTEXT
  5
17C
330
15E
100
AcDbEntity
  8
0
  6
Continuous
 62
   179
370
     0
100
AcDbMText
 10
-40.9059227031
 20
-9.1021223902
 30
0.0
 40
2.5
 41
0.0
 71
     1
 72
     1
  1
±1.2
  7
SLDTEXTSTYLE2
 73
     1
 44
1.0
  0
MTEXT
  5
17D
330
15E
100
AcDbEntity
  8
0
  6
Continuous
 62
   179
370
     0
100
AcDbMText
 10
-40.9059227031
 20
-5.1021223902
 30
0.0
 40
2.5
 41
0.0
 71
     1
 72
     1
  1
±0.5
  7
SLDTEXTSTYLE2
 73
     1
 44
1.0
  0
MTEXT
  5
17E
330
15E
100
AcDbEntity
  8
0
  6
Continuous
 62
   179
370
     0
100
AcDbMText
 10
-64.4385313988
 20
-17.1021223902
 30
0.0
 40
2.5
 41
0.0
 71
     1
 72
     1
  1
±4
  7
SLDTEXTSTYLE2
 73
     1
 44
1.0
  0
MTEXT
  5
17F
330
15E
100
AcDbEntity
  8
0
  6
Continuous
 62
   179
370
     0
100
AcDbMText
 10
-48.8407053118
 20
-1.1021223902
 30
0.0
 40
2.5
 41
0.0
 71
     1
 72
     1
  1
>1000 <=2000
  7
SLDTEXTSTYLE2
 73
     1
 44
1.0
  0
MTEXT
  5
180
330
15E
100
AcDbEntity
  8
0
  6
Continuous
 62
   179
370
     0
100
AcDbMText
 10
-64.4385313988
 20
-13.1021223902
 30
0.0
 40
2.5
 41
0.0
 71
     1
 72
     1
  1
±2
  7
SLDTEXTSTYLE2
 73
     1
 44
1.0
  0
MTEXT
  5
181
330
15E
100
AcDbEntity
  8
0
  6
Continuous
 62
   179
370
     0
100
AcDbMText
 10
-65.9059227031
 20
-9.1021223902
 30
0.0
 40
2.5
 41
0.0
 71
     1
 72
     1
  1
±0.8
  7
SLDTEXTSTYLE2
 73
     1
 44
1.0
  0
MTEXT
  5
182
330
15E
100
AcDbEntity
  8
0
  6
Continuous
 62
   179
370
     0
100
AcDbMText
 10
-88.4059227031
 20
-9.1021223902
 30
0.0
 40
2.5
 41
0.0
 71
     1
 72
     1
  1
±0.5
  7
SLDTEXTSTYLE2
 73
     1
 44
1.0
  0
MTEXT
  5
183
330
15E
100
AcDbEntity
  8
0
  6
Continuous
 62
   179
370
     0
100
AcDbMText
 10
-108.4059227031
 20
-9.1021223902
 30
0.0
 40
2.5
 41
0.0
 71
     1
 72
     1
  1
±0.3
  7
SLDTEXTSTYLE2
 73
     1
 44
1.0
  0
MTEXT
  5
184
330
15E
100
AcDbEntity
  8
0
  6
Continuous
 62
   179
370
     0
100
AcDbMText
 10
-88.4059227031
 20
-5.1021223902
 30
0.0
 40
2.5
 41
0.0
 71
     1
 72
     1
  1
±0.2
  7
SLDTEXTSTYLE2
 73
     1
 44
1.0
  0
MTEXT
  5
185
330
15E
100
AcDbEntity
  8
0
  6
Continuous
 62
   179
370
     0
100
AcDbMText
 10
-108.4059227031
 20
-17.1021223902
 30
0.0
 40
2.5
 41
0.0
 71
     1
 72
     1
  1
±1.5
  7
SLDTEXTSTYLE2
 73
     1
 44
1.0
  0
MTEXT
  5
186
330
15E
100
AcDbEntity
  8
0
  6
Continuous
 62
   179
370
     0
100
AcDbMText
 10
-65.9059227031
 20
-5.1021223902
 30
0.0
 40
2.5
 41
0.0
 71
     1
 72
     1
  1
±0.3
  7
SLDTEXTSTYLE2
 73
     1
 44
1.0
  0
MTEXT
  5
187
330
15E
100
AcDbEntity
  8
0
  6
Continuous
 62
   179
370
     0
100
AcDbMText
 10
-88.4059227031
 20
-17.1021223902
 30
0.0
 40
2.5
 41
0.0
 71
     1
 72
     1
  1
±2.5
  7
SLDTEXTSTYLE2
 73
     1
 44
1.0
  0
MTEXT
  5
188
330
15E
100
AcDbEntity
  8
0
  6
Continuous
 62
   179
370
     0
100
AcDbMText
 10
-94.3841835727
 20
-1.1021223902
 30
0.0
 40
2.5
 41
0.0
 71
     1
 72
     1
  1
>120 <=400
  7
SLDTEXTSTYLE2
 73
     1
 44
1.0
  0
MTEXT
  5
189
330
15E
100
AcDbEntity
  8
0
  6
Continuous
 62
   179
370
     0
100
AcDbMText
 10
-88.4059227031
 20
-13.1021223902
 30
0.0
 40
2.5
 41
0.0
 71
     1
 72
     1
  1
±1.2
  7
SLDTEXTSTYLE2
 73
     1
 44
1.0
  0
MTEXT
  5
18A
330
15E
100
AcDbEntity
  8
0
  6
Continuous
 62
   179
370
     0
100
AcDbMText
 10
-109.3841835727
 20
-5.1021223902
 30
0.0
 40
2.5
 41
0.0
 71
     1
 72
     1
  1
±0.15
  7
SLDTEXTSTYLE2
 73
     1
 44
1.0
  0
MTEXT
  5
18B
330
15E
100
AcDbEntity
  8
0
  6
Continuous
 62
   179
370
     0
100
AcDbMText
 10
-113.4059227031
 20
-1.1021223902
 30
0.0
 40
2.5
 41
0.0
 71
     1
 72
     1
  1
>30 <=120
  7
SLDTEXTSTYLE2
 73
     1
 44
1.0
  0
MTEXT
  5
18C
330
15E
100
AcDbEntity
  8
0
  6
Continuous
 62
   179
370
     0
100
AcDbMText
 10
-124.4385313988
 20
-17.1021223902
 30
0.0
 40
2.5
 41
0.0
 71
     1
 72
     1
  1
±1
  7
SLDTEXTSTYLE2
 73
     1
 44
1.0
  0
MTEXT
  5
18D
330
15E
100
AcDbEntity
  8
0
  6
Continuous
 62
   179
370
     0
100
AcDbMText
 10
-125.9059227031
 20
-9.1021223902
 30
0.0
 40
2.5
 41
0.0
 71
     1
 72
     1
  1
±0.2
  7
SLDTEXTSTYLE2
 73
     1
 44
1.0
  0
MTEXT
  5
18E
330
15E
100
AcDbEntity
  8
0
  6
Continuous
 62
   179
370
     0
100
AcDbMText
 10
-108.4059227031
 20
-13.1021223902
 30
0.0
 40
2.5
 41
0.0
 71
     1
 72
     1
  1
±0.8
  7
SLDTEXTSTYLE2
 73
     1
 44
1.0
  0
MTEXT
  5
18F
330
15E
100
AcDbEntity
  8
0
  6
Continuous
 62
   179
370
     0
100
AcDbMText
 10
-125.9059227031
 20
-5.1021223902
 30
0.0
 40
2.5
 41
0.0
 71
     1
 72
     1
  1
±0.1
  7
SLDTEXTSTYLE2
 73
     1
 44
1.0
  0
MTEXT
  5
190
330
15E
100
AcDbEntity
  8
0
  6
Continuous
 62
   179
370
     0
100
AcDbMText
 10
-128.949400964
 20
-1.1021223902
 30
0.0
 40
2.5
 41
0.0
 71
     1
 72
     1
  1
>6 <=30
  7
SLDTEXTSTYLE2
 73
     1
 44
1.0
  0
MTEXT
  5
191
330
15E
100
AcDbEntity
  8
0
  6
Continuous
 62
   179
370
     0
100
AcDbMText
 10
-140.4983140075
 20
-1.1021223902
 30
0.0
 40
2.5
 41
0.0
 71
     1
 72
     1
  1
<=6
  7
SLDTEXTSTYLE2
 73
     1
 44
1.0
  0
MTEXT
  5
192
330
15E
100
AcDbEntity
  8
0
  6
Continuous
 62
   179
370
     0
100
AcDbMText
 10
-125.9059227031
 20
-13.1021223902
 30
0.0
 40
2.5
 41
0.0
 71
     1
 72
     1
  1
±0.5
  7
SLDTEXTSTYLE2
 73
     1
 44
1.0
  0
MTEXT
  5
193
330
15E
100
AcDbEntity
  8
0
  6
Continuous
 62
   179
370
     0
100
AcDbMText
 10
-140.9059227031
 20
-9.1021223902
 30
0.0
 40
2.5
 41
0.0
 71
     1
 72
     1
  1
±0.1
  7
SLDTEXTSTYLE2
 73
     1
 44
1.0
  0
MTEXT
  5
194
330
15E
100
AcDbEntity
  8
0
  6
Continuous
 62
   179
370
     0
100
AcDbMText
 10
-140.9059227031
 20
-17.1021223902
 30
0.0
 40
2.5
 41
0.0
 71
     1
 72
     1
  1
±0.5
  7
SLDTEXTSTYLE2
 73
     1
 44
1.0
  0
MTEXT
  5
195
330
15E
100
AcDbEntity
  8
0
  6
Continuous
 62
   179
370
     0
100
AcDbMText
 10
-140.9059227031
 20
-13.1021223902
 30
0.0
 40
2.5
 41
0.0
 71
     1
 72
     1
  1
±0.3
  7
SLDTEXTSTYLE2
 73
     1
 44
1.0
  0
MTEXT
  5
196
330
15E
100
AcDbEntity
  8
0
  6
Continuous
 62
   179
370
     0
100
AcDbMText
 10
-141.8841835727
 20
-5.1021223902
 30
0.0
 40
2.5
 41
0.0
 71
     1
 72
     1
  1
±0.05
  7
SLDTEXTSTYLE2
 73
     1
 44
1.0
  0
MTEXT
  5
197
330
15E
100
AcDbEntity
  8
0
  6
Continuous
 62
   179
370
     0
100
AcDbMText
 10
-174.7485158139
 20
-8.9932672184
 30
0.0
 40
2.5
 41
0.0
 71
     1
 72
     1
  1
Medium
  7
SLDTEXTSTYLE2
 73
     1
 44
1.0
  0
MTEXT
  5
198
330
15E
100
AcDbEntity
  8
0
  6
Continuous
 62
   179
370
     0
100
AcDbMText
 10
-174.7485158139
 20
-12.9932672184
 30
0.0
 40
2.5
 41
0.0
 71
     1
 72
     1
  1
Coarse
  7
SLDTEXTSTYLE2
 73
     1
 44
1.0
  0
MTEXT
  5
199
330
15E
100
AcDbEntity
  8
0
  6
Continuous
 62
   179
370
     0
100
AcDbMText
 10
-151.7789943692
 20
-4.9932672184
 30
0.0
 40
2.5
 41
0.0
 71
     1
 72
     1
  1
(f)
  7
SLDTEXTSTYLE2
 73
     1
 44
1.0
  0
MTEXT
  5
19A
330
15E
100
AcDbEntity
  8
0
  6
Continuous
 62
   179
370
     0
100
AcDbMText
 10
-152.7844291518
 20
-8.9932672184
 30
0.0
 40
2.5
 41
0.0
 71
     1
 72
     1
  1
(m)
  7
SLDTEXTSTYLE2
 73
     1
 44
1.0
  0
MTEXT
  5
19B
330
15E
100
AcDbEntity
  8
0
  6
Continuous
 62
   179
370
     0
100
AcDbMText
 10
-152.1866030649
 20
-16.9932672184
 30
0.0
 40
2.5
 41
0.0
 71
     1
 72
     1
  1
(v)
  7
SLDTEXTSTYLE2
 73
     1
 44
1.0
  0
MTEXT
  5
19C
330
15E
100
AcDbEntity
  8
0
  6
Continuous
 62
   179
370
     0
100
AcDbMText
 10
-174.7485158139
 20
-16.9932672184
 30
0.0
 40
2.5
 41
0.0
 71
     1
 72
     1
  1
Very Coarse
  7
SLDTEXTSTYLE2
 73
     1
 44
1.0
  0
MTEXT
  5
19D
330
15E
100
AcDbEntity
  8
0
  6
Continuous
 62
   179
370
     0
100
AcDbMText
 10
-178.6122169322
 20
-18.8727771349
 30
0.0
 40
2.5
 41
0.0
 71
     1
 72
     1
  1
ISO 2768
  7
SLDTEXTSTYLE2
 11
6.123233995736766E-17
 21
1.0
 31
0.0
 73
     1
 44
1.0
  0
MTEXT
  5
19E
330
15E
100
AcDbEntity
  8
0
  6
Continuous
 62
   179
370
     0
100
AcDbMText
 10
-174.565631434
 20
-0.9932672184
 30
0.0
 40
2.5
 41
0.0
 71
     1
 72
     1
  1
Tolerance Class
  7
SLDTEXTSTYLE2
 73
     1
 44
1.0
  0
MTEXT
  5
19F
330
15E
100
AcDbEntity
  8
0
  6
Continuous
 62
   179
370
     0
100
AcDbMText
 10
-174.7485158139
 20
-4.9932672184
 30
0.0
 40
2.5
 41
0.0
 71
     1
 72
     1
  1
Fine
  7
SLDTEXTSTYLE2
 73
     1
 44
1.0
  0
ENDBLK
  5
160
330
15E
100
AcDbEntity
  8
0
100
AcDbBlockEnd
  0
BLOCK
  5
1A1
330
1A0
100
AcDbEntity
  8
0
100
AcDbBlockBegin
  2
Nota legale
 70
     0
 10
0.0
 20
0.0
 30
0.0
  3
Nota legale
  1

  0
MTEXT
  5
1A4
330
1A0
100
AcDbEntity
  8
0
  6
Continuous
 62
     7
370
     0
100
AcDbMText
 10
2.8916698098
 20
-1.0663983927
 30
0.0
 40
1.5
 41
0.0
 71
     3
 72
     1
  1
BY TERM LAWS WE RESERVE THE PROPERTY OF THIS DRAWING WITH PROHIBITION OF USE AND REPRODUCTION
  7
SLDTEXTSTYLE3
 73
     1
 44
1.0
  0
ENDBLK
  5
1A2
330
1A0
100
AcDbEntity
  8
0
100
AcDbBlockEnd
  0
ENDSEC
  0
SECTION
  2
ENTITIES
  0
LINE
  5
1A5
330
1F
100
AcDbEntity
  8
0
  6
Continuous
 62
     7
370
    15
100
AcDbLine
 10
175.4566758772
 20
706.6228828064
 30
0.0
 11
176.4566758772
 21
705.6228828064
 31
0.0
  0
LINE
  5
1A6
330
1F
100
AcDbEntity
  8
0
  6
Continuous
 62
     7
370
    15
100
AcDbLine
 10
386.4566758772
 20
705.6228828064
 30
0.0
 11
387.4566758772
 21
706.6228828064
 31
0.0
  0
LINE
  5
1A7
330
1F
100
AcDbEntity
  8
0
  6
Continuous
 62
     7
370
    15
100
AcDbLine
 10
387.4566758772
 20
704.6228828064
 30
0.0
 11
386.4566758772
 21
705.6228828064
 31
0.0
  0
LINE
  5
1A8
330
1F
100
AcDbEntity
  8
0
  6
Continuous
 62
     7
370
    15
100
AcDbLine
 10
176.4566758772
 20
705.6228828064
 30
0.0
 11
175.4566758772
 21
704.6228828064
 31
0.0
  0
LINE
  5
1A9
330
1F
100
AcDbEntity
  8
0
  6
Continuous
 62
     7
370
    15
100
AcDbLine
 10
387.4566758772
 20
706.6228828064
 30
0.0
 11
387.4566758772
 21
714.6228828064
 31
0.0
  0
LINE
  5
1AA
330
1F
100
AcDbEntity
  8
0
  6
Continuous
 62
     7
370
    15
100
AcDbLine
 10
175.4566758772
 20
714.6228828064
 30
0.0
 11
175.4566758772
 21
706.6228828064
 31
0.0
  0
LINE
  5
1AB
330
1F
100
AcDbEntity
  8
0
  6
Continuous
 62
     7
370
    15
100
AcDbLine
 10
387.4566758772
 20
696.6228828064
 30
0.0
 11
387.4566758772
 21
704.6228828064
 31
0.0
  0
LINE
  5
1AC
330
1F
100
AcDbEntity
  8
0
  6
Continuous
 62
     7
370
    15
100
AcDbLine
 10
175.4566758772
 20
704.6228828064
 30
0.0
 11
175.4566758772
 21
696.6228828064
 31
0.0
  0
LINE
  5
1AD
330
1F
100
AcDbEntity
  8
0
  6
Continuous
 62
     7
370
    15
100
AcDbLine
 10
175.4566758772
 20
696.6228828064
 30
0.0
 11
177.4566758772
 21
694.6228828064
 31
0.0
  0
LINE
  5
1AE
330
1F
100
AcDbEntity
  8
0
  6
Continuous
 62
     7
370
    15
100
AcDbLine
 10
385.4566758772
 20
694.6228828064
 30
0.0
 11
387.4566758772
 21
696.6228828064
 31
0.0
  0
LINE
  5
1AF
330
1F
100
AcDbEntity
  8
0
  6
Continuous
 62
     7
370
    15
100
AcDbLine
 10
387.4566758772
 20
714.6228828064
 30
0.0
 11
385.4566758772
 21
716.6228828064
 31
0.0
  0
LINE
  5
1B0
330
1F
100
AcDbEntity
  8
0
  6
Continuous
 62
     7
370
    15
100
AcDbLine
 10
177.4566758772
 20
716.6228828064
 30
0.0
 11
175.4566758772
 21
714.6228828064
 31
0.0
  0
LINE
  5
1B1
330
1F
100
AcDbEntity
  8
0
  6
Continuous
 62
     7
370
    15
100
AcDbLine
 10
138.4566758772
 20
536.1228828064
 30
0.0
 11
151.4566758772
 21
536.1228828064
 31
0.0
  0
LINE
  5
1B2
330
1F
100
AcDbEntity
  8
0
  6
Continuous
 62
     7
370
    15
100
AcDbLine
 10
151.4566758772
 20
721.1228828064
 30
0.0
 11
138.4566758772
 21
721.1228828064
 31
0.0
  0
LINE
  5
1B3
330
1F
100
AcDbEntity
  8
0
  6
Continuous
 62
     7
370
    15
100
AcDbLine
 10
151.4566758772
 20
536.1228828064
 30
0.0
 11
156.4566758772
 21
541.1228828064
 31
0.0
  0
LINE
  5
1B4
330
1F
100
AcDbEntity
  8
0
  6
Continuous
 62
     7
370
    15
100
AcDbLine
 10
156.4566758772
 20
716.1228828064
 30
0.0
 11
151.4566758772
 21
721.1228828064
 31
0.0
  0
LINE
  5
1B5
330
1F
100
AcDbEntity
  8
0
  6
Continuous
 62
     7
370
    15
100
AcDbLine
 10
424.4566758772
 20
721.1228828064
 30
0.0
 11
411.4566758772
 21
721.1228828064
 31
0.0
  0
LINE
  5
1B6
330
1F
100
AcDbEntity
  8
0
  6
Continuous
 62
     7
370
    15
100
AcDbLine
 10
411.4566758772
 20
536.1228828064
 30
0.0
 11
424.4566758772
 21
536.1228828064
 31
0.0
  0
LINE
  5
1B7
330
1F
100
AcDbEntity
  8
0
  6
Continuous
 62
     7
370
    15
100
AcDbLine
 10
411.4566758772
 20
721.1228828064
 30
0.0
 11
406.4566758772
 21
716.1228828064
 31
0.0
  0
LINE
  5
1B8
330
1F
100
AcDbEntity
  8
0
  6
Continuous
 62
     7
370
    15
100
AcDbLine
 10
406.4566758772
 20
541.1228828064
 30
0.0
 11
411.4566758772
 21
536.1228828064
 31
0.0
  0
LINE
  5
1B9
330
1F
100
AcDbEntity
  8
0
  6
Continuous
 62
     7
370
    15
100
AcDbLine
 10
191.4566758772
 20
694.6228828064
 30
0.0
 11
196.4566758772
 21
689.6228828064
 31
0.0
  0
LINE
  5
1BA
330
1F
100
AcDbEntity
  8
0
  6
Continuous
 62
     7
370
    15
100
AcDbLine
 10
366.4566758772
 20
689.6228828064
 30
0.0
 11
371.4566758772
 21
694.6228828064
 31
0.0
  0
LINE
  5
1BB
330
1F
100
AcDbEntity
  8
0
  6
Continuous
 62
     7
370
    15
100
AcDbLine
 10
196.4566758772
 20
544.6228828064
 30
0.0
 11
201.4566758772
 21
539.6228828064
 31
0.0
  0
LINE
  5
1BC
330
1F
100
AcDbEntity
  8
0
  6
Continuous
 62
     7
370
    15
100
AcDbLine
 10
361.4566758772
 20
539.6228828064
 30
0.0
 11
366.4566758772
 21
544.6228828064
 31
0.0
  0
LINE
  5
1BD
330
1F
100
AcDbEntity
  8
0
  6
Continuous
 62
     7
370
    15
100
AcDbLine
 10
366.4566758772
 20
687.1162059362
 30
0.0
 11
366.4566758772
 21
689.6228828064
 31
0.0
  0
LINE
  5
1BE
330
1F
100
AcDbEntity
  8
0
  6
Continuous
 62
     7
370
    15
100
AcDbLine
 10
366.4566758772
 20
544.6228828064
 30
0.0
 11
366.4566758772
 21
570.1300022719
 31
0.0
  0
LINE
  5
1BF
330
1F
100
AcDbEntity
  8
0
  6
Continuous
 62
     7
370
    15
100
AcDbLine
 10
196.4566758772
 20
570.1295596767
 30
0.0
 11
196.4566758772
 21
544.6228828064
 31
0.0
  0
LINE
  5
1C0
330
1F
100
AcDbEntity
  8
0
  6
Continuous
 62
     7
370
    15
100
AcDbLine
 10
196.4566758772
 20
689.6228828064
 30
0.0
 11
196.4566758772
 21
687.115763341
 31
0.0
  0
LINE
  5
1C1
330
1F
100
AcDbEntity
  8
0
  6
Continuous
 62
     7
370
    15
100
AcDbLine
 10
362.4566758772
 20
717.6228828064
 30
0.0
 11
360.4566758772
 21
719.6228828064
 31
0.0
  0
LINE
  5
1C2
330
1F
100
AcDbEntity
  8
0
  6
Continuous
 62
     7
370
    15
100
AcDbLine
 10
202.4566758772
 20
719.6228828064
 30
0.0
 11
200.4566758772
 21
717.6228828064
 31
0.0
  0
LINE
  5
1C3
330
1F
100
AcDbEntity
  8
0
  6
Continuous
 62
     7
370
    15
100
AcDbLine
 10
200.4566758772
 20
717.6228828064
 30
0.0
 11
200.4566758772
 21
716.6228828064
 31
0.0
  0
LINE
  5
1C4
330
1F
100
AcDbEntity
  8
0
  6
Continuous
 62
     7
370
    15
100
AcDbLine
 10
362.4566758772
 20
716.6228828064
 30
0.0
 11
362.4566758772
 21
717.6228828064
 31
0.0
  0
ARC
  5
1C5
330
1F
100
AcDbEntity
  8
0
  6
Continuous
 62
     7
370
    15
100
AcDbCircle
 10
396.4566758772
 20
687.1228828064
 30
0.0
 40
10.0
100
AcDbArc
 50
270.0
 51
0.0
  0
ARC
  5
1C6
330
1F
100
AcDbEntity
  8
0
  6
Continuous
 62
     7
370
    15
100
AcDbCircle
 10
396.4566758772
 20
570.1228828064
 30
0.0
 40
10.00000000000011
100
AcDbArc
 50
0.0
 51
90.0
  0
ARC
  5
1C7
330
1F
100
AcDbEntity
  8
0
  6
Continuous
 62
     7
370
    15
100
AcDbCircle
 10
166.4566758772
 20
570.1228828064
 30
0.0
 40
10.00000000000011
100
AcDbArc
 50
90.0
 51
180.0
  0
ARC
  5
1C8
330
1F
100
AcDbEntity
  8
0
  6
Continuous
 62
     7
370
    15
100
AcDbCircle
 10
166.4566758772
 20
687.1228828064
 30
0.0
 40
10.00000000000003
100
AcDbArc
 50
180.0
 51
270.0
  0
LINE
  5
1C9
330
1F
100
AcDbEntity
  8
0
  6
Continuous
 62
     7
370
    15
100
AcDbLine
 10
136.4566758772
 20
571.1228828064
 30
0.0
 11
138.4566758772
 21
571.1228828064
 31
0.0
  0
LINE
  5
1CA
330
1F
100
AcDbEntity
  8
0
  6
Continuous
 62
     7
370
    15
100
AcDbLine
 10
138.4566758772
 20
686.1228828064
 30
0.0
 11
136.4566758772
 21
686.1228828064
 31
0.0
  0
LINE
  5
1CB
330
1F
100
AcDbEntity
  8
0
  6
Continuous
 62
     7
370
    15
100
AcDbLine
 10
426.4566758772
 20
686.1228828064
 30
0.0
 11
424.4566758772
 21
686.1228828064
 31
0.0
  0
LINE
  5
1CC
330
1F
100
AcDbEntity
  8
0
  6
Continuous
 62
     7
370
    15
100
AcDbLine
 10
424.4566758772
 20
571.1228828064
 30
0.0
 11
426.4566758772
 21
571.1228828064
 31
0.0
  0
LINE
  5
1CD
330
1F
100
AcDbEntity
  8
0
  6
Continuous
 62
     7
370
    15
100
AcDbLine
 10
186.4566759861
 20
580.1228828968
 30
0.0
 11
196.4566759731
 21
570.1228829128
 31
0.0
  0
LINE
  5
1CE
330
1F
100
AcDbEntity
  8
0
  6
Continuous
 62
     7
370
    15
100
AcDbLine
 10
196.4566759561
 20
687.1228827287
 30
0.0
 11
186.4566759679
 21
677.1228827387
 31
0.0
  0
LINE
  5
1CF
330
1F
100
AcDbEntity
  8
0
  6
Continuous
 62
     7
370
    15
100
AcDbLine
 10
376.4566757683
 20
677.122882716
 30
0.0
 11
366.4566757813
 21
687.1228827001
 31
0.0
  0
LINE
  5
1D0
330
1F
100
AcDbEntity
  8
0
  6
Continuous
 62
     7
370
    15
100
AcDbLine
 10
366.4566757983
 20
570.1228828842
 30
0.0
 11
376.4566757865
 21
580.1228828742
 31
0.0
  0
LINE
  5
1D1
330
1F
100
AcDbEntity
  8
0
  6
Continuous
 62
     7
370
    15
100
AcDbLine
 10
166.4566758772
 20
580.1228828064
 30
0.0
 11
186.4607875515
 21
580.1228828064
 31
0.0
  0
LINE
  5
1D2
330
1F
100
AcDbEntity
  8
0
  6
Continuous
 62
     7
370
    15
100
AcDbLine
 10
186.4610471333
 20
677.1228828064
 30
0.0
 11
166.4566758772
 21
677.1228828064
 31
0.0
  0
LINE
  5
1D3
330
1F
100
AcDbEntity
  8
0
  6
Continuous
 62
     7
370
    15
100
AcDbLine
 10
376.4523046211
 20
580.1228828064
 30
0.0
 11
396.4566758772
 21
580.1228828064
 31
0.0
  0
LINE
  5
1D4
330
1F
100
AcDbEntity
  8
0
  6
Continuous
 62
     7
370
    15
100
AcDbLine
 10
396.4566758772
 20
677.1228828064
 30
0.0
 11
376.4525642029
 21
677.1228828064
 31
0.0
  0
LINE
  5
1D5
330
1F
100
AcDbEntity
  8
0
  6
Continuous
 62
     7
370
    15
100
AcDbLine
 10
281.4566758772
 20
705.6228828064
 30
0.0
 11
386.4566758772
 21
705.6228828064
 31
0.0
  0
LINE
  5
1D6
330
1F
100
AcDbEntity
  8
0
  6
Continuous
 62
     7
370
    15
100
AcDbLine
 10
176.4566758772
 20
705.6228828064
 30
0.0
 11
281.4566758772
 21
705.6228828064
 31
0.0
  0
LINE
  5
1D7
330
1F
100
AcDbEntity
  8
0
  6
Continuous
 62
     7
370
    15
100
AcDbLine
 10
281.4566758772
 20
706.6228828064
 30
0.0
 11
387.4566758772
 21
706.6228828064
 31
0.0
  0
LINE
  5
1D8
330
1F
100
AcDbEntity
  8
0
  6
Continuous
 62
     7
370
    15
100
AcDbLine
 10
175.4566758772
 20
706.6228828064
 30
0.0
 11
281.4566758772
 21
706.6228828064
 31
0.0
  0
LINE
  5
1D9
330
1F
100
AcDbEntity
  8
0
  6
Continuous
 62
     7
370
    15
100
AcDbLine
 10
281.4566758772
 20
704.6228828064
 30
0.0
 11
387.4566758772
 21
704.6228828064
 31
0.0
  0
LINE
  5
1DA
330
1F
100
AcDbEntity
  8
0
  6
Continuous
 62
     7
370
    15
100
AcDbLine
 10
175.4566758772
 20
704.6228828064
 30
0.0
 11
281.4566758772
 21
704.6228828064
 31
0.0
  0
LINE
  5
1DB
330
1F
100
AcDbEntity
  8
0
  6
Continuous
 62
     7
370
    15
100
AcDbLine
 10
387.4566758772
 20
714.6228828064
 30
0.0
 11
175.4566758772
 21
714.6228828064
 31
0.0
  0
LINE
  5
1DC
330
1F
100
AcDbEntity
  8
0
  6
Continuous
 62
     7
370
    15
100
AcDbLine
 10
281.4566758772
 20
696.6228828064
 30
0.0
 11
387.4566758772
 21
696.6228828064
 31
0.0
  0
LINE
  5
1DD
330
1F
100
AcDbEntity
  8
0
  6
Continuous
 62
     7
370
    15
100
AcDbLine
 10
175.4566758772
 20
696.6228828064
 30
0.0
 11
281.4566758772
 21
696.6228828064
 31
0.0
  0
LINE
  5
1DE
330
1F
100
AcDbEntity
  8
0
  6
Continuous
 62
     7
370
    15
100
AcDbLine
 10
281.4566758772
 20
694.6228828064
 30
0.0
 11
177.4566758772
 21
694.6228828064
 31
0.0
  0
LINE
  5
1DF
330
1F
100
AcDbEntity
  8
0
  6
Continuous
 62
     7
370
    15
100
AcDbLine
 10
385.4566758772
 20
694.6228828064
 30
0.0
 11
281.4566758772
 21
694.6228828064
 31
0.0
  0
LINE
  5
1E0
330
1F
100
AcDbEntity
  8
0
  6
Continuous
 62
     7
370
    15
100
AcDbLine
 10
177.4566758772
 20
716.6228828064
 30
0.0
 11
385.4566758772
 21
716.6228828064
 31
0.0
  0
LINE
  5
1E1
330
1F
100
AcDbEntity
  8
0
  6
Continuous
 62
     7
370
    15
100
AcDbLine
 10
272.4566758772
 20
721.6228828064
 30
0.0
 11
272.4566758772
 21
716.6228828064
 31
0.0
  0
LINE
  5
1E2
330
1F
100
AcDbEntity
  8
0
  6
Continuous
 62
     7
370
    15
100
AcDbLine
 10
281.4566758772
 20
721.6228828064
 30
0.0
 11
281.4566758772
 21
716.6228828064
 31
0.0
  0
LINE
  5
1E3
330
1F
100
AcDbEntity
  8
0
  6
Continuous
 62
     7
370
    15
100
AcDbLine
 10
272.4566758772
 20
721.6228828064
 30
0.0
 11
281.4566758772
 21
721.6228828064
 31
0.0
  0
LINE
  5
1E4
330
1F
100
AcDbEntity
  8
0
  6
Continuous
 62
     7
370
    15
100
AcDbLine
 10
290.4566758772
 20
721.6228828064
 30
0.0
 11
290.4566758772
 21
716.6228828064
 31
0.0
  0
LINE
  5
1E5
330
1F
100
AcDbEntity
  8
0
  6
Continuous
 62
     7
370
    15
100
AcDbLine
 10
281.4566758772
 20
721.6228828064
 30
0.0
 11
290.4566758772
 21
721.6228828064
 31
0.0
  0
LINE
  5
1E6
330
1F
100
AcDbEntity
  8
0
  6
Continuous
 62
     7
370
    15
100
AcDbLine
 10
138.4566758772
 20
628.6228828064
 30
0.0
 11
138.4566758772
 21
721.1228828064
 31
0.0
  0
LINE
  5
1E7
330
1F
100
AcDbEntity
  8
0
  6
Continuous
 62
     7
370
    15
100
AcDbLine
 10
138.4566758772
 20
536.1228828064
 30
0.0
 11
138.4566758772
 21
628.6228828064
 31
0.0
  0
LINE
  5
1E8
330
1F
100
AcDbEntity
  8
0
  6
Continuous
 62
     7
370
    15
100
AcDbLine
 10
151.4566758772
 20
628.6228828064
 30
0.0
 11
151.4566758772
 21
721.1228828064
 31
0.0
  0
LINE
  5
1E9
330
1F
100
AcDbEntity
  8
0
  6
Continuous
 62
     7
370
    15
100
AcDbLine
 10
151.4566758772
 20
536.1228828064
 30
0.0
 11
151.4566758772
 21
628.6228828064
 31
0.0
  0
LINE
  5
1EA
330
1F
100
AcDbEntity
  8
0
  6
Continuous
 62
     7
370
    15
100
AcDbLine
 10
156.4566758772
 20
628.6228828064
 30
0.0
 11
156.4566758772
 21
541.1228828064
 31
0.0
  0
LINE
  5
1EB
330
1F
100
AcDbEntity
  8
0
  6
Continuous
 62
     7
370
    15
100
AcDbLine
 10
156.4566758772
 20
716.1228828064
 30
0.0
 11
156.4566758772
 21
628.6228828064
 31
0.0
  0
LINE
  5
1EC
330
1F
100
AcDbEntity
  8
0
  6
Continuous
 62
     7
370
    15
100
AcDbLine
 10
411.4566758772
 20
721.1228828064
 30
0.0
 11
411.4566758772
 21
536.1228828064
 31
0.0
  0
LINE
  5
1ED
330
1F
100
AcDbEntity
  8
0
  6
Continuous
 62
     7
370
    15
100
AcDbLine
 10
424.4566758772
 20
628.6228828064
 30
0.0
 11
424.4566758772
 21
721.1228828064
 31
0.0
  0
LINE
  5
1EE
330
1F
100
AcDbEntity
  8
0
  6
Continuous
 62
     7
370
    15
100
AcDbLine
 10
424.4566758772
 20
536.1228828064
 30
0.0
 11
424.4566758772
 21
628.6228828064
 31
0.0
  0
LINE
  5
1EF
330
1F
100
AcDbEntity
  8
0
  6
Continuous
 62
     7
370
    15
100
AcDbLine
 10
406.4566758772
 20
541.1228828064
 30
0.0
 11
406.4566758772
 21
716.1228828064
 31
0.0
  0
LINE
  5
1F0
330
1F
100
AcDbEntity
  8
0
  6
Continuous
 62
     7
370
    15
100
AcDbLine
 10
281.4566758772
 20
689.6228828064
 30
0.0
 11
196.4566758772
 21
689.6228828064
 31
0.0
  0
LINE
  5
1F1
330
1F
100
AcDbEntity
  8
0
  6
Continuous
 62
     7
370
    15
100
AcDbLine
 10
366.4566758772
 20
689.6228828064
 30
0.0
 11
281.4566758772
 21
689.6228828064
 31
0.0
  0
LINE
  5
1F2
330
1F
100
AcDbEntity
  8
0
  6
Continuous
 62
     7
370
    15
100
AcDbLine
 10
281.4566758772
 20
539.6228828064
 30
0.0
 11
201.4566758772
 21
539.6228828064
 31
0.0
  0
LINE
  5
1F3
330
1F
100
AcDbEntity
  8
0
  6
Continuous
 62
     7
370
    15
100
AcDbLine
 10
361.4566758772
 20
539.6228828064
 30
0.0
 11
281.4566758772
 21
539.6228828064
 31
0.0
  0
LINE
  5
1F4
330
1F
100
AcDbEntity
  8
0
  6
Continuous
 62
     7
370
    15
100
AcDbLine
 10
281.4566758772
 20
544.6228828064
 30
0.0
 11
366.4566758772
 21
544.6228828064
 31
0.0
  0
LINE
  5
1F5
330
1F
100
AcDbEntity
  8
0
  6
Continuous
 62
     7
370
    15
100
AcDbLine
 10
196.4566758772
 20
544.6228828064
 30
0.0
 11
281.4566758772
 21
544.6228828064
 31
0.0
  0
SPLINE
  5
1F6
330
1F
100
AcDbEntity
  8
0
  6
Continuous
 62
     7
370
    15
100
AcDbSpline
210
0.0
220
0.0
230
1.0
 70
     8
 71
     3
 72
    22
 73
    18
 74
     0
 42
0.000000001
 43
0.00000001
 40
0.0
 40
0.0
 40
0.0
 40
0.0
 40
0.0654826252241456
 40
0.1315498660176012
 40
0.1973650020405849
 40
0.2622922248130358
 40
0.3481260690864024
 40
0.4328968193489655
 40
0.5166627777275782
 40
0.5993825249398868
 40
0.6805187193737211
 40
0.7611671367329215
 40
0.8210742550464536
 40
0.8801185982166163
 40
0.939290640772306
 40
0.9986328996961051
 40
1.0
 40
1.0
 40
1.0
 40
1.0
 10
214.4842635224219
 20
628.6228828064376
 30
0.0
 10
214.4447127168117
 20
626.6722198231836
 30
0.0
 10
214.3652580040371
 20
622.7534787340139
 30
0.0
 10
213.7334258143623
 20
616.9498412577552
 30
0.0
 10
212.772972124541
 20
611.3055252510117
 30
0.0
 10
211.3771105640419
 20
605.3104771671589
 30
0.0
 10
209.535804654147
 20
599.1147206678062
 30
0.0
 10
207.2980654305733
 20
592.8968632592392
 30
0.0
 10
204.9847142343837
 20
587.2795239792695
 30
0.0
 10
202.7344201753278
 20
582.3255767153943
 30
0.0
 10
200.6668033588617
 20
578.0885442060882
 30
0.0
 10
199.0409318212531
 20
574.9265966204438
 30
0.0
 10
197.8644006102838
 20
572.7083810384974
 30
0.0
 10
197.063635496849
 20
571.2287270111087
 30
0.0
 10
196.5992173111044
 20
570.3813101213967
 30
0.0
 10
196.4048545455621
 20
570.0287779739085
 30
0.0
 10
196.4591304332599
 20
570.1273401767595
 30
0.0
 10
196.4603526596762
 20
570.1295596766715
 30
0.0
  0
SPLINE
  5
1F7
330
1F
100
AcDbEntity
  8
0
  6
Continuous
 62
     7
370
    15
100
AcDbSpline
210
0.0
220
0.0
230
1.0
 70
     8
 71
     3
 72
    22
 73
    18
 74
     0
 42
0.000000001
 43
0.00000001
 40
0.0
 40
0.0
 40
0.0
 40
0.0
 40
0.0579915247055919
 40
0.1171407444890434
 40
0.1769335958690538
 40
0.2371738423473472
 40
0.3178484820203155
 40
0.3998296286821269
 40
0.4824939742663392
 40
0.5453437097386278
 40
0.6088723673254994
 40
0.6724630196730933
 40
0.7366423030542383
 40
0.8020098672937455
 40
0.8676506045045269
 40
0.9341093926430142
 40
0.9999999999999999
 40
0.9999999999999999
 40
0.9999999999999999
 40
0.9999999999999999
 10
196.4605926649806
 20
687.115763340968
 30
0.0
 10
196.4895445976129
 20
687.0633044284591
 30
0.0
 10
196.5480264354358
 20
686.9573393568805
 30
0.0
 10
197.0468845328896
 20
686.0479407406914
 30
0.0
 10
197.8277888463412
 20
684.605566651936
 30
0.0
 10
199.0068088583011
 20
682.3845654489145
 30
0.0
 10
200.6340091330864
 20
679.2227004947164
 30
0.0
 10
202.7062398853511
 20
674.9804586126419
 30
0.0
 10
204.7730211923147
 20
670.4340090861556
 30
0.0
 10
206.6941882046226
 20
665.8278636473854
 30
0.0
 10
208.401473528148
 20
661.3339176146471
 30
0.0
 10
210.0224160565905
 20
656.5258591582385
 30
0.0
 10
211.4968612055801
 20
651.412563091011
 30
0.0
 10
212.7587818050084
 20
646.0115428779453
 30
0.0
 10
213.726039142472
 20
640.3501331946113
 30
0.0
 10
214.363849346314
 20
634.5286465805791
 30
0.0
 10
214.4442405044439
 20
630.5858285105631
 30
0.0
 10
214.4842635224219
 20
628.6228828064376
 30
0.0
  0
SPLINE
  5
1F8
330
1F
100
AcDbEntity
  8
0
  6
Continuous
 62
     7
370
    15
100
AcDbSpline
210
0.0
220
0.0
230
1.0
 70
     8
 71
     3
 72
    22
 73
    18
 74
     0
 42
0.000000001
 43
0.00000001
 40
0.0
 40
0.0
 40
0.0
 40
0.0
 40
0.0654826252101872
 40
0.1315498660175195
 40
0.1973650020405524
 40
0.2622922248130506
 40
0.3481260690841328
 40
0.4328968192915064
 40
0.5166627777273867
 40
0.5993825249265372
 40
0.6805187193311063
 40
0.7611671367326728
 40
0.821074255046249
 40
0.8801185982164546
 40
0.9392906407767746
 40
0.9986328996961042
 40
1.0
 40
1.0
 40
1.0
 40
1.0
 10
348.4290882320091
 20
628.6228828064376
 30
0.0
 10
348.4686390376498
 20
630.5735457892673
 30
0.0
 10
348.5480937505026
 20
634.4922868784174
 30
0.0
 10
349.179925939959
 20
640.2959243547385
 30
0.0
 10
350.1403796299178
 20
645.9402403618412
 30
0.0
 10
351.5362411902954
 20
651.9352884457347
 30
0.0
 10
353.3775471001952
 20
658.1310449430762
 30
0.0
 10
355.61528632312
 20
664.3489023525228
 30
0.0
 10
357.9286375194684
 20
669.9662416320454
 30
0.0
 10
360.1789315785344
 20
674.9201888965838
 30
0.0
 10
362.2465483952008
 20
679.1572214055385
 30
0.0
 10
363.8724199329151
 20
682.3191689920322
 30
0.0
 10
365.0489511441493
 20
684.5373845743679
 30
0.0
 10
365.8497162576057
 20
686.0170386017828
 30
0.0
 10
366.3141344433201
 20
686.8644554915893
 30
0.0
 10
366.508497208893
 20
687.2169876389761
 30
0.0
 10
366.4542213211698
 20
687.1184254361149
 30
0.0
 10
366.4529990947528
 20
687.1162059362024
 30
0.0
  0
SPLINE
  5
1F9
330
1F
100
AcDbEntity
  8
0
  6
Continuous
 62
     7
370
    15
100
AcDbSpline
210
0.0
220
0.0
230
1.0
 70
     8
 71
     3
 72
    22
 73
    18
 74
     0
 42
0.000000001
 43
0.00000001
 40
0.0
 40
0.0
 40
0.0
 40
0.0
 40
0.0579915247055855
 40
0.1171407444890284
 40
0.1769335958690309
 40
0.2371738423473164
 40
0.3178484820000417
 40
0.3998296286535649
 40
0.4824939742662279
 40
0.5453437097385098
 40
0.6088723673253723
 40
0.6724630196729572
 40
0.7366423030540934
 40
0.8020098672935922
 40
0.8676506045043643
 40
0.9341093926289613
 40
1.0
 40
1.0
 40
1.0
 40
1.0
 10
366.4527590894505
 20
570.1300022719072
 30
0.0
 10
366.4238071568182
 20
570.1824611844162
 30
0.0
 10
366.3653253189952
 20
570.288426255995
 30
0.0
 10
365.8664672215413
 20
571.1978248721833
 30
0.0
 10
365.0855629080902
 20
572.6401989609415
 30
0.0
 10
363.906542896247
 20
574.8612001637282
 30
0.0
 10
362.2793426217265
 20
578.0230651174762
 30
0.0
 10
360.2071118695222
 20
582.2653069992883
 30
0.0
 10
358.1403305623776
 20
586.8117565260937
 30
0.0
 10
356.2191635498084
 20
591.4179019654897
 30
0.0
 10
354.5118782262832
 20
595.9118479982283
 30
0.0
 10
352.8909356978398
 20
600.7199064546367
 30
0.0
 10
351.4164905488535
 20
605.833202521865
 30
0.0
 10
350.1545699494127
 20
611.2342227349275
 30
0.0
 10
349.1873126120645
 20
616.8956324178757
 30
0.0
 10
348.5495024080087
 20
622.7171190318514
 30
0.0
 10
348.4691112499568
 20
626.6599371018864
 30
0.0
 10
348.4290882320091
 20
628.6228828064376
 30
0.0
  0
LINE
  5
1FA
330
1F
100
AcDbEntity
  8
0
  6
Continuous
 62
     7
370
    15
100
AcDbLine
 10
202.4566758772
 20
719.6228828064
 30
0.0
 11
206.0111029726
 21
719.6228828064
 31
0.0
  0
LINE
  5
1FB
330
1F
100
AcDbEntity
  8
0
  6
Continuous
 62
     7
370
    15
100
AcDbLine
 10
226.0874942623
 20
719.6228828064
 30
0.0
 11
272.4566758772
 21
719.6228828064
 31
0.0
  0
LINE
  5
1FC
330
1F
100
AcDbEntity
  8
0
  6
Continuous
 62
     7
370
    15
100
AcDbLine
 10
290.4566758772
 20
719.6228828064
 30
0.0
 11
336.8258574921
 21
719.6228828064
 31
0.0
  0
LINE
  5
1FD
330
1F
100
AcDbEntity
  8
0
  6
Continuous
 62
     7
370
    15
100
AcDbLine
 10
356.9022487818
 20
719.6228828064
 30
0.0
 11
360.4566758772
 21
719.6228828064
 31
0.0
  0
LINE
  5
1FE
330
1F
100
AcDbEntity
  8
0
  6
Continuous
 62
     7
370
    15
100
AcDbLine
 10
362.4566758772
 20
717.6228828064
 30
0.0
 11
356.9022487818
 21
717.6228828064
 31
0.0
  0
LINE
  5
1FF
330
1F
100
AcDbEntity
  8
0
  6
Continuous
 62
     7
370
    15
100
AcDbLine
 10
336.8258574921
 20
717.6228828064
 30
0.0
 11
290.4566758772
 21
717.6228828064
 31
0.0
  0
LINE
  5
200
330
1F
100
AcDbEntity
  8
0
  6
Continuous
 62
     7
370
    15
100
AcDbLine
 10
272.4566758772
 20
717.6228828064
 30
0.0
 11
226.0874942623
 21
717.6228828064
 31
0.0
  0
LINE
  5
201
330
1F
100
AcDbEntity
  8
0
  6
Continuous
 62
     7
370
    15
100
AcDbLine
 10
206.0111029726
 20
717.6228828064
 30
0.0
 11
200.4566758772
 21
717.6228828064
 31
0.0
  0
LINE
  5
202
330
1F
100
AcDbEntity
  8
0
  6
Continuous
 62
     7
370
    15
100
AcDbLine
 10
336.8258574921
 20
721.6228828064
 30
0.0
 11
336.8258574921
 21
716.6228828064
 31
0.0
  0
LINE
  5
203
330
1F
100
AcDbEntity
  8
0
  6
Continuous
 62
     7
370
    15
100
AcDbLine
 10
344.1743267205
 20
721.6228828064
 30
0.0
 11
344.1743267205
 21
716.6228828064
 31
0.0
  0
LINE
  5
204
330
1F
100
AcDbEntity
  8
0
  6
Continuous
 62
     7
370
    15
100
AcDbLine
 10
336.8258574921
 20
721.6228828064
 30
0.0
 11
344.1743267205
 21
721.6228828064
 31
0.0
  0
LINE
  5
205
330
1F
100
AcDbEntity
  8
0
  6
Continuous
 62
     7
370
    15
100
AcDbLine
 10
354.2125223653
 20
721.6228828064
 30
0.0
 11
354.2125223653
 21
716.6228828064
 31
0.0
  0
LINE
  5
206
330
1F
100
AcDbEntity
  8
0
  6
Continuous
 62
     7
370
    15
100
AcDbLine
 10
344.1743267205
 20
721.6228828064
 30
0.0
 11
354.2125223653
 21
721.6228828064
 31
0.0
  0
LINE
  5
207
330
1F
100
AcDbEntity
  8
0
  6
Continuous
 62
     7
370
    15
100
AcDbLine
 10
208.7008293891
 20
721.6228828064
 30
0.0
 11
208.7008293891
 21
716.6228828064
 31
0.0
  0
LINE
  5
208
330
1F
100
AcDbEntity
  8
0
  6
Continuous
 62
     7
370
    15
100
AcDbLine
 10
208.7008293891
 20
721.6228828064
 30
0.0
 11
218.739025034
 21
721.6228828064
 31
0.0
  0
LINE
  5
209
330
1F
100
AcDbEntity
  8
0
  6
Continuous
 62
     7
370
    15
100
AcDbLine
 10
218.739025034
 20
721.6228828064
 30
0.0
 11
218.739025034
 21
716.6228828064
 31
0.0
  0
LINE
  5
20A
330
1F
100
AcDbEntity
  8
0
  6
Continuous
 62
     7
370
    15
100
AcDbLine
 10
218.739025034
 20
721.6228828064
 30
0.0
 11
226.0874942623
 21
721.6228828064
 31
0.0
  0
LINE
  5
20B
330
1F
100
AcDbEntity
  8
0
  6
Continuous
 62
     7
370
    15
100
AcDbLine
 10
226.0874942623
 20
721.6228828064
 30
0.0
 11
226.0874942623
 21
716.6228828064
 31
0.0
  0
LINE
  5
20C
330
1F
100
AcDbEntity
  8
0
  6
Continuous
 62
     7
370
    15
100
AcDbLine
 10
356.9022487818
 20
721.6228828064
 30
0.0
 11
356.9022487818
 21
716.6228828064
 31
0.0
  0
LINE
  5
20D
330
1F
100
AcDbEntity
  8
0
  6
Continuous
 62
     7
370
    15
100
AcDbLine
 10
354.2125223653
 20
721.6228828064
 30
0.0
 11
356.9022487818
 21
721.6228828064
 31
0.0
  0
LINE
  5
20E
330
1F
100
AcDbEntity
  8
0
  6
Continuous
 62
     7
370
    15
100
AcDbLine
 10
206.0111029726
 20
721.6228828064
 30
0.0
 11
206.0111029726
 21
716.6228828064
 31
0.0
  0
LINE
  5
20F
330
1F
100
AcDbEntity
  8
0
  6
Continuous
 62
     7
370
    15
100
AcDbLine
 10
206.0111029726
 20
721.6228828064
 30
0.0
 11
208.7008293891
 21
721.6228828064
 31
0.0
  0
LINE
  5
210
330
1F
100
AcDbEntity
  8
0
  6
Continuous
 62
     7
370
    15
100
AcDbLine
 10
136.4566758772
 20
628.6228828064
 30
0.0
 11
136.4566758772
 21
686.1228828064
 31
0.0
  0
LINE
  5
211
330
1F
100
AcDbEntity
  8
0
  6
Continuous
 62
     7
370
    15
100
AcDbLine
 10
136.4566758772
 20
571.1228828064
 30
0.0
 11
136.4566758772
 21
628.6228828064
 31
0.0
  0
LINE
  5
212
330
1F
100
AcDbEntity
  8
0
  6
Continuous
 62
     7
370
    15
100
AcDbLine
 10
426.4566758772
 20
628.6228828064
 30
0.0
 11
426.4566758772
 21
686.1228828064
 31
0.0
  0
LINE
  5
213
330
1F
100
AcDbEntity
  8
0
  6
Continuous
 62
     7
370
    15
100
AcDbLine
 10
426.4566758772
 20
571.1228828064
 30
0.0
 11
426.4566758772
 21
628.6228828064
 31
0.0
  0
SPLINE
  5
214
330
1F
100
AcDbEntity
  8
0
  6
Continuous
 62
     7
370
    15
100
AcDbSpline
210
0.0
220
0.0
230
1.0
 70
     8
 71
     3
 72
    25
 73
    21
 74
     0
 42
0.000000001
 43
0.00000001
 40
0.0
 40
0.0
 40
0.0
 40
0.0
 40
0.0621349182523246
 40
0.1239985202399705
 40
0.1650744334735748
 40
0.2066229512850363
 40
0.2491964964962246
 40
0.3117277146145929
 40
0.3744760702107333
 40
0.4378883593090029
 40
0.5012560362137318
 40
0.5531794579535654
 40
0.6033826348969482
 40
0.6535251259035103
 40
0.7034985457737023
 40
0.7531377713729445
 40
0.8156765634921097
 40
0.8779055453822308
 40
0.9395629996816303
 40
1.0
 40
1.0
 40
1.0
 40
1.0
 10
206.6051561865622
 20
628.6228828064376
 30
0.0
 10
206.5593803869116
 20
630.2672400645059
 30
0.0
 10
206.4680286706927
 20
633.5487743850036
 30
0.0
 10
205.8305348508765
 20
637.8341150287829
 30
0.0
 10
205.0466062912678
 20
641.4736475424087
 30
0.0
 10
204.210017359574
 20
644.536735985645
 30
0.0
 10
203.0788699759951
 20
648.0021933527927
 30
0.0
 10
201.6071469503269
 20
651.7822863364197
 30
0.0
 10
199.7959863406619
 20
655.7644552412279
 30
0.0
 10
197.8889220037904
 20
659.4859423206098
 30
0.0
 10
196.0685737601647
 20
662.722165947324
 30
0.0
 10
194.4119534600235
 20
665.4782388394556
 30
0.0
 10
192.9411926391629
 20
667.8080014524852
 30
0.0
 10
191.5691904253894
 20
669.8958164678845
 30
0.0
 10
190.3093157716868
 20
671.7505040930014
 30
0.0
 10
189.0905391073476
 20
673.4968199146854
 30
0.0
 10
187.9877559445663
 20
675.0377187247593
 30
0.0
 10
187.1158033656742
 20
676.2323947384594
 30
0.0
 10
186.5588251353957
 20
676.9855666831485
 30
0.0
 10
186.4935408025597
 20
677.0733140311866
 30
0.0
 10
186.4612249266524
 20
677.1167491447461
 30
0.0
  0
SPLINE
  5
215
330
1F
100
AcDbEntity
  8
0
  6
Continuous
 62
     7
370
    15
100
AcDbSpline
210
0.0
220
0.0
230
1.0
 70
     8
 71
     3
 72
    31
 73
    27
 74
     0
 42
0.000000001
 43
0.00000001
 40
0.0
 40
0.0
 40
0.0
 40
0.0
 40
0.0014683513932309
 40
0.0635068356783057
 40
0.1250161097597073
 40
0.1657180580665681
 40
0.2068156257714313
 40
0.2486502772088598
 40
0.2839111187878158
 40
0.3198777263753002
 40
0.3552649187295238
 40
0.3906457064350317
 40
0.4268081970816791
 40
0.4611627288514905
 40
0.4996239889437335
 40
0.5456266305124858
 40
0.5865036804500234
 40
0.6258190728762537
 40
0.6692585526161199
 40
0.7108533947536293
 40
0.7519059765076673
 40
0.7941668089089766
 40
0.8356265430336899
 40
0.8767911285301878
 40
0.9385004106783922
 40
1.0
 40
1.0
 40
1.0
 40
1.0
 10
186.4609134672397
 20
580.1285964031015
 30
0.0
 10
186.4595029451853
 20
580.1266945614143
 30
0.0
 10
186.3984972535389
 20
580.0444390821964
 30
0.0
 10
186.6164941250391
 20
580.3378397973257
 30
0.0
 10
187.0759176510294
 20
580.959676324753
 30
0.0
 10
187.7227298856554
 20
581.8449955088603
 30
0.0
 10
188.4100938941516
 20
582.7970036177986
 30
0.0
 10
189.1875146973281
 20
583.8899749845184
 30
0.0
 10
190.0240467698262
 20
585.0861721150599
 30
0.0
 10
190.8844250504517
 20
586.3395490645092
 30
0.0
 10
191.8077213076491
 20
587.7133531183237
 30
0.0
 10
192.7843746066587
 20
589.2021837915245
 30
0.0
 10
193.7932221497338
 20
590.7841385571496
 30
0.0
 10
194.8642139407065
 20
592.5161535684529
 30
0.0
 10
196.0562587261139
 20
594.5179154766926
 30
0.0
 10
197.3300336515434
 20
596.7630615762552
 30
0.0
 10
198.6083507977795
 20
599.157006251662
 30
0.0
 10
199.8419006909654
 20
601.6197868581095
 30
0.0
 10
201.0436940383596
 20
604.2171640350186
 30
0.0
 10
202.2013375663355
 20
606.9726720565734
 30
0.0
 10
203.267495385851
 20
609.8167715252001
 30
0.0
 10
204.2275092100809
 20
612.7683501974863
 30
0.0
 10
205.0598802404998
 20
615.8260604958183
 30
0.0
 10
205.8398262823963
 20
619.4642556501764
 30
0.0
 10
206.4703679082672
 20
623.7336668231001
 30
0.0
 10
206.5602777672143
 20
626.9949943286085
 30
0.0
 10
206.6051561865622
 20
628.6228828064376
 30
0.0
  0
SPLINE
  5
216
330
1F
100
AcDbEntity
  8
0
  6
Continuous
 62
     7
370
    15
100
AcDbSpline
210
0.0
220
0.0
230
1.0
 70
     8
 71
     3
 72
    25
 73
    21
 74
     0
 42
0.000000001
 43
0.00000001
 40
0.0
 40
0.0
 40
0.0
 40
0.0
 40
0.062134918252326
 40
0.1239985202399738
 40
0.1650744334471858
 40
0.2066229512709022
 40
0.2491964964962496
 40
0.3117277146146191
 40
0.3744760702107613
 40
0.4378883593090321
 40
0.501256036213764
 40
0.5531794578353685
 40
0.6033826350717872
 40
0.6535251259758341
 40
0.7034985457678382
 40
0.7531377713729752
 40
0.8156765634921421
 40
0.8779055453822648
 40
0.9395629996816659
 40
1.0
 40
1.0
 40
1.0
 40
1.0
 10
356.3081955678688
 20
628.6228828064376
 30
0.0
 10
356.3539713675162
 20
626.9785255483688
 30
0.0
 10
356.4453230837287
 20
623.6969912278697
 30
0.0
 10
357.0828169034858
 20
619.4116505847836
 30
0.0
 10
357.8667454628477
 20
615.7721180714648
 30
0.0
 10
358.7033343945946
 20
612.7090296282073
 30
0.0
 10
359.8344817782933
 20
609.2435722603961
 30
0.0
 10
361.306204804111
 20
605.4634792764575
 30
0.0
 10
363.1173654137636
 20
601.4813103716457
 30
0.0
 10
365.0244297506566
 20
597.7598232922707
 30
0.0
 10
366.8447779930084
 20
594.5235996676751
 30
0.0
 10
368.5013982951405
 20
591.7675267724535
 30
0.0
 10
369.9721591166081
 20
589.4377641583716
 30
0.0
 10
371.344161330883
 20
587.3499491419146
 30
0.0
 10
372.6040359832907
 20
585.4952615191734
 30
0.0
 10
373.8228126470287
 20
583.7489456982387
 30
0.0
 10
374.9255958098699
 20
582.2080468881169
 30
0.0
 10
375.7975483887556
 20
581.0133708744156
 30
0.0
 10
376.3545266190355
 20
580.2601989297269
 30
0.0
 10
376.4198109518714
 20
580.1724515816887
 30
0.0
 10
376.4521268277785
 20
580.1290164681292
 30
0.0
  0
SPLINE
  5
217
330
1F
100
AcDbEntity
  8
0
  6
Continuous
 62
     7
370
    15
100
AcDbSpline
210
0.0
220
0.0
230
1.0
 70
     8
 71
     3
 72
    31
 73
    27
 74
     0
 42
0.000000001
 43
0.00000001
 40
0.0
 40
0.0
 40
0.0
 40
0.0
 40
0.0014683513932307
 40
0.063506835678315
 40
0.1250161097597265
 40
0.1657180581094112
 40
0.2068156258773424
 40
0.2486502772089587
 40
0.2839111188194837
 40
0.3198777263815287
 40
0.3552649187398538
 40
0.3906457065765703
 40
0.4268081971666534
 40
0.4611627290079645
 40
0.4996239889438772
 40
0.5456266329261849
 40
0.5865036801079079
 40
0.6258190728761769
 40
0.6692585525286092
 40
0.710853394658192
 40
0.7519059765076055
 40
0.7941668088297082
 40
0.8356265429857324
 40
0.8767911285301693
 40
0.9385004106783823
 40
1.0
 40
1.0
 40
1.0
 40
1.0
 10
376.4524382871913
 20
677.1171692097737
 30
0.0
 10
376.4538488092456
 20
677.1190710514609
 30
0.0
 10
376.5148545008921
 20
677.2013265306791
 30
0.0
 10
376.2968576294667
 20
676.9079258155468
 30
0.0
 10
375.8374341030591
 20
676.2860892879675
 30
0.0
 10
375.1906218686011
 20
675.4007701030378
 30
0.0
 10
374.5032578589415
 20
674.4487619938067
 30
0.0
 10
373.7258370562487
 20
673.3557906269332
 30
0.0
 10
372.8893049841407
 20
672.1595934974176
 30
0.0
 10
372.0289267036276
 20
670.9062165477561
 30
0.0
 10
371.1056304454774
 20
669.5324124924945
 30
0.0
 10
370.1289771455478
 20
668.043581817976
 30
0.0
 10
369.1201296012258
 20
666.4616270497768
 30
0.0
 10
368.0491378110596
 20
664.7296120404853
 30
0.0
 10
366.8570930025138
 20
662.727850092747
 30
0.0
 10
365.5833180820721
 20
660.4827039980647
 30
0.0
 10
364.3050009356867
 20
658.088759319922
 30
0.0
 10
363.0714510677392
 20
655.6259787636117
 30
0.0
 10
361.8696577178272
 20
653.0286015817213
 30
0.0
 10
360.7120141896922
 20
650.2730935604262
 30
0.0
 10
359.6458563699886
 20
647.428994091733
 30
0.0
 10
358.6858425453048
 20
644.4774154184338
 30
0.0
 10
357.8534715145862
 20
641.4197051202646
 30
0.0
 10
357.0735254722448
 20
637.7815099639367
 30
0.0
 10
356.4429838461564
 20
633.5120987897772
 30
0.0
 10
356.3530739872143
 20
630.2507712842674
 30
0.0
 10
356.3081955678689
 20
628.6228828064376
 30
0.0
  0
LINE
  5
218
330
1F
100
AcDbEntity
  8
0
  6
Continuous
 62
     7
370
    15
100
AcDbLine
 10
379.1528282999
 20
721.6228828064
 30
0.0
 11
379.1528282999
 21
716.6228828064
 31
0.0
  0
LINE
  5
219
330
1F
100
AcDbEntity
  8
0
  6
Continuous
 62
     7
370
    15
100
AcDbLine
 10
379.1528282999
 20
721.6228828064
 30
0.0
 11
384.3489807226
 21
721.6228828064
 31
0.0
  0
LINE
  5
21A
330
1F
100
AcDbEntity
  8
0
  6
Continuous
 62
     7
370
    15
100
AcDbLine
 10
384.3489807226
 20
721.6228828064
 30
0.0
 11
384.3489807226
 21
716.6228828064
 31
0.0
  0
LINE
  5
21B
330
1F
100
AcDbEntity
  8
0
  6
Continuous
 62
     7
370
    15
100
AcDbLine
 10
368.7605234545
 20
721.6228828064
 30
0.0
 11
368.7605234545
 21
716.6228828064
 31
0.0
  0
LINE
  5
21C
330
1F
100
AcDbEntity
  8
0
  6
Continuous
 62
     7
370
    15
100
AcDbLine
 10
368.7605234545
 20
721.6228828064
 30
0.0
 11
379.1528282999
 21
721.6228828064
 31
0.0
  0
LINE
  5
21D
330
1F
100
AcDbEntity
  8
0
  6
Continuous
 62
     7
370
    15
100
AcDbLine
 10
363.5643710318
 20
721.6228828064
 30
0.0
 11
363.5643710318
 21
716.6228828064
 31
0.0
  0
LINE
  5
21E
330
1F
100
AcDbEntity
  8
0
  6
Continuous
 62
     7
370
    15
100
AcDbLine
 10
363.5643710318
 20
721.6228828064
 30
0.0
 11
368.7605234545
 21
721.6228828064
 31
0.0
  0
LINE
  5
21F
330
1F
100
AcDbEntity
  8
0
  6
Continuous
 62
     7
370
    15
100
AcDbLine
 10
178.5643710318
 20
721.6228828064
 30
0.0
 11
178.5643710318
 21
716.6228828064
 31
0.0
  0
LINE
  5
220
330
1F
100
AcDbEntity
  8
0
  6
Continuous
 62
     7
370
    15
100
AcDbLine
 10
178.5643710318
 20
721.6228828064
 30
0.0
 11
183.7605234545
 21
721.6228828064
 31
0.0
  0
LINE
  5
221
330
1F
100
AcDbEntity
  8
0
  6
Continuous
 62
     7
370
    15
100
AcDbLine
 10
183.7605234545
 20
721.6228828064
 30
0.0
 11
183.7605234545
 21
716.6228828064
 31
0.0
  0
LINE
  5
222
330
1F
100
AcDbEntity
  8
0
  6
Continuous
 62
     7
370
    15
100
AcDbLine
 10
194.1528282999
 20
721.6228828064
 30
0.0
 11
194.1528282999
 21
716.6228828064
 31
0.0
  0
LINE
  5
223
330
1F
100
AcDbEntity
  8
0
  6
Continuous
 62
     7
370
    15
100
AcDbLine
 10
183.7605234545
 20
721.6228828064
 30
0.0
 11
194.1528282999
 21
721.6228828064
 31
0.0
  0
LINE
  5
224
330
1F
100
AcDbEntity
  8
0
  6
Continuous
 62
     7
370
    15
100
AcDbLine
 10
199.3489807226
 20
721.6228828064
 30
0.0
 11
199.3489807226
 21
716.6228828064
 31
0.0
  0
LINE
  5
225
330
1F
100
AcDbEntity
  8
0
  6
Continuous
 62
     7
370
    15
100
AcDbLine
 10
194.1528282999
 20
721.6228828064
 30
0.0
 11
199.3489807226
 21
721.6228828064
 31
0.0
  0
LINE
  5
226
330
1F
100
AcDbEntity
  8
0
  6
Continuous
 62
     8
370
    15
100
AcDbLine
 10
396.4566758772
 20
580.1228828064
 30
0.0
 11
396.4566758772
 21
677.1228828064
 31
0.0
  0
LINE
  5
227
330
1F
100
AcDbEntity
  8
0
  6
Continuous
 62
     8
370
    15
100
AcDbLine
 10
166.4566758772
 20
628.6228828064
 30
0.0
 11
166.4566758772
 21
580.1228828064
 31
0.0
  0
LINE
  5
228
330
1F
100
AcDbEntity
  8
0
  6
Continuous
 62
     8
370
    15
100
AcDbLine
 10
166.4566758772
 20
677.1228828064
 30
0.0
 11
166.4566758772
 21
628.6228828064
 31
0.0
  0
LINE
  5
229
330
1F
100
AcDbEntity
  8
0
  6
Continuous
 62
     7
370
    15
100
AcDbLine
 10
718.381939675
 20
706.6228828064
 30
0.0
 11
719.381939675
 21
705.6228828064
 31
0.0
  0
LINE
  5
22A
330
1F
100
AcDbEntity
  8
0
  6
Continuous
 62
     7
370
    15
100
AcDbLine
 10
929.381939675
 20
705.6228828064
 30
0.0
 11
930.381939675
 21
706.6228828064
 31
0.0
  0
LINE
  5
22B
330
1F
100
AcDbEntity
  8
0
  6
Continuous
 62
     7
370
    15
100
AcDbLine
 10
930.381939675
 20
696.6228828064
 30
0.0
 11
930.381939675
 21
704.6228828064
 31
0.0
  0
LINE
  5
22C
330
1F
100
AcDbEntity
  8
0
  6
Continuous
 62
     7
370
    15
100
AcDbLine
 10
718.381939675
 20
704.6228828064
 30
0.0
 11
718.381939675
 21
696.6228828064
 31
0.0
  0
LINE
  5
22D
330
1F
100
AcDbEntity
  8
0
  6
Continuous
 62
     7
370
    15
100
AcDbLine
 10
718.381939675
 20
696.6228828064
 30
0.0
 11
720.381939675
 21
694.6228828064
 31
0.0
  0
LINE
  5
22E
330
1F
100
AcDbEntity
  8
0
  6
Continuous
 62
     7
370
    15
100
AcDbLine
 10
928.381939675
 20
694.6228828064
 30
0.0
 11
930.381939675
 21
696.6228828064
 31
0.0
  0
LINE
  5
22F
330
1F
100
AcDbEntity
  8
0
  6
Continuous
 62
     7
370
    15
100
AcDbLine
 10
930.381939675
 20
714.6228828064
 30
0.0
 11
928.381939675
 21
716.6228828064
 31
0.0
  0
LINE
  5
230
330
1F
100
AcDbEntity
  8
0
  6
Continuous
 62
     7
370
    15
100
AcDbLine
 10
720.381939675
 20
716.6228828064
 30
0.0
 11
718.381939675
 21
714.6228828064
 31
0.0
  0
LINE
  5
231
330
1F
100
AcDbEntity
  8
0
  6
Continuous
 62
     7
370
    15
100
AcDbLine
 10
930.381939675
 20
704.6228828064
 30
0.0
 11
929.381939675
 21
705.6228828064
 31
0.0
  0
LINE
  5
232
330
1F
100
AcDbEntity
  8
0
  6
Continuous
 62
     7
370
    15
100
AcDbLine
 10
719.381939675
 20
705.6228828064
 30
0.0
 11
718.381939675
 21
704.6228828064
 31
0.0
  0
LINE
  5
233
330
1F
100
AcDbEntity
  8
0
  6
Continuous
 62
     7
370
    15
100
AcDbLine
 10
930.381939675
 20
706.6228828064
 30
0.0
 11
930.381939675
 21
714.6228828064
 31
0.0
  0
LINE
  5
234
330
1F
100
AcDbEntity
  8
0
  6
Continuous
 62
     7
370
    15
100
AcDbLine
 10
718.381939675
 20
714.6228828064
 30
0.0
 11
718.381939675
 21
706.6228828064
 31
0.0
  0
LINE
  5
235
330
1F
100
AcDbEntity
  8
0
  6
Continuous
 62
     7
370
    15
100
AcDbLine
 10
734.381939675
 20
694.6228828064
 30
0.0
 11
739.381939675
 21
689.6228828064
 31
0.0
  0
LINE
  5
236
330
1F
100
AcDbEntity
  8
0
  6
Continuous
 62
     7
370
    15
100
AcDbLine
 10
909.381939675
 20
689.6228828064
 30
0.0
 11
914.381939675
 21
694.6228828064
 31
0.0
  0
LINE
  5
237
330
1F
100
AcDbEntity
  8
0
  6
Continuous
 62
     7
370
    15
100
AcDbLine
 10
909.381939675
 20
544.6228828064
 30
0.0
 11
909.381939675
 21
592.1365840081
 31
0.0
  0
LINE
  5
238
330
1F
100
AcDbEntity
  8
0
  6
Continuous
 62
     7
370
    15
100
AcDbLine
 10
909.381939675
 20
665.1091816048
 30
0.0
 11
909.381939675
 21
689.6228828064
 31
0.0
  0
LINE
  5
239
330
1F
100
AcDbEntity
  8
0
  6
Continuous
 62
     7
370
    15
100
AcDbLine
 10
739.381939675
 20
689.6228828064
 30
0.0
 11
739.381939675
 21
665.1091816048
 31
0.0
  0
LINE
  5
23A
330
1F
100
AcDbEntity
  8
0
  6
Continuous
 62
     7
370
    15
100
AcDbLine
 10
739.381939675
 20
592.1365840081
 30
0.0
 11
739.381939675
 21
544.6228828064
 31
0.0
  0
LINE
  5
23B
330
1F
100
AcDbEntity
  8
0
  6
Continuous
 62
     7
370
    15
100
AcDbLine
 10
739.381939675
 20
544.6228828064
 30
0.0
 11
744.381939675
 21
539.6228828064
 31
0.0
  0
LINE
  5
23C
330
1F
100
AcDbEntity
  8
0
  6
Continuous
 62
     7
370
    15
100
AcDbLine
 10
904.381939675
 20
539.6228828064
 30
0.0
 11
909.381939675
 21
544.6228828064
 31
0.0
  0
LINE
  5
23D
330
1F
100
AcDbEntity
  8
0
  6
Continuous
 62
     7
370
    15
100
AcDbLine
 10
905.381939675
 20
717.6228828064
 30
0.0
 11
903.381939675
 21
719.6228828064
 31
0.0
  0
LINE
  5
23E
330
1F
100
AcDbEntity
  8
0
  6
Continuous
 62
     7
370
    15
100
AcDbLine
 10
745.381939675
 20
719.6228828064
 30
0.0
 11
743.381939675
 21
717.6228828064
 31
0.0
  0
LINE
  5
23F
330
1F
100
AcDbEntity
  8
0
  6
Continuous
 62
     7
370
    15
100
AcDbLine
 10
743.381939675
 20
717.6228828064
 30
0.0
 11
743.381939675
 21
716.6228828064
 31
0.0
  0
LINE
  5
240
330
1F
100
AcDbEntity
  8
0
  6
Continuous
 62
     7
370
    15
100
AcDbLine
 10
905.381939675
 20
716.6228828064
 30
0.0
 11
905.381939675
 21
717.6228828064
 31
0.0
  0
CIRCLE
  5
241
330
1F
100
AcDbEntity
  8
0
  6
Continuous
 62
     7
370
    15
100
AcDbCircle
 10
824.381939675
 20
628.6228828064
 30
0.0
 40
40.5
  0
CIRCLE
  5
242
330
1F
100
AcDbEntity
  8
0
  6
Continuous
 62
     7
370
    15
100
AcDbCircle
 10
824.381939675
 20
628.6228828064
 30
0.0
 40
57.5
  0
CIRCLE
  5
243
330
1F
100
AcDbEntity
  8
0
  6
Continuous
 62
     7
370
    15
100
AcDbCircle
 10
824.381939675
 20
628.6228828064
 30
0.0
 40
38.5
  0
CIRCLE
  5
244
330
1F
100
AcDbEntity
  8
0
  6
Continuous
 62
     7
370
    15
100
AcDbCircle
 10
875.647181311
 20
679.8881244425
 30
0.0
 40
9.0
  0
CIRCLE
  5
245
330
1F
100
AcDbEntity
  8
0
  6
Continuous
 62
     7
370
    15
100
AcDbCircle
 10
875.647181311
 20
577.3576411704
 30
0.0
 40
9.0
  0
CIRCLE
  5
246
330
1F
100
AcDbEntity
  8
0
  6
Continuous
 62
     7
370
    15
100
AcDbCircle
 10
773.116698039
 20
577.3576411704
 30
0.0
 40
9.0
  0
CIRCLE
  5
247
330
1F
100
AcDbEntity
  8
0
  6
Continuous
 62
     7
370
    15
100
AcDbCircle
 10
773.116698039
 20
679.8881244425
 30
0.0
 40
9.0
  0
CIRCLE
  5
248
330
1F
100
AcDbEntity
  8
0
  6
Continuous
 62
     7
370
    15
100
AcDbCircle
 10
824.381939675
 20
628.6228828064
 30
0.0
 40
92.5
  0
LINE
  5
249
330
1F
100
AcDbEntity
  8
0
  6
Continuous
 62
     7
370
    15
100
AcDbLine
 10
719.381939675
 20
705.6228828064
 30
0.0
 11
773.1252327968
 21
705.6228828064
 31
0.0
  0
LINE
  5
24A
330
1F
100
AcDbEntity
  8
0
  6
Continuous
 62
     7
370
    15
100
AcDbLine
 10
875.6386465532
 20
705.6228828064
 30
0.0
 11
929.381939675
 21
705.6228828064
 31
0.0
  0
LINE
  5
24B
330
1F
100
AcDbEntity
  8
0
  6
Continuous
 62
     7
370
    15
100
AcDbLine
 10
718.381939675
 20
706.6228828064
 30
0.0
 11
774.6602140412
 21
706.6228828064
 31
0.0
  0
LINE
  5
24C
330
1F
100
AcDbEntity
  8
0
  6
Continuous
 62
     7
370
    15
100
AcDbLine
 10
874.1036653088
 20
706.6228828064
 30
0.0
 11
930.381939675
 21
706.6228828064
 31
0.0
  0
LINE
  5
24D
330
1F
100
AcDbEntity
  8
0
  6
Continuous
 62
     7
370
    15
100
AcDbLine
 10
718.381939675
 20
704.6228828064
 30
0.0
 11
771.6538636623
 21
704.6228828064
 31
0.0
  0
LINE
  5
24E
330
1F
100
AcDbEntity
  8
0
  6
Continuous
 62
     7
370
    15
100
AcDbLine
 10
877.1100156877
 20
704.6228828064
 30
0.0
 11
930.381939675
 21
704.6228828064
 31
0.0
  0
LINE
  5
24F
330
1F
100
AcDbEntity
  8
0
  6
Continuous
 62
     7
370
    15
100
AcDbLine
 10
718.381939675
 20
696.6228828064
 30
0.0
 11
761.6742846399
 21
696.6228828064
 31
0.0
  0
LINE
  5
250
330
1F
100
AcDbEntity
  8
0
  6
Continuous
 62
     7
370
    15
100
AcDbLine
 10
887.0895947101
 20
696.6228828064
 30
0.0
 11
930.381939675
 21
696.6228828064
 31
0.0
  0
LINE
  5
251
330
1F
100
AcDbEntity
  8
0
  6
Continuous
 62
     7
370
    15
100
AcDbLine
 10
928.381939675
 20
694.6228828064
 30
0.0
 11
889.1912754223
 21
694.6228828064
 31
0.0
  0
LINE
  5
252
330
1F
100
AcDbEntity
  8
0
  6
Continuous
 62
     7
370
    15
100
AcDbLine
 10
759.5726039278
 20
694.6228828064
 30
0.0
 11
720.381939675
 21
694.6228828064
 31
0.0
  0
LINE
  5
253
330
1F
100
AcDbEntity
  8
0
  6
Continuous
 62
     7
370
    15
100
AcDbLine
 10
720.381939675
 20
716.6228828064
 30
0.0
 11
795.881939675
 21
716.6228828064
 31
0.0
  0
LINE
  5
254
330
1F
100
AcDbEntity
  8
0
  6
Continuous
 62
     7
370
    15
100
AcDbLine
 10
852.881939675
 20
716.6228828064
 30
0.0
 11
928.381939675
 21
716.6228828064
 31
0.0
  0
LINE
  5
255
330
1F
100
AcDbEntity
  8
0
  6
Continuous
 62
     7
370
    15
100
AcDbLine
 10
930.381939675
 20
714.6228828064
 30
0.0
 11
858.4443823355
 21
714.6228828064
 31
0.0
  0
LINE
  5
256
330
1F
100
AcDbEntity
  8
0
  6
Continuous
 62
     7
370
    15
100
AcDbLine
 10
790.3194970145
 20
714.6228828064
 30
0.0
 11
718.381939675
 21
714.6228828064
 31
0.0
  0
LINE
  5
257
330
1F
100
AcDbEntity
  8
0
  6
Continuous
 62
     7
370
    15
100
AcDbLine
 10
815.381939675
 20
721.6228828064
 30
0.0
 11
815.381939675
 21
720.6840038077
 31
0.0
  0
LINE
  5
258
330
1F
100
AcDbEntity
  8
0
  6
Continuous
 62
     7
370
    15
100
AcDbLine
 10
824.381939675
 20
721.6228828064
 30
0.0
 11
824.381939675
 21
721.1228828064
 31
0.0
  0
LINE
  5
259
330
1F
100
AcDbEntity
  8
0
  6
Continuous
 62
     7
370
    15
100
AcDbLine
 10
815.381939675
 20
721.6228828064
 30
0.0
 11
824.381939675
 21
721.6228828064
 31
0.0
  0
LINE
  5
25A
330
1F
100
AcDbEntity
  8
0
  6
Continuous
 62
     7
370
    15
100
AcDbLine
 10
833.381939675
 20
721.6228828064
 30
0.0
 11
833.381939675
 21
720.6840038077
 31
0.0
  0
LINE
  5
25B
330
1F
100
AcDbEntity
  8
0
  6
Continuous
 62
     7
370
    15
100
AcDbLine
 10
824.381939675
 20
721.6228828064
 30
0.0
 11
833.381939675
 21
721.6228828064
 31
0.0
  0
LINE
  5
25C
330
1F
100
AcDbEntity
  8
0
  6
Continuous
 62
     7
370
    15
100
AcDbLine
 10
909.381939675
 20
689.6228828064
 30
0.0
 11
893.917901594
 21
689.6228828064
 31
0.0
  0
LINE
  5
25D
330
1F
100
AcDbEntity
  8
0
  6
Continuous
 62
     7
370
    15
100
AcDbLine
 10
754.845977756
 20
689.6228828064
 30
0.0
 11
739.381939675
 21
689.6228828064
 31
0.0
  0
LINE
  5
25E
330
1F
100
AcDbEntity
  8
0
  6
Continuous
 62
     7
370
    15
100
AcDbLine
 10
739.381939675
 20
544.6228828064
 30
0.0
 11
785.6488788613
 21
544.6228828064
 31
0.0
  0
LINE
  5
25F
330
1F
100
AcDbEntity
  8
0
  6
Continuous
 62
     7
370
    15
100
AcDbLine
 10
863.1150004887
 20
544.6228828064
 30
0.0
 11
909.381939675
 21
544.6228828064
 31
0.0
  0
LINE
  5
260
330
1F
100
AcDbEntity
  8
0
  6
Continuous
 62
     7
370
    15
100
AcDbLine
 10
904.381939675
 20
539.6228828064
 30
0.0
 11
849.5861059973
 21
539.6228828064
 31
0.0
  0
LINE
  5
261
330
1F
100
AcDbEntity
  8
0
  6
Continuous
 62
     7
370
    15
100
AcDbLine
 10
799.1777733528
 20
539.6228828064
 30
0.0
 11
744.381939675
 21
539.6228828064
 31
0.0
  0
LINE
  5
262
330
1F
100
AcDbEntity
  8
0
  6
Continuous
 62
     7
370
    15
100
AcDbLine
 10
745.381939675
 20
719.6228828064
 30
0.0
 11
748.9363667704
 21
719.6228828064
 31
0.0
  0
LINE
  5
263
330
1F
100
AcDbEntity
  8
0
  6
Continuous
 62
     7
370
    15
100
AcDbLine
 10
769.0127580601
 20
719.6228828064
 30
0.0
 11
807.791279652
 21
719.6228828064
 31
0.0
  0
LINE
  5
264
330
1F
100
AcDbEntity
  8
0
  6
Continuous
 62
     7
370
    15
100
AcDbLine
 10
840.9725996981
 20
719.6228828064
 30
0.0
 11
879.7511212899
 21
719.6228828064
 31
0.0
  0
LINE
  5
265
330
1F
100
AcDbEntity
  8
0
  6
Continuous
 62
     7
370
    15
100
AcDbLine
 10
899.8275125796
 20
719.6228828064
 30
0.0
 11
903.381939675
 21
719.6228828064
 31
0.0
  0
LINE
  5
266
330
1F
100
AcDbEntity
  8
0
  6
Continuous
 62
     7
370
    15
100
AcDbLine
 10
905.381939675
 20
717.6228828064
 30
0.0
 11
899.8275125796
 21
717.6228828064
 31
0.0
  0
LINE
  5
267
330
1F
100
AcDbEntity
  8
0
  6
Continuous
 62
     7
370
    15
100
AcDbLine
 10
879.7511212899
 20
717.6228828064
 30
0.0
 11
849.5861059973
 21
717.6228828064
 31
0.0
  0
LINE
  5
268
330
1F
100
AcDbEntity
  8
0
  6
Continuous
 62
     7
370
    15
100
AcDbLine
 10
799.1777733528
 20
717.6228828064
 30
0.0
 11
769.0127580601
 21
717.6228828064
 31
0.0
  0
LINE
  5
269
330
1F
100
AcDbEntity
  8
0
  6
Continuous
 62
     7
370
    15
100
AcDbLine
 10
748.9363667704
 20
717.6228828064
 30
0.0
 11
743.381939675
 21
717.6228828064
 31
0.0
  0
LINE
  5
26A
330
1F
100
AcDbEntity
  8
0
  6
Continuous
 62
     7
370
    15
100
AcDbLine
 10
879.7511212899
 20
721.6228828064
 30
0.0
 11
879.7511212899
 21
716.6228828064
 31
0.0
  0
LINE
  5
26B
330
1F
100
AcDbEntity
  8
0
  6
Continuous
 62
     7
370
    15
100
AcDbLine
 10
887.0995905183
 20
721.6228828064
 30
0.0
 11
887.0995905183
 21
716.6228828064
 31
0.0
  0
LINE
  5
26C
330
1F
100
AcDbEntity
  8
0
  6
Continuous
 62
     7
370
    15
100
AcDbLine
 10
879.7511212899
 20
721.6228828064
 30
0.0
 11
887.0995905183
 21
721.6228828064
 31
0.0
  0
LINE
  5
26D
330
1F
100
AcDbEntity
  8
0
  6
Continuous
 62
     7
370
    15
100
AcDbLine
 10
897.1377861631
 20
721.6228828064
 30
0.0
 11
897.1377861631
 21
716.6228828064
 31
0.0
  0
LINE
  5
26E
330
1F
100
AcDbEntity
  8
0
  6
Continuous
 62
     7
370
    15
100
AcDbLine
 10
887.0995905183
 20
721.6228828064
 30
0.0
 11
897.1377861631
 21
721.6228828064
 31
0.0
  0
LINE
  5
26F
330
1F
100
AcDbEntity
  8
0
  6
Continuous
 62
     7
370
    15
100
AcDbLine
 10
751.6260931869
 20
721.6228828064
 30
0.0
 11
751.6260931869
 21
716.6228828064
 31
0.0
  0
LINE
  5
270
330
1F
100
AcDbEntity
  8
0
  6
Continuous
 62
     7
370
    15
100
AcDbLine
 10
761.6642888318
 20
721.6228828064
 30
0.0
 11
761.6642888318
 21
716.6228828064
 31
0.0
  0
LINE
  5
271
330
1F
100
AcDbEntity
  8
0
  6
Continuous
 62
     7
370
    15
100
AcDbLine
 10
751.6260931869
 20
721.6228828064
 30
0.0
 11
761.6642888318
 21
721.6228828064
 31
0.0
  0
LINE
  5
272
330
1F
100
AcDbEntity
  8
0
  6
Continuous
 62
     7
370
    15
100
AcDbLine
 10
769.0127580601
 20
721.6228828064
 30
0.0
 11
769.0127580601
 21
716.6228828064
 31
0.0
  0
LINE
  5
273
330
1F
100
AcDbEntity
  8
0
  6
Continuous
 62
     7
370
    15
100
AcDbLine
 10
761.6642888318
 20
721.6228828064
 30
0.0
 11
769.0127580601
 21
721.6228828064
 31
0.0
  0
LINE
  5
274
330
1F
100
AcDbEntity
  8
0
  6
Continuous
 62
     7
370
    15
100
AcDbLine
 10
899.8275125796
 20
721.6228828064
 30
0.0
 11
899.8275125796
 21
716.6228828064
 31
0.0
  0
LINE
  5
275
330
1F
100
AcDbEntity
  8
0
  6
Continuous
 62
     7
370
    15
100
AcDbLine
 10
897.1377861631
 20
721.6228828064
 30
0.0
 11
899.8275125796
 21
721.6228828064
 31
0.0
  0
LINE
  5
276
330
1F
100
AcDbEntity
  8
0
  6
Continuous
 62
     7
370
    15
100
AcDbLine
 10
748.9363667704
 20
721.6228828064
 30
0.0
 11
748.9363667704
 21
716.6228828064
 31
0.0
  0
LINE
  5
277
330
1F
100
AcDbEntity
  8
0
  6
Continuous
 62
     7
370
    15
100
AcDbLine
 10
748.9363667704
 20
721.6228828064
 30
0.0
 11
751.6260931869
 21
721.6228828064
 31
0.0
  0
LINE
  5
278
330
1F
100
AcDbEntity
  8
0
  6
Continuous
 62
     7
370
    15
100
AcDbLine
 10
911.6857872523
 20
721.6228828064
 30
0.0
 11
911.6857872523
 21
716.6228828064
 31
0.0
  0
LINE
  5
279
330
1F
100
AcDbEntity
  8
0
  6
Continuous
 62
     7
370
    15
100
AcDbLine
 10
922.0780920977
 20
721.6228828064
 30
0.0
 11
922.0780920977
 21
716.6228828064
 31
0.0
  0
LINE
  5
27A
330
1F
100
AcDbEntity
  8
0
  6
Continuous
 62
     7
370
    15
100
AcDbLine
 10
911.6857872523
 20
721.6228828064
 30
0.0
 11
922.0780920977
 21
721.6228828064
 31
0.0
  0
LINE
  5
27B
330
1F
100
AcDbEntity
  8
0
  6
Continuous
 62
     7
370
    15
100
AcDbLine
 10
927.2742445204
 20
721.6228828064
 30
0.0
 11
927.2742445204
 21
716.6228828064
 31
0.0
  0
LINE
  5
27C
330
1F
100
AcDbEntity
  8
0
  6
Continuous
 62
     7
370
    15
100
AcDbLine
 10
922.0780920977
 20
721.6228828064
 30
0.0
 11
927.2742445204
 21
721.6228828064
 31
0.0
  0
LINE
  5
27D
330
1F
100
AcDbEntity
  8
0
  6
Continuous
 62
     7
370
    15
100
AcDbLine
 10
906.4896348296
 20
721.6228828064
 30
0.0
 11
906.4896348296
 21
716.6228828064
 31
0.0
  0
LINE
  5
27E
330
1F
100
AcDbEntity
  8
0
  6
Continuous
 62
     7
370
    15
100
AcDbLine
 10
906.4896348296
 20
721.6228828064
 30
0.0
 11
911.6857872523
 21
721.6228828064
 31
0.0
  0
LINE
  5
27F
330
1F
100
AcDbEntity
  8
0
  6
Continuous
 62
     7
370
    15
100
AcDbLine
 10
726.6857872523
 20
721.6228828064
 30
0.0
 11
726.6857872523
 21
716.6228828064
 31
0.0
  0
LINE
  5
280
330
1F
100
AcDbEntity
  8
0
  6
Continuous
 62
     7
370
    15
100
AcDbLine
 10
737.0780920977
 20
721.6228828064
 30
0.0
 11
737.0780920977
 21
716.6228828064
 31
0.0
  0
LINE
  5
281
330
1F
100
AcDbEntity
  8
0
  6
Continuous
 62
     7
370
    15
100
AcDbLine
 10
726.6857872523
 20
721.6228828064
 30
0.0
 11
737.0780920977
 21
721.6228828064
 31
0.0
  0
LINE
  5
282
330
1F
100
AcDbEntity
  8
0
  6
Continuous
 62
     7
370
    15
100
AcDbLine
 10
721.4896348296
 20
721.6228828064
 30
0.0
 11
721.4896348296
 21
716.6228828064
 31
0.0
  0
LINE
  5
283
330
1F
100
AcDbEntity
  8
0
  6
Continuous
 62
     7
370
    15
100
AcDbLine
 10
721.4896348296
 20
721.6228828064
 30
0.0
 11
726.6857872523
 21
721.6228828064
 31
0.0
  0
LINE
  5
284
330
1F
100
AcDbEntity
  8
0
  6
Continuous
 62
     7
370
    15
100
AcDbLine
 10
742.2742445204
 20
721.6228828064
 30
0.0
 11
742.2742445204
 21
716.6228828064
 31
0.0
  0
LINE
  5
285
330
1F
100
AcDbEntity
  8
0
  6
Continuous
 62
     7
370
    15
100
AcDbLine
 10
737.0780920977
 20
721.6228828064
 30
0.0
 11
742.2742445204
 21
721.6228828064
 31
0.0
  0
LINE
  5
286
330
1F
100
AcDbEntity
  8
0
  6
Continuous
 62
     7
370
    15
100
AcDbLine
 10
424.4566758772
 20
344.2367439794
 30
0.0
 11
411.4566758772
 21
344.2367439794
 31
0.0
  0
LINE
  5
287
330
1F
100
AcDbEntity
  8
0
  6
Continuous
 62
     7
370
    15
100
AcDbLine
 10
411.4566758772
 20
159.2367439794
 30
0.0
 11
424.4566758772
 21
159.2367439794
 31
0.0
  0
LINE
  5
288
330
1F
100
AcDbEntity
  8
0
  6
Continuous
 62
     7
370
    15
100
AcDbLine
 10
138.4566758772
 20
159.2367439794
 30
0.0
 11
151.4566758772
 21
159.2367439794
 31
0.0
  0
LINE
  5
289
330
1F
100
AcDbEntity
  8
0
  6
Continuous
 62
     7
370
    15
100
AcDbLine
 10
151.4566758772
 20
344.2367439794
 30
0.0
 11
138.4566758772
 21
344.2367439794
 31
0.0
  0
LINE
  5
28A
330
1F
100
AcDbEntity
  8
0
  6
Continuous
 62
     7
370
    15
100
AcDbLine
 10
151.4566758772
 20
159.2367439794
 30
0.0
 11
156.4566758772
 21
164.2367439794
 31
0.0
  0
LINE
  5
28B
330
1F
100
AcDbEntity
  8
0
  6
Continuous
 62
     7
370
    15
100
AcDbLine
 10
156.4566758772
 20
339.2367439794
 30
0.0
 11
151.4566758772
 21
344.2367439794
 31
0.0
  0
LINE
  5
28C
330
1F
100
AcDbEntity
  8
0
  6
Continuous
 62
     7
370
    15
100
AcDbLine
 10
411.4566758772
 20
344.2367439794
 30
0.0
 11
406.4566758772
 21
339.2367439794
 31
0.0
  0
LINE
  5
28D
330
1F
100
AcDbEntity
  8
0
  6
Continuous
 62
     7
370
    15
100
AcDbLine
 10
406.4566758772
 20
164.2367439794
 30
0.0
 11
411.4566758772
 21
159.2367439794
 31
0.0
  0
ARC
  5
28E
330
1F
100
AcDbEntity
  8
0
  6
Continuous
 62
     7
370
    15
100
AcDbCircle
 10
166.4566758772
 20
193.2367439794
 30
0.0
 40
10.00000000000003
100
AcDbArc
 50
90.0
 51
180.0
  0
ARC
  5
28F
330
1F
100
AcDbEntity
  8
0
  6
Continuous
 62
     7
370
    15
100
AcDbCircle
 10
166.4566758772
 20
310.2367439794
 30
0.0
 40
10.00000000000006
100
AcDbArc
 50
180.0
 51
270.0
  0
ARC
  5
290
330
1F
100
AcDbEntity
  8
0
  6
Continuous
 62
     7
370
    15
100
AcDbCircle
 10
396.4566758772
 20
310.2367439794
 30
0.0
 40
10.00000000000006
100
AcDbArc
 50
270.0
 51
0.0
  0
ARC
  5
291
330
1F
100
AcDbEntity
  8
0
  6
Continuous
 62
     7
370
    15
100
AcDbCircle
 10
396.4566758772
 20
193.2367439794
 30
0.0
 40
10.00000000000003
100
AcDbArc
 50
0.0
 51
90.0
  0
LINE
  5
292
330
1F
100
AcDbEntity
  8
0
  6
Continuous
 62
     7
370
    15
100
AcDbLine
 10
136.4566758772
 20
194.2367439794
 30
0.0
 11
138.4566758772
 21
194.2367439794
 31
0.0
  0
LINE
  5
293
330
1F
100
AcDbEntity
  8
0
  6
Continuous
 62
     7
370
    15
100
AcDbLine
 10
138.4566758772
 20
309.2367439794
 30
0.0
 11
136.4566758772
 21
309.2367439794
 31
0.0
  0
LINE
  5
294
330
1F
100
AcDbEntity
  8
0
  6
Continuous
 62
     7
370
    15
100
AcDbLine
 10
426.4566758772
 20
309.2367439794
 30
0.0
 11
424.4566758772
 21
309.2367439794
 31
0.0
  0
LINE
  5
295
330
1F
100
AcDbEntity
  8
0
  6
Continuous
 62
     7
370
    15
100
AcDbLine
 10
424.4566758772
 20
194.2367439794
 30
0.0
 11
426.4566758772
 21
194.2367439794
 31
0.0
  0
LINE
  5
296
330
1F
100
AcDbEntity
  8
0
  6
Continuous
 62
     7
370
    15
100
AcDbLine
 10
166.4566758772
 20
203.2367439794
 30
0.0
 11
187.2030287329
 21
203.2367439794
 31
0.0
  0
LINE
  5
297
330
1F
100
AcDbEntity
  8
0
  6
Continuous
 62
     7
370
    15
100
AcDbLine
 10
187.2030287329
 20
300.2367439794
 30
0.0
 11
166.4566758772
 21
300.2367439794
 31
0.0
  0
LINE
  5
298
330
1F
100
AcDbEntity
  8
0
  6
Continuous
 62
     7
370
    15
100
AcDbLine
 10
375.7103230215
 20
203.2367439794
 30
0.0
 11
396.4566758772
 21
203.2367439794
 31
0.0
  0
LINE
  5
299
330
1F
100
AcDbEntity
  8
0
  6
Continuous
 62
     7
370
    15
100
AcDbLine
 10
396.4566758772
 20
300.2367439794
 30
0.0
 11
375.7103230215
 21
300.2367439794
 31
0.0
  0
LINE
  5
29A
330
1F
100
AcDbEntity
  8
0
  6
Continuous
 62
     7
370
    15
100
AcDbLine
 10
290.4566758772
 20
339.0405915567
 30
0.0
 11
290.4566758772
 21
349.4328964021
 31
0.0
  0
LINE
  5
29B
330
1F
100
AcDbEntity
  8
0
  6
Continuous
 62
     7
370
    15
100
AcDbLine
 10
281.4566758772
 20
333.844439134
 30
0.0
 11
290.4566758772
 21
339.0405915567
 31
0.0
  0
LINE
  5
29C
330
1F
100
AcDbEntity
  8
0
  6
Continuous
 62
     7
370
    15
100
AcDbLine
 10
272.4566758772
 20
339.0405915567
 30
0.0
 11
281.4566758772
 21
333.844439134
 31
0.0
  0
LINE
  5
29D
330
1F
100
AcDbEntity
  8
0
  6
Continuous
 62
     7
370
    15
100
AcDbLine
 10
272.4566758772
 20
349.4328964021
 30
0.0
 11
272.4566758772
 21
339.0405915567
 31
0.0
  0
LINE
  5
29E
330
1F
100
AcDbEntity
  8
0
  6
Continuous
 62
     7
370
    15
100
AcDbLine
 10
281.4566758772
 20
354.6290488248
 30
0.0
 11
272.4566758772
 21
349.4328964021
 31
0.0
  0
LINE
  5
29F
330
1F
100
AcDbEntity
  8
0
  6
Continuous
 62
     7
370
    15
100
AcDbLine
 10
290.4566758772
 20
349.4328964021
 30
0.0
 11
281.4566758772
 21
354.6290488248
 31
0.0
  0
LINE
  5
2A0
330
1F
100
AcDbEntity
  8
0
  6
Continuous
 62
     7
370
    15
100
AcDbLine
 10
349.5537795535
 20
307.1059255943
 30
0.0
 11
356.9022487818
 21
314.4543948227
 31
0.0
  0
LINE
  5
2A1
330
1F
100
AcDbEntity
  8
0
  6
Continuous
 62
     7
370
    15
100
AcDbLine
 10
339.5155839086
 20
309.7956520108
 30
0.0
 11
349.5537795535
 21
307.1059255943
 31
0.0
  0
LINE
  5
2A2
330
1F
100
AcDbEntity
  8
0
  6
Continuous
 62
     7
370
    15
100
AcDbLine
 10
336.8258574921
 20
319.8338476557
 30
0.0
 11
339.5155839086
 21
309.7956520108
 31
0.0
  0
LINE
  5
2A3
330
1F
100
AcDbEntity
  8
0
  6
Continuous
 62
     7
370
    15
100
AcDbLine
 10
354.2125223653
 20
324.4925904675
 30
0.0
 11
344.1743267205
 21
327.182316884
 31
0.0
  0
LINE
  5
2A4
330
1F
100
AcDbEntity
  8
0
  6
Continuous
 62
     7
370
    15
100
AcDbLine
 10
356.9022487818
 20
314.4543948227
 30
0.0
 11
354.2125223653
 21
324.4925904675
 31
0.0
  0
LINE
  5
2A5
330
1F
100
AcDbEntity
  8
0
  6
Continuous
 62
     7
370
    15
100
AcDbLine
 10
344.1743267205
 20
327.182316884
 30
0.0
 11
336.8258574921
 21
319.8338476557
 31
0.0
  0
LINE
  5
2A6
330
1F
100
AcDbEntity
  8
0
  6
Continuous
 62
     7
370
    15
100
AcDbLine
 10
223.3977678458
 20
309.7956520108
 30
0.0
 11
226.0874942623
 21
319.8338476557
 31
0.0
  0
LINE
  5
2A7
330
1F
100
AcDbEntity
  8
0
  6
Continuous
 62
     7
370
    15
100
AcDbLine
 10
213.359572201
 20
307.1059255943
 30
0.0
 11
223.3977678458
 21
309.7956520108
 31
0.0
  0
LINE
  5
2A8
330
1F
100
AcDbEntity
  8
0
  6
Continuous
 62
     7
370
    15
100
AcDbLine
 10
206.0111029726
 20
314.4543948227
 30
0.0
 11
213.359572201
 21
307.1059255943
 31
0.0
  0
LINE
  5
2A9
330
1F
100
AcDbEntity
  8
0
  6
Continuous
 62
     7
370
    15
100
AcDbLine
 10
208.7008293891
 20
324.4925904675
 30
0.0
 11
206.0111029726
 21
314.4543948227
 31
0.0
  0
LINE
  5
2AA
330
1F
100
AcDbEntity
  8
0
  6
Continuous
 62
     7
370
    15
100
AcDbLine
 10
226.0874942623
 20
319.8338476557
 30
0.0
 11
218.739025034
 21
327.182316884
 31
0.0
  0
LINE
  5
2AB
330
1F
100
AcDbEntity
  8
0
  6
Continuous
 62
     7
370
    15
100
AcDbLine
 10
218.739025034
 20
327.182316884
 30
0.0
 11
208.7008293891
 21
324.4925904675
 31
0.0
  0
LINE
  5
2AC
330
1F
100
AcDbEntity
  8
0
  6
Continuous
 62
     7
370
    15
100
AcDbLine
 10
368.7605234545
 20
242.7367439794
 30
0.0
 11
379.1528282999
 21
242.7367439794
 31
0.0
  0
LINE
  5
2AD
330
1F
100
AcDbEntity
  8
0
  6
Continuous
 62
     7
370
    15
100
AcDbLine
 10
363.5643710318
 20
251.7367439794
 30
0.0
 11
368.7605234545
 21
242.7367439794
 31
0.0
  0
LINE
  5
2AE
330
1F
100
AcDbEntity
  8
0
  6
Continuous
 62
     7
370
    15
100
AcDbLine
 10
379.1528282999
 20
260.7367439794
 30
0.0
 11
368.7605234545
 21
260.7367439794
 31
0.0
  0
LINE
  5
2AF
330
1F
100
AcDbEntity
  8
0
  6
Continuous
 62
     7
370
    15
100
AcDbLine
 10
384.3489807226
 20
251.7367439794
 30
0.0
 11
379.1528282999
 21
260.7367439794
 31
0.0
  0
LINE
  5
2B0
330
1F
100
AcDbEntity
  8
0
  6
Continuous
 62
     7
370
    15
100
AcDbLine
 10
379.1528282999
 20
242.7367439794
 30
0.0
 11
384.3489807226
 21
251.7367439794
 31
0.0
  0
LINE
  5
2B1
330
1F
100
AcDbEntity
  8
0
  6
Continuous
 62
     7
370
    15
100
AcDbLine
 10
368.7605234545
 20
260.7367439794
 30
0.0
 11
363.5643710318
 21
251.7367439794
 31
0.0
  0
LINE
  5
2B2
330
1F
100
AcDbEntity
  8
0
  6
Continuous
 62
     7
370
    15
100
AcDbLine
 10
194.1528282999
 20
260.7367439794
 30
0.0
 11
183.7605234545
 21
260.7367439794
 31
0.0
  0
LINE
  5
2B3
330
1F
100
AcDbEntity
  8
0
  6
Continuous
 62
     7
370
    15
100
AcDbLine
 10
194.1528282999
 20
242.7367439794
 30
0.0
 11
199.3489807226
 21
251.7367439794
 31
0.0
  0
LINE
  5
2B4
330
1F
100
AcDbEntity
  8
0
  6
Continuous
 62
     7
370
    15
100
AcDbLine
 10
183.7605234545
 20
242.7367439794
 30
0.0
 11
194.1528282999
 21
242.7367439794
 31
0.0
  0
LINE
  5
2B5
330
1F
100
AcDbEntity
  8
0
  6
Continuous
 62
     7
370
    15
100
AcDbLine
 10
178.5643710318
 20
251.7367439794
 30
0.0
 11
183.7605234545
 21
242.7367439794
 31
0.0
  0
LINE
  5
2B6
330
1F
100
AcDbEntity
  8
0
  6
Continuous
 62
     7
370
    15
100
AcDbLine
 10
199.3489807226
 20
251.7367439794
 30
0.0
 11
194.1528282999
 21
260.7367439794
 31
0.0
  0
LINE
  5
2B7
330
1F
100
AcDbEntity
  8
0
  6
Continuous
 62
     7
370
    15
100
AcDbLine
 10
183.7605234545
 20
260.7367439794
 30
0.0
 11
178.5643710318
 21
251.7367439794
 31
0.0
  0
LINE
  5
2B8
330
1F
100
AcDbEntity
  8
0
  6
Continuous
 62
     7
370
    15
100
AcDbLine
 10
336.8258574921
 20
183.6396403032
 30
0.0
 11
344.1743267205
 21
176.2911710748
 31
0.0
  0
LINE
  5
2B9
330
1F
100
AcDbEntity
  8
0
  6
Continuous
 62
     7
370
    15
100
AcDbLine
 10
339.5155839086
 20
193.677835948
 30
0.0
 11
336.8258574921
 21
183.6396403032
 31
0.0
  0
LINE
  5
2BA
330
1F
100
AcDbEntity
  8
0
  6
Continuous
 62
     7
370
    15
100
AcDbLine
 10
349.5537795535
 20
196.3675623645
 30
0.0
 11
339.5155839086
 21
193.677835948
 31
0.0
  0
LINE
  5
2BB
330
1F
100
AcDbEntity
  8
0
  6
Continuous
 62
     7
370
    15
100
AcDbLine
 10
356.9022487818
 20
189.0190931362
 30
0.0
 11
349.5537795535
 21
196.3675623645
 31
0.0
  0
LINE
  5
2BC
330
1F
100
AcDbEntity
  8
0
  6
Continuous
 62
     7
370
    15
100
AcDbLine
 10
354.2125223653
 20
178.9808974913
 30
0.0
 11
356.9022487818
 21
189.0190931362
 31
0.0
  0
LINE
  5
2BD
330
1F
100
AcDbEntity
  8
0
  6
Continuous
 62
     7
370
    15
100
AcDbLine
 10
344.1743267205
 20
176.2911710748
 30
0.0
 11
354.2125223653
 21
178.9808974913
 31
0.0
  0
LINE
  5
2BE
330
1F
100
AcDbEntity
  8
0
  6
Continuous
 62
     7
370
    15
100
AcDbLine
 10
226.0874942623
 20
183.6396403032
 30
0.0
 11
223.3977678458
 21
193.677835948
 31
0.0
  0
LINE
  5
2BF
330
1F
100
AcDbEntity
  8
0
  6
Continuous
 62
     7
370
    15
100
AcDbLine
 10
218.739025034
 20
176.2911710748
 30
0.0
 11
226.0874942623
 21
183.6396403032
 31
0.0
  0
LINE
  5
2C0
330
1F
100
AcDbEntity
  8
0
  6
Continuous
 62
     7
370
    15
100
AcDbLine
 10
208.7008293891
 20
178.9808974913
 30
0.0
 11
218.739025034
 21
176.2911710748
 31
0.0
  0
LINE
  5
2C1
330
1F
100
AcDbEntity
  8
0
  6
Continuous
 62
     7
370
    15
100
AcDbLine
 10
206.0111029726
 20
189.0190931362
 30
0.0
 11
208.7008293891
 21
178.9808974913
 31
0.0
  0
LINE
  5
2C2
330
1F
100
AcDbEntity
  8
0
  6
Continuous
 62
     7
370
    15
100
AcDbLine
 10
223.3977678458
 20
193.677835948
 30
0.0
 11
213.359572201
 21
196.3675623645
 31
0.0
  0
LINE
  5
2C3
330
1F
100
AcDbEntity
  8
0
  6
Continuous
 62
     7
370
    15
100
AcDbLine
 10
213.359572201
 20
196.3675623645
 30
0.0
 11
206.0111029726
 21
189.0190931362
 31
0.0
  0
LINE
  5
2C4
330
1F
100
AcDbEntity
  8
0
  6
Continuous
 62
     7
370
    15
100
AcDbLine
 10
272.4566758772
 20
164.4328964021
 30
0.0
 11
272.4566758772
 21
154.0405915567
 31
0.0
  0
LINE
  5
2C5
330
1F
100
AcDbEntity
  8
0
  6
Continuous
 62
     7
370
    15
100
AcDbLine
 10
290.4566758772
 20
154.0405915567
 30
0.0
 11
290.4566758772
 21
164.4328964021
 31
0.0
  0
LINE
  5
2C6
330
1F
100
AcDbEntity
  8
0
  6
Continuous
 62
     7
370
    15
100
AcDbLine
 10
281.4566758772
 20
148.844439134
 30
0.0
 11
290.4566758772
 21
154.0405915567
 31
0.0
  0
LINE
  5
2C7
330
1F
100
AcDbEntity
  8
0
  6
Continuous
 62
     7
370
    15
100
AcDbLine
 10
272.4566758772
 20
154.0405915567
 30
0.0
 11
281.4566758772
 21
148.844439134
 31
0.0
  0
LINE
  5
2C8
330
1F
100
AcDbEntity
  8
0
  6
Continuous
 62
     7
370
    15
100
AcDbLine
 10
281.4566758772
 20
169.6290488248
 30
0.0
 11
272.4566758772
 21
164.4328964021
 31
0.0
  0
LINE
  5
2C9
330
1F
100
AcDbEntity
  8
0
  6
Continuous
 62
     7
370
    15
100
AcDbLine
 10
290.4566758772
 20
164.4328964021
 30
0.0
 11
281.4566758772
 21
169.6290488248
 31
0.0
  0
LINE
  5
2CA
330
1F
100
AcDbEntity
  8
0
  6
Continuous
 62
     7
370
    15
100
AcDbLine
 10
424.4566758772
 20
159.2367439794
 30
0.0
 11
424.4566758772
 21
344.2367439794
 31
0.0
  0
LINE
  5
2CB
330
1F
100
AcDbEntity
  8
0
  6
Continuous
 62
     7
370
    15
100
AcDbLine
 10
411.4566758772
 20
344.2367439794
 30
0.0
 11
411.4566758772
 21
159.2367439794
 31
0.0
  0
LINE
  5
2CC
330
1F
100
AcDbEntity
  8
0
  6
Continuous
 62
     7
370
    15
100
AcDbLine
 10
138.4566758772
 20
159.2367439794
 30
0.0
 11
138.4566758772
 21
344.2367439794
 31
0.0
  0
LINE
  5
2CD
330
1F
100
AcDbEntity
  8
0
  6
Continuous
 62
     7
370
    15
100
AcDbLine
 10
151.4566758772
 20
159.2367439794
 30
0.0
 11
151.4566758772
 21
344.2367439794
 31
0.0
  0
LINE
  5
2CE
330
1F
100
AcDbEntity
  8
0
  6
Continuous
 62
     7
370
    15
100
AcDbLine
 10
156.4566758772
 20
339.2367439794
 30
0.0
 11
156.4566758772
 21
164.2367439794
 31
0.0
  0
LINE
  5
2CF
330
1F
100
AcDbEntity
  8
0
  6
Continuous
 62
     7
370
    15
100
AcDbLine
 10
406.4566758772
 20
164.2367439794
 30
0.0
 11
406.4566758772
 21
339.2367439794
 31
0.0
  0
CIRCLE
  5
2D0
330
1F
100
AcDbEntity
  8
0
  6
Continuous
 62
     7
370
    15
100
AcDbCircle
 10
281.4566758772
 20
251.7367439794
 30
0.0
 40
79.00000000000003
  0
CIRCLE
  5
2D1
330
1F
100
AcDbEntity
  8
0
  6
Continuous
 62
     7
370
    15
100
AcDbCircle
 10
281.4566758772
 20
251.7367439794
 30
0.0
 40
80.99999999999997
  0
CIRCLE
  5
2D2
330
1F
100
AcDbEntity
  8
0
  6
Continuous
 62
     7
370
    15
100
AcDbCircle
 10
281.4566758772
 20
251.7367439794
 30
0.0
 40
104.0
  0
CIRCLE
  5
2D3
330
1F
100
AcDbEntity
  8
0
  6
Continuous
 62
     7
370
    15
100
AcDbCircle
 10
281.4566758772
 20
251.7367439794
 30
0.0
 40
106.0
  0
LINE
  5
2D4
330
1F
100
AcDbEntity
  8
0
  6
Continuous
 62
     7
370
    15
100
AcDbLine
 10
136.4566758772
 20
194.2367439794
 30
0.0
 11
136.4566758772
 21
309.2367439794
 31
0.0
  0
LINE
  5
2D5
330
1F
100
AcDbEntity
  8
0
  6
Continuous
 62
     7
370
    15
100
AcDbLine
 10
426.4566758772
 20
194.2367439794
 30
0.0
 11
426.4566758772
 21
309.2367439794
 31
0.0
  0
LINE
  5
2D6
330
1F
100
AcDbEntity
  8
0
  6
Continuous
 62
     8
370
    15
100
AcDbLine
 10
166.4566758772
 20
300.2367439794
 30
0.0
 11
166.4566758772
 21
203.2367439794
 31
0.0
  0
LINE
  5
2D7
330
1F
100
AcDbEntity
  8
0
  6
Continuous
 62
     8
370
    15
100
AcDbLine
 10
396.4566758772
 20
203.2367439794
 30
0.0
 11
396.4566758772
 21
300.2367439794
 31
0.0
  0
LINE
  5
2D8
330
1F
100
AcDbEntity
  8
0
  6
Continuous
 62
     7
370
    15
100
AcDbLine
 10
984.0752038082
 20
249.3689734055
 30
0.0
 11
974.8828156528
 21
254.6756261324
 31
0.0
  0
LINE
  5
2D9
330
1F
100
AcDbEntity
  8
0
  6
Continuous
 62
     7
370
    15
100
AcDbLine
 10
882.3903328839
 20
94.4565865919
 30
0.0
 11
891.5827210394
 21
89.1499338651
 31
0.0
  0
LINE
  5
2DA
330
1F
100
AcDbEntity
  8
0
  6
Continuous
 62
     7
370
    15
100
AcDbLine
 10
928.6259437301
 20
250.0899935849
 30
0.0
 11
925.0909844478
 21
248.0486415821
 31
0.0
  0
LINE
  5
2DB
330
1F
100
AcDbEntity
  8
0
  6
Continuous
 62
     7
370
    15
100
AcDbLine
 10
863.2291970086
 20
140.8892717495
 30
0.0
 11
863.2291970086
 21
136.8072311904
 31
0.0
  0
LINE
  5
2DC
330
1F
100
AcDbEntity
  8
0
  6
Continuous
 62
     7
370
    15
100
AcDbLine
 10
911.678190573
 20
341.117741419
 30
0.0
 11
911.4839110213
 21
341.2299330737
 31
0.0
  0
LINE
  5
2DD
330
1F
100
AcDbEntity
  8
0
  6
Continuous
 62
     7
370
    15
100
AcDbLine
 10
761.9414744069
 20
341.2299330737
 30
0.0
 11
761.7471948551
 21
341.117741419
 31
0.0
  0
LINE
  5
2DE
330
1F
100
AcDbEntity
  8
0
  6
Continuous
 62
     7
370
    15
100
AcDbLine
 10
942.7126927141
 20
291.3228169577
 30
0.0
 11
942.7126927141
 21
297.8551434528
 31
0.0
  0
LINE
  5
2DF
330
1F
100
AcDbEntity
  8
0
  6
Continuous
 62
     7
370
    15
100
AcDbLine
 10
730.7126927141
 20
297.8551434528
 30
0.0
 11
730.7126927141
 21
291.3228169577
 31
0.0
  0
LINE
  5
2E0
330
1F
100
AcDbEntity
  8
0
  6
Continuous
 62
     7
370
    15
100
AcDbLine
 10
761.7471948551
 20
248.0602189915
 30
0.0
 11
762.4544165331
 21
247.6518158962
 31
0.0
  0
LINE
  5
2E1
330
1F
100
AcDbEntity
  8
0
  6
Continuous
 62
     7
370
    15
100
AcDbLine
 10
910.9709688951
 20
247.6518158962
 30
0.0
 11
911.678190573
 21
248.0602189915
 31
0.0
  0
LINE
  5
2E2
330
1F
100
AcDbEntity
  8
0
  6
Continuous
 62
     7
370
    15
100
AcDbLine
 10
942.7126927141
 20
283.1574088389
 30
0.0
 11
942.7126927141
 21
289.6897353339
 31
0.0
  0
LINE
  5
2E3
330
1F
100
AcDbEntity
  8
0
  6
Continuous
 62
     7
370
    15
100
AcDbLine
 10
730.7126927141
 20
289.6897353339
 30
0.0
 11
730.7126927141
 21
283.1574088389
 31
0.0
  0
LINE
  5
2E4
330
1F
100
AcDbEntity
  8
0
  6
Continuous
 62
     7
370
    15
100
AcDbLine
 10
761.7471948551
 20
239.8948108726
 30
0.0
 11
763.161638211
 21
239.0780046822
 31
0.0
  0
LINE
  5
2E5
330
1F
100
AcDbEntity
  8
0
  6
Continuous
 62
     7
370
    15
100
AcDbLine
 10
910.2637472172
 20
239.0780046822
 30
0.0
 11
911.678190573
 21
239.8948108726
 31
0.0
  0
LINE
  5
2E6
330
1F
100
AcDbEntity
  8
0
  6
Continuous
 62
     7
370
    15
100
AcDbLine
 10
967.9908395494
 20
218.2408551104
 30
0.0
 11
966.5766259871
 21
219.0572632222
 31
0.0
  0
LINE
  5
2E7
330
1F
100
AcDbEntity
  8
0
  6
Continuous
 62
     7
370
    15
100
AcDbLine
 10
909.0812988605
 20
119.4616440484
 30
0.0
 11
910.4955124229
 21
118.6452359366
 31
0.0
  0
LINE
  5
2E8
330
1F
100
AcDbEntity
  8
0
  6
Continuous
 62
     7
370
    15
100
AcDbLine
 10
893.9976486252
 20
333.3639209381
 30
0.0
 11
892.5832052694
 21
334.1807271286
 31
0.0
  0
LINE
  5
2E9
330
1F
100
AcDbEntity
  8
0
  6
Continuous
 62
     7
370
    15
100
AcDbLine
 10
780.8421801588
 20
334.1807271286
 30
0.0
 11
779.427736803
 21
333.3639209381
 31
0.0
  0
LINE
  5
2EA
330
1F
100
AcDbEntity
  8
0
  6
Continuous
 62
     7
370
    15
100
AcDbLine
 10
755.7126927141
 20
300.3047658885
 30
0.0
 11
755.7126927141
 21
299.4882250766
 31
0.0
  0
LINE
  5
2EB
330
1F
100
AcDbEntity
  8
0
  6
Continuous
 62
     7
370
    15
100
AcDbLine
 10
917.7126927141
 20
299.4882250766
 30
0.0
 11
917.7126927141
 21
300.3047658885
 31
0.0
  0
LINE
  5
2EC
330
1F
100
AcDbEntity
  8
0
  6
Continuous
 62
     7
370
    15
100
AcDbLine
 10
921.7126927141
 20
245.9911772186
 30
0.0
 11
921.7126927141
 21
246.5963601363
 31
0.0
  0
LINE
  5
2ED
330
1F
100
AcDbEntity
  8
0
  6
Continuous
 62
     7
370
    15
100
AcDbLine
 10
751.7126927141
 20
246.5963601363
 30
0.0
 11
751.7126927141
 21
159.0432054322
 31
0.0
  0
LINE
  5
2EE
330
1F
100
AcDbEntity
  8
0
  6
Continuous
 62
     7
370
    15
100
AcDbLine
 10
776.5988500914
 20
124.3514995159
 30
0.0
 11
780.1349584809
 21
122.3094840398
 31
0.0
  0
LINE
  5
2EF
330
1F
100
AcDbEntity
  8
0
  6
Continuous
 62
     7
370
    15
100
AcDbLine
 10
744.7994416981
 20
205.1752736764
 30
0.0
 11
748.3344009804
 21
207.2166256791
 31
0.0
  0
LINE
  5
2F0
330
1F
100
AcDbEntity
  8
0
  6
Continuous
 62
     7
370
    15
100
AcDbLine
 10
689.35018162
 20
205.8962938557
 30
0.0
 11
698.5425697754
 21
200.5896411289
 31
0.0
  0
LINE
  5
2F1
330
1F
100
AcDbEntity
  8
0
  6
Continuous
 62
     7
370
    15
100
AcDbLine
 10
791.0350525443
 20
360.8086806693
 30
0.0
 11
781.8426643888
 21
366.1153333962
 31
0.0
  0
LINE
  5
2F2
330
1F
100
AcDbEntity
  8
0
  6
Continuous
 62
     7
370
    15
100
AcDbLine
 10
750.5483195022
 20
222.3467486839
 30
0.0
 11
751.7126927141
 21
219.4953031765
 31
0.0
  0
LINE
  5
2F3
330
1F
100
AcDbEntity
  8
0
  6
Continuous
 62
     7
370
    15
100
AcDbLine
 10
731.1473836112
 20
232.572730235
 30
0.0
 11
751.0686917011
 21
221.072403866
 31
0.0
  0
LWPOLYLINE
  5
2F4
330
1F
100
AcDbEntity
  8
0
  6
Continuous
 62
     7
370
    15
100
AcDbPolyline
 90
      116
 70
   128
 43
0.0
 10
872.421585164
 20
131.5005784635
 10
872.5191858246
 20
135.6815575196
 10
872.8116965275
 20
139.9627462151
 10
873.2982443058
 20
144.3313678
 10
873.9773771098
 20
148.7743845907
 10
874.8470681403
 20
153.2785368788
 10
875.9047218973
 20
157.8303825035
 10
877.1471819264
 20
162.4163369685
 10
878.5707402386
 20
167.0227139832
 10
880.1711483763
 20
171.6357663082
 10
881.9436300925
 20
176.2417267821
 10
883.8828956054
 20
180.8268494087
 10
885.9831573842
 20
185.37745038
 10
888.2381474225
 20
189.879948914
 10
890.6411359436
 20
194.3209077855
 10
893.1849514854
 20
198.6870734279
 10
895.8620023025
 20
202.9654154867
 10
898.664299023
 20
207.1431657078
 10
901.5834784922
 20
211.2078560424
 10
904.6108287311
 20
215.1473558571
 10
907.7373149369
 20
218.9499081361
 10
910.9536064458
 20
222.6041645687
 10
914.2501045798
 20
226.0992194176
 10
917.616971293
 20
229.4246420655
 10
921.0441585317
 20
232.5705081441
 10
924.5214382223
 20
235.5274291526
 10
928.0384327953
 20
238.2865804766
 10
931.5846461568
 20
240.839727724
 10
935.1494950123
 20
243.1792513001
 10
938.7223404517
 20
245.2981691469
 10
942.2925196998
 20
247.1901575808
 10
945.8493779388
 20
248.8495701647
 10
949.3823001055
 20
250.2714545593
 10
952.8807425718
 20
251.4515673025
 10
956.3342646102
 20
252.3863864743
 10
959.7325595536
 20
253.0731222067
 10
963.0654855544
 20
253.5097250105
 10
966.3230958513
 20
253.6948918912
 10
969.4956684549
 20
253.6280702381
 10
972.5737351617
 20
253.3094594734
 10
975.5481098106
 20
252.7400104566
 10
978.4099156989
 20
251.9214226476
 10
981.1506120728
 20
250.8561390341
 10
983.7620196173
 20
249.547338841
 10
986.2363448659
 20
247.9989280426
 10
988.5662034595
 20
246.2155277053
 10
990.7446421844
 20
244.2024601965
 10
992.7651597232
 20
241.965733301
 10
994.6217260574
 20
239.5120222909
 10
996.3088004635
 20
236.8486500042
 10
997.8213480483
 20
233.9835649907
 10
999.1548547752
 20
230.9253177902
 10
1000.3053409363
 20
227.6830354142
 10
1001.2693730284
 20
224.2663941076
 10
1002.0440740011
 20
220.6855904711
 10
1002.6271318421
 20
216.9513110301
 10
1003.0168064776
 20
213.074700342
 10
1003.2119349655
 20
209.0673277369
 10
1003.2119349655
 20
204.9411527896
 10
1003.0168064776
 20
200.7084896279
 10
1002.6271318421
 20
196.3819701822
 10
1002.0440740011
 20
191.9745064871
 10
1001.2693730284
 20
187.4992521464
 10
1000.3053409363
 20
182.9695630782
 10
999.1548547752
 20
178.3989576548
 10
997.8213480483
 20
173.8010763593
 10
996.3088004635
 20
169.1896410765
 10
994.6217260574
 20
164.5784141419
 10
992.7651597232
 20
159.981157269
 10
990.7446421844
 20
155.411590479
 10
988.5662034595
 20
150.8833511555
 10
986.2363448659
 20
146.4099533441
 10
983.7620196173
 20
142.0047474223
 10
981.1506120728
 20
137.6808802559
 10
978.4099156989
 20
133.4512559638
 10
975.5481098106
 20
129.3284974075
 10
972.5737351617
 20
125.3249085188
 10
969.4956684549
 20
121.4524375805
 10
966.3230958513
 20
117.7226415679
 10
963.0654855544
 20
114.1466516583
 10
959.7325595536
 20
110.735140011
 10
956.3342646102
 20
107.4982879176
 10
952.8807425718
 20
104.445755417
 10
949.3823001055
 20
101.5866524658
 10
945.8493779388
 20
98.9295117511
 10
942.2925196998
 20
96.4822632251
 10
938.7223404517
 20
94.2522104392
 10
935.1494950123
 20
92.2460087473
 10
931.5846461568
 20
90.469645444
 10
928.0384327953
 20
88.9284218954
 10
924.5214382223
 20
87.6269377184
 10
921.0441585317
 20
86.5690770533
 10
917.616971293
 20
85.757996972
 10
914.2501045798
 20
85.1961180563
 10
910.9536064458
 20
84.8851171738
 10
907.7373149369
 20
84.8259224734
 10
904.6108287311
 20
85.0187106151
 10
901.5834784922
 20
85.4629062436
 10
898.664299023
 20
86.1571837044
 10
895.8620023025
 20
87.0994710007
 10
893.1849514854
 20
88.2869559769
 10
890.6411359436
 20
89.7160947111
 10
888.2381474225
 20
91.3826220916
 10
885.9831573842
 20
93.2815645456
 10
883.8828956054
 20
95.4072548827
 10
881.9436300925
 20
97.7533492072
 10
880.1711483763
 20
100.3128458518
 10
878.5707402386
 20
103.0781062723
 10
877.1471819264
 20
106.0408778449
 10
875.9047218973
 20
109.1923184948
 10
874.8470681403
 20
112.5230230843
 10
873.9773771098
 20
116.023051482
 10
873.2982443058
 20
119.6819582275
 10
872.8116965275
 20
123.4888237049
 10
872.5191858246
 20
127.4322867314
 10
872.421585164
 20
131.5005784635
  0
LWPOLYLINE
  5
2F5
330
1F
100
AcDbEntity
  8
0
  6
Continuous
 62
     7
370
    15
100
AcDbPolyline
 90
       59
 70
   128
 43
0.0
 10
974.8828156528
 20
254.6756261324
 10
973.2805852067
 20
255.5386040206
 10
970.6035343896
 20
256.7260889968
 10
967.8012376691
 20
257.6683762931
 10
964.8820581999
 20
258.3626537539
 10
961.854707961
 20
258.8068493823
 10
958.7282217553
 20
258.9996375241
 10
955.5119302464
 20
258.9404428236
 10
952.2154321123
 20
258.6294419411
 10
948.8485653991
 20
258.0675630255
 10
945.4213781604
 20
257.2564829442
 10
941.9440984698
 20
256.1986222791
 10
938.4271038968
 20
254.897138102
 10
934.8808905353
 20
253.3559145534
 10
931.3160416798
 20
251.5795512501
 10
927.7431962405
 20
249.5733495583
 10
924.1730169923
 20
247.3432967724
 10
920.6161587534
 20
244.8960482463
 10
917.0832365866
 20
242.2389075316
 10
913.5847941204
 20
239.3798045805
 10
910.131272082
 20
236.3272720798
 10
906.7329771385
 20
233.0904199865
 10
903.4000511377
 20
229.6789083391
 10
900.1424408408
 20
226.1029184295
 10
896.9698682372
 20
222.3731224169
 10
893.8918015305
 20
218.5006514786
 10
890.9174268815
 20
214.4970625899
 10
888.0556209933
 20
210.3743040336
 10
885.3149246193
 20
206.1446797416
 10
882.7035170748
 20
201.8208125751
 10
880.2291918262
 20
197.4156066533
 10
877.8993332326
 20
192.942208842
 10
875.7208945077
 20
188.4139695184
 10
873.7003769689
 20
183.8444027285
 10
871.8438106347
 20
179.2471458555
 10
870.1567362286
 20
174.6359189209
 10
868.6441886439
 20
170.0244836382
 10
867.3106819169
 20
165.4266023427
 10
866.1601957559
 20
160.8559969193
 10
865.1961636637
 20
156.326307851
 10
864.421462691
 20
151.8510535104
 10
863.83840485
 20
147.4435898153
 10
863.4487302145
 20
143.1170703696
 10
863.2536017267
 20
138.8844072079
 10
863.2536017267
 20
134.7582322606
 10
863.4487302145
 20
130.7508596554
 10
863.83840485
 20
126.8742489674
 10
864.421462691
 20
123.1399695263
 10
865.1961636637
 20
119.5591658898
 10
866.1601957559
 20
116.1425245833
 10
867.3106819169
 20
112.9002422073
 10
868.6441886439
 20
109.8419950067
 10
870.1567362286
 20
106.9769099932
 10
871.8438106347
 20
104.3135377066
 10
873.7003769689
 20
101.8598266965
 10
875.7208945077
 20
99.623099801
 10
877.8993332326
 20
97.6100322922
 10
880.2291918262
 20
95.8266319548
 10
882.3903328839
 20
94.4565865919
  0
LWPOLYLINE
  5
2F6
330
1F
100
AcDbEntity
  8
0
  6
Continuous
 62
     7
370
    15
100
AcDbPolyline
 90
       36
 70
   128
 43
0.0
 10
907.9429234545
 20
193.8667726024
 10
907.8406519825
 20
192.4955416118
 10
907.5371246561
 20
191.0503029853
 10
907.0420970931
 20
189.5775078818
 10
906.3714798867
 20
188.1244931475
 10
905.5468272258
 20
186.7379598716
 10
904.5946441254
 20
185.4624723744
 10
903.5455345338
 20
184.3390258736
 10
902.4332176965
 20
183.403728864
 10
901.2934443918
 20
182.6866425612
 10
900.1628478716
 20
182.2108147088
 10
899.0777664382
 20
181.9915388057
 10
898.0730755019
 20
182.0358625597
 10
897.1810666559
 20
182.3423613689
 10
896.4304097984
 20
182.9011841095
 10
895.8452316586
 20
183.6943697586
 10
895.4443403433
 20
184.696424677
 10
895.2406208292
 20
185.8751419951
 10
895.2406208292
 20
187.1926367683
 10
895.4443403433
 20
188.6065636307
 10
895.8452316586
 20
190.0714778095
 10
896.4304097984
 20
191.5402957576
 10
897.1810666559
 20
192.9658084578
 10
898.0730755019
 20
194.3021987588
 10
899.0777664382
 20
195.5065139768
 10
900.1628478716
 20
196.5400464298
 10
901.2934443918
 20
197.3695775343
 10
902.4332176965
 20
197.9684454782
 10
903.5455345338
 20
198.3174021529
 10
904.5946441254
 20
198.4052318038
 10
905.5468272258
 20
198.2291115137
 10
906.3714798867
 20
197.7947019336
 10
907.0420970931
 20
197.1159653448
 10
907.5371246561
 20
196.2147168997
 10
907.8406519825
 20
195.119923465
 10
907.9429234545
 20
193.8667726024
  0
LWPOLYLINE
  5
2F7
330
1F
100
AcDbEntity
  8
0
  6
Continuous
 62
     7
370
    15
100
AcDbPolyline
 90
       36
 70
   128
 43
0.0
 10
907.9429234545
 20
110.1464485484
 10
907.8406519825
 20
108.7752175578
 10
907.5371246561
 20
107.3299789313
 10
907.0420970931
 20
105.8571838278
 10
906.3714798867
 20
104.4041690935
 10
905.5468272258
 20
103.0176358176
 10
904.5946441254
 20
101.7421483204
 10
903.5455345338
 20
100.6187018196
 10
902.4332176965
 20
99.68340481
 10
901.2934443918
 20
98.9663185072
 10
900.1628478716
 20
98.4904906548
 10
899.0777664382
 20
98.2712147517
 10
898.0730755019
 20
98.3155385057
 10
897.1810666559
 20
98.6220373149
 10
896.4304097984
 20
99.1808600555
 10
895.8452316586
 20
99.9740457046
 10
895.4443403433
 20
100.976100623
 10
895.2406208292
 20
102.1548179411
 10
895.2406208292
 20
103.4723127143
 10
895.4443403433
 20
104.8862395767
 10
895.8452316586
 20
106.3511537555
 10
896.4304097984
 20
107.8199717037
 10
897.1810666559
 20
109.2454844038
 10
898.0730755019
 20
110.5818747048
 10
899.0777664382
 20
111.7861899228
 10
900.1628478716
 20
112.8197223758
 10
901.2934443918
 20
113.6492534803
 10
902.4332176965
 20
114.2481214242
 10
903.5455345338
 20
114.5970780989
 10
904.5946441254
 20
114.6849077498
 10
905.5468272258
 20
114.5087874597
 10
906.3714798867
 20
114.0743778796
 10
907.0420970931
 20
113.3956412908
 10
907.5371246561
 20
112.4943928457
 10
907.8406519825
 20
111.399599411
 10
907.9429234545
 20
110.1464485484
  0
LWPOLYLINE
  5
2F8
330
1F
100
AcDbEntity
  8
0
  6
Continuous
 62
     7
370
    15
100
AcDbPolyline
 90
       36
 70
   128
 43
0.0
 10
980.4429234545
 20
151.9998076746
 10
980.3406519825
 20
150.628576684
 10
980.0371246561
 20
149.1833380575
 10
979.5420970931
 20
147.710542954
 10
978.8714798867
 20
146.2575282197
 10
978.0468272258
 20
144.8709949438
 10
977.0946441254
 20
143.5955074466
 10
976.0455345338
 20
142.4720609458
 10
974.9332176965
 20
141.5367639362
 10
973.7934443918
 20
140.8196776334
 10
972.6628478716
 20
140.343849781
 10
971.5777664382
 20
140.1245738779
 10
970.5730755019
 20
140.1688976319
 10
969.6810666559
 20
140.4753964411
 10
968.9304097984
 20
141.0342191817
 10
968.3452316586
 20
141.8274048308
 10
967.9443403433
 20
142.8294597492
 10
967.7406208292
 20
144.0081770673
 10
967.7406208292
 20
145.3256718405
 10
967.9443403433
 20
146.7395987029
 10
968.3452316586
 20
148.2045128817
 10
968.9304097984
 20
149.6733308299
 10
969.6810666559
 20
151.09884353
 10
970.5730755019
 20
152.435233831
 10
971.5777664382
 20
153.639549049
 10
972.6628478716
 20
154.673081502
 10
973.7934443918
 20
155.5026126066
 10
974.9332176965
 20
156.1014805504
 10
976.0455345338
 20
156.4504372251
 10
977.0946441254
 20
156.5382668761
 10
978.0468272258
 20
156.3621465859
 10
978.8714798867
 20
155.9277370058
 10
979.5420970931
 20
155.249000417
 10
980.0371246561
 20
154.3477519719
 10
980.3406519825
 20
153.2529585372
 10
980.4429234545
 20
151.9998076746
  0
LWPOLYLINE
  5
2F9
330
1F
100
AcDbEntity
  8
0
  6
Continuous
 62
     7
370
    15
100
AcDbPolyline
 90
       36
 70
   128
 43
0.0
 10
980.4429234545
 20
235.7201317286
 10
980.3406519825
 20
234.348900738
 10
980.0371246561
 20
232.9036621115
 10
979.5420970931
 20
231.430867008
 10
978.8714798867
 20
229.9778522737
 10
978.0468272258
 20
228.5913189978
 10
977.0946441254
 20
227.3158315006
 10
976.0455345338
 20
226.1923849998
 10
974.9332176965
 20
225.2570879902
 10
973.7934443918
 20
224.5400016874
 10
972.6628478716
 20
224.064173835
 10
971.5777664382
 20
223.8448979319
 10
970.5730755019
 20
223.8892216859
 10
969.6810666559
 20
224.1957204951
 10
968.9304097984
 20
224.7545432357
 10
968.3452316586
 20
225.5477288848
 10
967.9443403433
 20
226.5497838032
 10
967.7406208292
 20
227.7285011213
 10
967.7406208292
 20
229.0459958945
 10
967.9443403433
 20
230.4599227569
 10
968.3452316586
 20
231.9248369357
 10
968.9304097984
 20
233.3936548839
 10
969.6810666559
 20
234.819167584
 10
970.5730755019
 20
236.155557885
 10
971.5777664382
 20
237.359873103
 10
972.6628478716
 20
238.393405556
 10
973.7934443918
 20
239.2229366605
 10
974.9332176965
 20
239.8218046044
 10
976.0455345338
 20
240.1707612791
 10
977.0946441254
 20
240.25859093
 10
978.0468272258
 20
240.0824706399
 10
978.8714798867
 20
239.6480610598
 10
979.5420970931
 20
238.969324471
 10
980.0371246561
 20
238.0680760259
 10
980.3406519825
 20
236.9732825912
 10
980.4429234545
 20
235.7201317286
  0
LWPOLYLINE
  5
2FA
330
1F
100
AcDbEntity
  8
0
  6
Continuous
 62
     7
370
    15
100
AcDbPolyline
 90
       35
 70
   128
 43
0.0
 10
897.1703225055
 20
145.7877204204
 10
897.2693649089
 20
149.1200393259
 10
897.5660095943
 20
152.5504754335
 10
898.0588113387
 20
156.0623160033
 10
898.7453692614
 20
159.6384517011
 10
899.6223385214
 20
163.2614599532
 10
900.6854466126
 20
166.9136898276
 10
901.9295141791
 20
170.5773480275
 10
903.3484802488
 20
174.2345855783
 10
904.9354317618
 20
177.8675847865
 10
906.6826372496
 20
181.458646045
 10
908.581584503
 20
184.9902740643
 10
910.6230220416
 20
188.4452631077
 10
912.797004187
 20
191.8067808159
 10
915.0929395167
 20
195.0584502126
 10
917.4996424647
 20
198.1844294912
 10
920.0053878159
 20
201.169489195
 10
922.5979678311
 20
203.9990864132
 10
925.2647517209
 20
206.6594356324
 10
927.9927471823
 20
209.1375758988
 10
930.7686636956
 20
211.4214339621
 10
933.5789772746
 20
213.4998830953
 10
936.409996354
 20
215.3627973033
 10
939.2479284935
 20
217.0011006551
 10
942.078947573
 20
218.4068115017
 10
944.889261152
 20
219.573081361
 10
947.6651776653
 20
220.4942282836
 10
950.3931731267
 20
221.1657645341
 10
953.0599570165
 20
221.5844184556
 10
955.6525370316
 20
221.7481504081
 10
958.1582823829
 20
221.6561627061
 10
960.5649853308
 20
221.3089035045
 10
962.8609206606
 20
220.708064615
 10
965.034902806
 20
219.8565732645
 10
966.5766259871
 20
219.0572632222
  0
LWPOLYLINE
  5
2FB
330
1F
100
AcDbEntity
  8
0
  6
Continuous
 62
     7
370
    15
100
AcDbPolyline
 90
       13
 70
   128
 43
0.0
 10
909.0812988605
 20
119.4616440484
 10
908.581584503
 20
119.7603294375
 10
906.6826372496
 20
121.0994796264
 10
904.9354317618
 20
122.6732603675
 10
903.3484802488
 20
124.4740043595
 10
901.9295141791
 20
126.4929385585
 10
900.6854466126
 20
128.7202269201
 10
899.6223385214
 20
131.1450183192
 10
898.7453692614
 20
133.755499416
 10
898.0588113387
 20
136.5389522089
 10
897.5660095943
 20
139.4818159957
 10
897.2693649089
 20
142.5697534398
 10
897.1703225055
 20
145.7877204204
  0
LWPOLYLINE
  5
2FC
330
1F
100
AcDbEntity
  8
0
  6
Continuous
 62
     7
370
    15
100
AcDbPolyline
 90
       30
 70
   128
 43
0.0
 10
863.2291970086
 20
140.8892717495
 10
863.2539762414
 20
142.9254540946
 10
863.4520910332
 20
147.077101843
 10
863.8476859952
 20
151.3233431635
 10
864.4394939177
 20
155.6505760648
 10
865.2256190614
 20
160.0449391155
 10
866.2035432305
 20
164.492355846
 10
867.370133839
 20
168.9785798396
 10
868.7216539456
 20
173.4892403684
 10
870.2537742238
 20
178.009888427
 10
871.9615868306
 20
182.5260430166
 10
873.8396211273
 20
187.0232375327
 10
875.8818612038
 20
191.4870661054
 10
878.0817651495
 20
195.903229746
 10
880.4322860089
 20
200.2575821512
 10
882.925894355
 20
204.5361750173
 10
885.5546024086
 20
208.7253027215
 10
888.3099896251
 20
212.8115462249
 10
891.1832296688
 20
216.7818160577
 10
894.1651186855
 20
220.6233942486
 10
897.2461047858
 20
224.3239750645
 10
900.4163186422
 20
227.8717044295
 10
903.6656051042
 20
231.2552178968
 10
906.9835557276
 20
234.4636770528
 10
910.3595421162
 20
237.4868042355
 10
913.7827499679
 20
240.3149154572
 10
917.2422137159
 20
242.9389514249
 10
920.7268516549
 20
245.3505065605
 10
924.225501439
 20
247.5418559258
 10
925.0909844478
 20
248.0486415821
  0
ARC
  5
2FD
330
1F
100
AcDbEntity
  8
0
  6
Continuous
 62
     7
370
    15
100
AcDbCircle
 10
839.5954823899
 20
204.9264749159
 30
0.0
 40
154.4955927124865
100
AcDbArc
 50
66.8545601006
 51
87.7307962497
  0
ARC
  5
2FE
330
1F
100
AcDbEntity
  8
0
  6
Continuous
 62
     7
370
    15
100
AcDbCircle
 10
833.9389349288
 20
204.4429503772
 30
0.0
 40
154.9830811858703
100
AcDbArc
 50
92.3024024692
 51
113.1122411804
  0
LWPOLYLINE
  5
2FF
330
1F
100
AcDbEntity
  8
0
  6
Continuous
 62
     7
370
    15
100
AcDbPolyline
 90
       92
 70
   128
 43
0.0
 10
761.9338379811
 20
341.2134806459
 10
760.3660670772
 20
340.2563174486
 10
756.8035248732
 20
337.913758401
 10
753.456403658
 20
335.467610909
 10
750.3337266785
 20
332.9244693539
 10
747.4439121198
 20
330.2911895957
 10
744.7947504112
 20
327.5748704911
 10
742.3933832241
 20
324.782834756
 10
740.2462842199
 20
321.9226092253
 10
738.3592415981
 20
319.0019045613
 10
736.7373424917
 20
316.0285944673
 10
735.3849592542
 20
313.0106944618
 10
734.3057376716
 20
309.9563402695
 10
733.5025871344
 20
306.8737658895
 10
732.9776727946
 20
303.7712813971
 10
732.7324097284
 20
300.6572505421
 10
732.7674591217
 20
297.5400682012
 10
733.0827264874
 20
294.4281377468
 10
733.6773619206
 20
291.3298483931
 10
734.5497623891
 20
288.2535525807
 10
735.6975760557
 20
285.207543459
 10
737.1177086175
 20
282.2000325302
 10
738.8063316484
 20
279.239127512
 10
740.758892919
 20
276.3328104808
 10
742.9701286694
 20
273.4889163536
 10
745.4340777991
 20
270.715111766
 10
748.1440979367
 20
268.0188744049
 10
751.0928833472
 20
265.4074728496
 10
754.2724846263
 20
262.8879469768
 10
757.6743301311
 20
260.4670889829
 10
761.2892490877
 20
258.1514250731
 10
765.1074963137
 20
255.9471978679
 10
769.1187784895
 20
253.8603495741
 10
773.3122819076
 20
251.8965059657
 10
777.6767016242
 20
250.0609612179
 10
782.2002719353
 20
248.3586636349
 10
786.8707980952
 20
246.79420231
 10
791.6756891911
 20
245.3717947542
 10
796.601992086
 20
244.0952755269
 10
801.6364263383
 20
242.9680858983
 10
806.7654200034
 20
241.9932645723
 10
811.9751462211
 20
241.1734394948
 10
817.2515604906
 20
240.5108207693
 10
822.5804385319
 20
240.0071946988
 10
827.947414632
 20
239.6639189701
 10
833.338020372
 20
239.4819189938
 10
838.7377236321
 20
239.4616854098
 10
844.1319677668
 20
239.6032727641
 10
849.5062108477
 20
239.9062993624
 10
854.8459648656
 20
240.3699482984
 10
860.1368347876
 20
240.9929696567
 10
865.364557364
 20
241.7736838818
 10
870.5150395789
 20
242.7099863061
 10
875.5743966428
 20
243.7993528239
 10
880.5289894235
 20
245.0388466956
 10
885.365461215
 20
246.4251264649
 10
890.0707737442
 20
247.9544549667
 10
894.6322423206
 20
249.6227094016
 10
899.0375700313
 20
251.4253924506
 10
903.2748808916
 20
253.3576443991
 10
907.3327518606
 20
255.4142562372
 10
911.2002436357
 20
257.5896837032
 10
914.8669301427
 20
259.8780622291
 10
918.322926643
 20
262.2732227511
 10
921.5589163812
 20
264.7687083399
 10
924.566175701
 20
267.3577916074
 10
927.3365975629
 20
270.033492843
 10
929.8627133995
 20
272.7885988292
 10
932.137713249
 20
275.6156822873
 10
934.1554641141
 20
278.5071219001
 10
935.9105264951
 20
281.4551228577
 10
937.3981690542
 20
284.4517378707
 10
938.61438137
 20
287.4888885948
 10
939.5558847492
 20
290.5583874085
 10
940.2201410651
 20
293.6519594859
 10
940.6053596001
 20
296.7612651034
 10
940.7105018732
 20
299.8779221229
 10
940.5352844393
 20
302.9935285881
 10
940.0801796538
 20
306.0996853747
 10
939.3464143986
 20
309.1880188333
 10
938.3359667751
 20
312.2502033628
 10
937.0515607715
 20
315.2779838551
 10
935.4966589193
 20
318.2631979493
 10
933.675452959
 20
321.1977980361
 10
931.5928525399
 20
324.0738729523
 10
929.2544719844
 20
326.8836693086
 10
926.6666151532
 20
329.6196123906
 10
923.8362584508
 20
332.2743265797
 10
920.7710320184
 20
334.8406552355
 10
917.4791991645
 20
337.3116799899
 10
913.9696340885
 20
339.680739397
 10
911.4915474471
 20
341.2134806459
  0
LWPOLYLINE
  5
300
330
1F
100
AcDbEntity
  8
0
  6
Continuous
 62
     7
370
    15
100
AcDbPolyline
 90
       94
 70
   128
 43
0.0
 10
911.6660115199
 20
341.1247733794
 10
915.3954001681
 20
338.8589576152
 10
918.9195146165
 20
336.4861675815
 10
922.2291608527
 20
334.0125936168
 10
925.3157043878
 20
331.4446889929
 10
928.1710927819
 20
328.78915308
 10
930.7878766528
 20
326.0529138679
 10
933.1592291102
 20
323.2431098924
 10
935.2789635663
 20
320.3670716112
 10
937.1415498758
 20
317.4323022799
 10
938.7421287639
 20
314.4464583764
 10
940.0765245028
 20
311.4173296267
 10
941.1412558065
 20
308.3528186818
 10
941.9335449126
 20
305.2609205007
 10
942.4513248293
 20
302.149701493
 10
942.6932447279
 20
299.0272784737
 10
942.6586734669
 20
295.9017974879
 10
942.3477012389
 20
292.7814125587
 10
941.761139335
 20
289.6742644142
 10
940.900518028
 20
286.5884592489
 10
939.7680825808
 20
283.5320475763
 10
938.3667873882
 20
280.5130032255
 10
936.7002882693
 20
277.5392025385
 10
934.7729329299
 20
274.6184038216
 10
932.5897496203
 20
271.7582271053
 10
930.1564340162
 20
268.966134264
 10
927.4793343604
 20
266.2494095493
 10
924.5654349001
 20
263.6151405855
 10
921.4223376663
 20
261.0701998798
 10
918.0582426409
 20
258.6212268918
 10
914.4819263636
 20
256.2746107125
 10
910.7027190353
 20
254.0364733955
 10
906.7304801764
 20
251.9126539855
 10
902.5755729046
 20
249.9086932849
 10
898.2488368984
 20
248.0298193983
 10
893.7615601181
 20
246.2809340932
 10
889.1254493566
 20
244.6666000117
 10
884.3525996974
 20
243.191028767
 10
879.4554629603
 20
241.858069956
 10
874.4468152159
 20
240.6712011162
 10
869.3397234544
 20
239.6335186527
 10
864.147511495
 20
238.7477297607
 10
858.8837252258
 20
238.0161453622
 10
853.5620972643
 20
237.4406740774
 10
848.1965111301
 20
237.0228172452
 10
842.8009650249
 20
236.7636650063
 10
837.3895353123
 20
236.6638934594
 10
831.9763397948
 20
236.7237628969
 10
826.5755008812
 20
236.9431171265
 10
821.2011087436
 20
237.3213838778
 10
815.8671845575
 20
237.8575762963
 10
810.5876439221
 20
238.5502955171
 10
805.3762605561
 20
239.3977343147
 10
800.2466303637
 20
240.3976818183
 10
795.2121359642
 20
241.5475292788
 10
790.2859117789
 20
242.8442768756
 10
785.4808097641
 20
244.2845415422
 10
780.8093658823
 20
245.8645657927
 10
776.2837673973
 20
247.580227524
 10
771.9158210787
 20
249.4270507707
 10
767.7169223998
 20
251.4002173817
 10
763.6980258079
 20
253.4945795907
 10
759.8696161452
 20
255.7046734458
 10
756.2416812954
 20
258.0247330645
 10
752.8236861264
 20
260.4487056761
 10
749.6245477973
 20
262.9702674129
 10
746.6526124946
 20
265.5828398081
 10
743.9156336584
 20
268.2796069587
 10
741.4207517537
 20
271.0535333072
 10
739.1744756428
 20
273.8973819964
 10
737.1826656034
 20
276.8037337497
 10
735.4505180406
 20
279.7650062274
 10
733.9825519295
 20
282.7734738076
 10
732.7825970262
 20
285.8212877418
 10
731.853783876
 20
288.9004966317
 10
731.1985356462
 20
292.0030671726
 10
730.8185618049
 20
295.1209051124
 10
730.7148536602
 20
298.2458763678
 10
730.887681775
 20
301.3698282456
 10
731.3365952603
 20
304.4846107122
 10
732.0604229523
 20
307.5820976556
 10
733.057276467
 20
310.6542080861
 10
734.3245551275
 20
313.6929272183
 10
735.8589527484
 20
316.690327381
 10
737.6564662616
 20
319.6385886994
 10
739.7124061595
 20
322.5300194964
 10
742.0214087296
 20
325.3570763592
 10
744.577450048
 20
328.112383819
 10
747.3738616947
 20
330.7887535936
 10
750.4033481509
 20
333.3792033395
 10
753.6580058324
 20
335.8769748693
 10
757.1293437089
 20
338.2755517822
 10
760.8083054563
 20
340.5686764649
 10
761.7471948551
 20
341.117741419
  0
LWPOLYLINE
  5
301
330
1F
100
AcDbEntity
  8
0
  6
Continuous
 62
     7
370
    15
100
AcDbPolyline
 90
       48
 70
   128
 43
0.0
 10
761.7593739083
 20
248.0531870311
 10
765.6843072073
 20
245.9002567909
 10
769.7945454541
 20
243.8658288239
 10
774.0793655065
 20
241.9552107203
 10
778.5275887582
 20
240.1733870647
 10
783.1276103027
 20
238.5250064316
 10
787.8674292089
 20
237.0143692577
 10
792.7346798305
 20
235.645416623
 10
797.7166640664
 20
234.4217199686
 10
802.8003844885
 20
233.3464717794
 10
807.9725782508
 20
232.4224772552
 10
813.2197516901
 20
231.652146992
 10
818.5282155302
 20
231.0374906937
 10
823.884120595
 20
230.5801119283
 10
829.2734939397
 20
230.2812039449
 10
834.6822753047
 20
230.1415465601
 10
840.0963537968
 20
230.1615041243
 10
845.5016047035
 20
230.3410245703
 10
850.8839263423
 20
230.6796395498
 10
856.2292768506
 20
231.1764656551
 10
861.5237108193
 20
231.8302067235
 10
866.7534156746
 20
232.6391572192
 10
871.9047477138
 20
233.6012066827
 10
876.9642676996
 20
234.713845237
 10
881.9187759221
 20
235.9741701349
 10
886.7553466351
 20
237.3788933327
 10
891.4613617778
 20
238.924350068
 10
896.0245438941
 20
240.6065084207
 10
900.4329881628
 20
242.4209798317
 10
904.6751934561
 20
244.3630305521
 10
908.7400923448
 20
246.4275939935
 10
912.6170799719
 20
248.6092839456
 10
916.2960417193
 20
250.9024086283
 10
919.7673795958
 20
253.3009855412
 10
923.0220372773
 20
255.798757071
 10
926.0515237335
 20
258.389206817
 10
928.8479353802
 20
261.0655765915
 10
931.4039766985
 20
263.8208840514
 10
933.7129792687
 20
266.6479409141
 10
935.7689191666
 20
269.5393717111
 10
937.5664326798
 20
272.4876330295
 10
939.1008303007
 20
275.4850331922
 10
940.3681089612
 20
278.5237523245
 10
941.3649624759
 20
281.595862755
 10
942.0887901679
 20
284.6933496983
 10
942.5377036532
 20
287.8081321649
 10
942.710531768
 20
290.9320840427
 10
942.7126927141
 20
291.3228169577
  0
LWPOLYLINE
  5
302
330
1F
100
AcDbEntity
  8
0
  6
Continuous
 62
     7
370
    15
100
AcDbPolyline
 90
       17
 70
   128
 43
0.0
 10
730.7126927141
 20
291.3228169577
 10
730.7321407003
 20
290.1506819368
 10
730.9740605989
 20
287.0282589175
 10
731.4918405156
 20
283.9170399098
 10
732.2841296217
 20
280.8251417288
 10
733.3488609254
 20
277.7606307838
 10
734.6832566643
 20
274.7315020341
 10
736.2838355524
 20
271.7456581306
 10
738.1464218619
 20
268.8108887993
 10
740.266156318
 20
265.9348505181
 10
742.6375087754
 20
263.1250465426
 10
745.2542926463
 20
260.3888073305
 10
748.1096810404
 20
257.7332714176
 10
751.1962245755
 20
255.1653667937
 10
754.5058708117
 20
252.691792829
 10
758.0299852601
 20
250.3190027954
 10
761.7593739083
 20
248.0531870311
  0
LINE
  5
303
330
1F
100
AcDbEntity
  8
0
  6
Continuous
 62
     7
370
    15
100
AcDbLine
 10
733.8203878687
 20
299.4882250766
 30
0.0
 11
739.0165402914
 21
294.2926356678
 31
0.0
  0
LINE
  5
304
330
1F
100
AcDbEntity
  8
0
  6
Continuous
 62
     7
370
    15
100
AcDbLine
 10
739.0165402914
 20
294.2926356678
 30
0.0
 11
749.4088451368
 21
294.2926356678
 31
0.0
  0
LINE
  5
305
330
1F
100
AcDbEntity
  8
0
  6
Continuous
 62
     7
370
    15
100
AcDbLine
 10
749.4088451368
 20
294.2926356678
 30
0.0
 11
754.6049975595
 21
299.4882250766
 31
0.0
  0
LINE
  5
306
330
1F
100
AcDbEntity
  8
0
  6
Continuous
 62
     7
370
    15
100
AcDbLine
 10
836.7126927141
 20
240.0897618212
 30
0.0
 11
845.7126927141
 21
243.0894367649
 31
0.0
  0
LINE
  5
307
330
1F
100
AcDbEntity
  8
0
  6
Continuous
 62
     7
370
    15
100
AcDbLine
 10
827.7126927141
 20
243.0894367649
 30
0.0
 11
836.7126927141
 21
240.0897618212
 31
0.0
  0
LINE
  5
308
330
1F
100
AcDbEntity
  8
0
  6
Continuous
 62
     7
370
    15
100
AcDbLine
 10
918.8203878687
 20
299.4882250766
 30
0.0
 11
924.0165402914
 21
294.2926356678
 31
0.0
  0
LINE
  5
309
330
1F
100
AcDbEntity
  8
0
  6
Continuous
 62
     7
370
    15
100
AcDbLine
 10
924.0165402914
 20
294.2926356678
 30
0.0
 11
934.4088451368
 21
294.2926356678
 31
0.0
  0
LINE
  5
30A
330
1F
100
AcDbEntity
  8
0
  6
Continuous
 62
     7
370
    15
100
AcDbLine
 10
934.4088451368
 20
294.2926356678
 30
0.0
 11
939.6049975595
 21
299.4882250766
 31
0.0
  0
LINE
  5
30B
330
1F
100
AcDbEntity
  8
0
  6
Continuous
 62
     7
370
    15
100
AcDbLine
 10
827.7126927141
 20
349.8876635007
 30
0.0
 11
834.7863980138
 21
347.5300172177
 31
0.0
  0
LINE
  5
30C
330
1F
100
AcDbEntity
  8
0
  6
Continuous
 62
     7
370
    15
100
AcDbLine
 10
838.6389874144
 20
347.5300172177
 30
0.0
 11
845.7126927141
 21
349.8876635007
 31
0.0
  0
LWPOLYLINE
  5
30D
330
1F
100
AcDbEntity
  8
0
  6
Continuous
 62
     7
370
    15
100
AcDbPolyline
 90
       13
 70
   128
 43
0.0
 10
780.6596556853
 20
265.7326519264
 10
782.8971353023
 20
264.5402083113
 10
786.5427405415
 20
262.7771931286
 10
790.3612919991
 20
261.1407284781
 10
794.3396263372
 20
259.6364555925
 10
798.4640294132
 20
258.2695600121
 10
802.7202835552
 20
257.044753709
 10
807.0937165735
 20
255.9662588445
 10
811.5692523385
 20
255.0377932136
 10
816.1314627512
 20
254.2625574297
 10
820.7646209272
 20
253.6432238913
 10
825.4527554105
 20
253.1819275692
 10
827.7126927141
 20
253.0174606718
  0
ARC
  5
30E
330
1F
100
AcDbEntity
  8
0
  6
Continuous
 62
     7
370
    15
100
AcDbCircle
 10
840.3858274164
 20
366.148073687
 30
0.0
 40
113.2559539056701
100
AcDbArc
 50
272.6958365563
 51
297.5479888622
  0
LWPOLYLINE
  5
30F
330
1F
100
AcDbEntity
  8
0
  6
Continuous
 62
     7
370
    15
100
AcDbPolyline
 90
       14
 70
   128
 43
0.0
 10
900.9598156352
 20
271.0114513998
 10
901.0345887403
 20
271.0677600585
 10
903.8129747362
 20
273.2959483529
 10
906.3600521593
 20
275.6144268513
 10
908.6670407061
 20
278.0152032778
 10
910.7259877093
 20
280.4900016589
 10
912.5297955519
 20
283.0302908518
 10
914.0722461347
 20
285.6273139534
 10
915.3480223109
 20
288.2721184871
 10
916.3527262157
 20
290.9555872638
 10
917.0828944268
 20
293.6684698106
 10
917.5360099029
 20
296.4014142595
 10
917.7105106612
 20
299.1449995847
 10
917.7126927141
 20
299.4882250766
  0
LWPOLYLINE
  5
310
330
1F
100
AcDbEntity
  8
0
  6
Continuous
 62
     7
370
    15
100
AcDbPolyline
 90
       13
 70
   128
 43
0.0
 10
755.7126927141
 20
299.4882250766
 10
755.7323304851
 20
298.4586225689
 10
755.9765788955
 20
295.716811679
 10
756.4991414156
 20
292.9880016324
 10
757.2982166642
 20
290.2815992026
 10
758.3710500634
 20
287.6069339194
 10
759.7139433341
 20
284.9732259082
 10
761.3222672452
 20
282.3895541061
 10
763.1904775708
 20
279.864824965
 10
765.312134203
 20
277.4077417493
 10
767.6799233519
 20
275.0267745338
 10
770.2856827576
 20
272.7301310058
 10
772.465569793
 20
271.0114513998
  0
LINE
  5
311
330
1F
100
AcDbEntity
  8
0
  6
Continuous
 62
     7
370
    15
100
AcDbLine
 10
761.2671198095
 20
335.6943542393
 30
0.0
 11
768.6155890378
 21
331.4521732511
 31
0.0
  0
LINE
  5
312
330
1F
100
AcDbEntity
  8
0
  6
Continuous
 62
     7
370
    15
100
AcDbLine
 10
768.6155890378
 20
331.4521732511
 30
0.0
 11
778.6537846827
 21
333.0049192602
 31
0.0
  0
LINE
  5
313
330
1F
100
AcDbEntity
  8
0
  6
Continuous
 62
     7
370
    15
100
AcDbLine
 10
778.6537846827
 20
333.0049192602
 30
0.0
 11
781.3435110992
 21
338.7998462575
 31
0.0
  0
LINE
  5
314
330
1F
100
AcDbEntity
  8
0
  6
Continuous
 62
     7
370
    15
100
AcDbLine
 10
892.081874329
 20
338.7998462575
 30
0.0
 11
894.7716007455
 21
333.0049192602
 31
0.0
  0
LINE
  5
315
330
1F
100
AcDbEntity
  8
0
  6
Continuous
 62
     7
370
    15
100
AcDbLine
 10
894.7716007455
 20
333.0049192602
 30
0.0
 11
904.8097963904
 21
331.4521732511
 31
0.0
  0
LINE
  5
316
330
1F
100
AcDbEntity
  8
0
  6
Continuous
 62
     7
370
    15
100
AcDbLine
 10
904.8097963904
 20
331.4521732511
 30
0.0
 11
912.1582656187
 21
335.6943542393
 31
0.0
  0
LINE
  5
317
330
1F
100
AcDbEntity
  8
0
  6
Continuous
 62
     7
370
    15
100
AcDbLine
 10
909.4685392022
 20
257.4871689166
 30
0.0
 11
912.1582656187
 21
263.2820959139
 31
0.0
  0
LINE
  5
318
330
1F
100
AcDbEntity
  8
0
  6
Continuous
 62
     7
370
    15
100
AcDbLine
 10
892.081874329
 20
260.1766038957
 30
0.0
 11
899.4303435573
 21
255.9344229075
 31
0.0
  0
LINE
  5
319
330
1F
100
AcDbEntity
  8
0
  6
Continuous
 62
     7
370
    15
100
AcDbLine
 10
899.4303435573
 20
255.9344229075
 30
0.0
 11
909.4685392022
 21
257.4871689166
 31
0.0
  0
LINE
  5
31A
330
1F
100
AcDbEntity
  8
0
  6
Continuous
 62
     7
370
    15
100
AcDbLine
 10
763.956846226
 20
257.4871689166
 30
0.0
 11
773.9950418708
 21
255.9344229075
 31
0.0
  0
LINE
  5
31B
330
1F
100
AcDbEntity
  8
0
  6
Continuous
 62
     7
370
    15
100
AcDbLine
 10
773.9950418708
 20
255.9344229075
 30
0.0
 11
781.3435110992
 21
260.1766038957
 31
0.0
  0
LINE
  5
31C
330
1F
100
AcDbEntity
  8
0
  6
Continuous
 62
     7
370
    15
100
AcDbLine
 10
761.2671198095
 20
263.2820959139
 30
0.0
 11
763.956846226
 21
257.4871689166
 31
0.0
  0
LWPOLYLINE
  5
31D
330
1F
100
AcDbEntity
  8
0
  6
Continuous
 62
     7
370
    15
100
AcDbPolyline
 90
       32
 70
   128
 43
0.0
 10
762.4664806895
 20
247.6448502751
 10
766.3870270345
 20
245.4952278417
 10
770.4940644024
 20
243.4649666168
 10
774.7767016685
 20
241.5594504882
 10
779.2235820487
 20
239.783732542
 10
783.8229132156
 20
238.1425216632
 10
788.5624985697
 20
236.6401700477
 10
793.4297695827
 20
235.2806616622
 10
798.4118191269
 20
234.0676016784
 10
803.4954357025
 20
233.0042069133
 10
808.6671384723
 20
232.0932972987
 10
813.9132130102
 20
231.3372884031
 10
819.2197476696
 20
230.7381850262
 10
824.5726704746
 20
230.2975758825
 10
829.9577864361
 20
230.0166293882
 10
835.3608151947
 20
229.8960905629
 10
840.7674288895
 20
229.9362790538
 10
846.1632901529
 20
230.1370882884
 10
851.5340901308
 20
230.4979857567
 10
856.8655864273
 20
231.0180144234
 10
862.1436408724
 20
231.695795266
 10
867.3542570148
 20
232.5295309316
 10
872.483617237
 20
233.517010503
 10
877.5181193979
 20
234.6556153619
 10
882.4444129029
 20
235.942326133
 10
887.2494341071
 20
237.3737306906
 10
891.9204409581
 20
238.9460332071
 10
896.4450467854
 20
240.6550642189
 10
900.8112531478
 20
242.496291683
 10
905.0074816509
 20
244.4648329952
 10
909.022604651
 20
246.5554679377
 10
910.9709688951
 20
247.6518158962
  0
LWPOLYLINE
  5
31E
330
1F
100
AcDbEntity
  8
0
  6
Continuous
 62
     7
370
    15
100
AcDbPolyline
 90
       48
 70
   128
 43
0.0
 10
761.7593739083
 20
246.4201054073
 10
765.6843072073
 20
244.2671751671
 10
769.7945454541
 20
242.2327472001
 10
774.0793655065
 20
240.3221290966
 10
778.5275887582
 20
238.540305441
 10
783.1276103027
 20
236.8919248078
 10
787.8674292089
 20
235.3812876339
 10
792.7346798305
 20
234.0123349992
 10
797.7166640664
 20
232.7886383449
 10
802.8003844885
 20
231.7133901557
 10
807.9725782508
 20
230.7893956314
 10
813.2197516901
 20
230.0190653682
 10
818.5282155302
 20
229.4044090699
 10
823.884120595
 20
228.9470303046
 10
829.2734939397
 20
228.6481223211
 10
834.6822753047
 20
228.5084649364
 10
840.0963537968
 20
228.5284225005
 10
845.5016047035
 20
228.7079429465
 10
850.8839263423
 20
229.046557926
 10
856.2292768506
 20
229.5433840313
 10
861.5237108193
 20
230.1971250997
 10
866.7534156746
 20
231.0060755954
 10
871.9047477138
 20
231.968125059
 10
876.9642676996
 20
233.0807636132
 10
881.9187759221
 20
234.3410885111
 10
886.7553466351
 20
235.7458117089
 10
891.4613617778
 20
237.2912684443
 10
896.0245438941
 20
238.9734267969
 10
900.4329881628
 20
240.7878982079
 10
904.6751934561
 20
242.7299489284
 10
908.7400923448
 20
244.7945123698
 10
912.6170799719
 20
246.9762023218
 10
916.2960417193
 20
249.2693270045
 10
919.7673795958
 20
251.6679039174
 10
923.0220372773
 20
254.1656754472
 10
926.0515237335
 20
256.7561251932
 10
928.8479353802
 20
259.4324949677
 10
931.4039766985
 20
262.1878024276
 10
933.7129792687
 20
265.0148592903
 10
935.7689191666
 20
267.9062900873
 10
937.5664326798
 20
270.8545514057
 10
939.1008303007
 20
273.8519515685
 10
940.3681089612
 20
276.8906707007
 10
941.3649624759
 20
279.9627811312
 10
942.0887901679
 20
283.0602680746
 10
942.5377036532
 20
286.1750505411
 10
942.710531768
 20
289.299002419
 10
942.7032552646
 20
290.5062761458
  0
LWPOLYLINE
  5
31F
330
1F
100
AcDbEntity
  8
0
  6
Continuous
 62
     7
370
    15
100
AcDbPolyline
 90
       17
 70
   128
 43
0.0
 10
730.7221301635
 20
290.5062761458
 10
730.7321407003
 20
288.5176003131
 10
730.9740605989
 20
285.3951772937
 10
731.4918405156
 20
282.283958286
 10
732.2841296217
 20
279.192060105
 10
733.3488609254
 20
276.1275491601
 10
734.6832566643
 20
273.0984204103
 10
736.2838355524
 20
270.1125765069
 10
738.1464218619
 20
267.1778071755
 10
740.266156318
 20
264.3017688943
 10
742.6375087754
 20
261.4919649188
 10
745.2542926463
 20
258.7557257068
 10
748.1096810404
 20
256.1001897938
 10
751.1962245755
 20
253.53228517
 10
754.5058708117
 20
251.0587112052
 10
758.0299852601
 20
248.6859211716
 10
761.7593739083
 20
246.4201054073
  0
LWPOLYLINE
  5
320
330
1F
100
AcDbEntity
  8
0
  6
Continuous
 62
     7
370
    15
100
AcDbPolyline
 90
       48
 70
   128
 43
0.0
 10
761.7593739083
 20
239.8877789123
 10
765.6843072073
 20
237.734848672
 10
769.7945454541
 20
235.700420705
 10
774.0793655065
 20
233.7898026015
 10
778.5275887582
 20
232.0079789459
 10
783.1276103027
 20
230.3595983127
 10
787.8674292089
 20
228.8489611388
 10
792.7346798305
 20
227.4800085042
 10
797.7166640664
 20
226.2563118498
 10
802.8003844885
 20
225.1810636606
 10
807.9725782508
 20
224.2570691363
 10
813.2197516901
 20
223.4867388732
 10
818.5282155302
 20
222.8720825749
 10
823.884120595
 20
222.4147038095
 10
829.2734939397
 20
222.115795826
 10
834.6822753047
 20
221.9761384413
 10
840.0963537968
 20
221.9960960054
 10
845.5016047035
 20
222.1756164514
 10
850.8839263423
 20
222.514231431
 10
856.2292768506
 20
223.0110575362
 10
861.5237108193
 20
223.6647986046
 10
866.7534156746
 20
224.4737491003
 10
871.9047477138
 20
225.4357985639
 10
876.9642676996
 20
226.5484371181
 10
881.9187759221
 20
227.808762016
 10
886.7553466351
 20
229.2134852138
 10
891.4613617778
 20
230.7589419492
 10
896.0245438941
 20
232.4411003019
 10
900.4329881628
 20
234.2555717128
 10
904.6751934561
 20
236.1976224333
 10
908.7400923448
 20
238.2621858747
 10
912.6170799719
 20
240.4438758267
 10
916.2960417193
 20
242.7370005094
 10
919.7673795958
 20
245.1355774223
 10
923.0220372773
 20
247.6333489521
 10
926.0515237335
 20
250.2237986981
 10
928.8479353802
 20
252.9001684726
 10
931.4039766985
 20
255.6554759325
 10
933.7129792687
 20
258.4825327952
 10
935.7689191666
 20
261.3739635922
 10
937.5664326798
 20
264.3222249106
 10
939.1008303007
 20
267.3196250734
 10
940.3681089612
 20
270.3583442056
 10
941.3649624759
 20
273.4304546361
 10
942.0887901679
 20
276.5279415795
 10
942.5377036532
 20
279.642724046
 10
942.710531768
 20
282.7666759239
 10
942.7126927141
 20
283.1574088389
  0
LWPOLYLINE
  5
321
330
1F
100
AcDbEntity
  8
0
  6
Continuous
 62
     7
370
    15
100
AcDbPolyline
 90
       17
 70
   128
 43
0.0
 10
730.7126927141
 20
283.1574088389
 10
730.7321407003
 20
281.985273818
 10
730.9740605989
 20
278.8628507987
 10
731.4918405156
 20
275.7516317909
 10
732.2841296217
 20
272.6597336099
 10
733.3488609254
 20
269.595222665
 10
734.6832566643
 20
266.5660939152
 10
736.2838355524
 20
263.5802500118
 10
738.1464218619
 20
260.6454806804
 10
740.266156318
 20
257.7694423992
 10
742.6375087754
 20
254.9596384237
 10
745.2542926463
 20
252.2233992117
 10
748.1096810404
 20
249.5678632987
 10
751.1962245755
 20
246.9999586749
 10
754.5058708117
 20
244.5263847101
 10
758.0299852601
 20
242.1535946765
 10
761.7593739083
 20
239.8877789123
  0
LWPOLYLINE
  5
322
330
1F
100
AcDbEntity
  8
0
  6
Continuous
 62
     7
370
    15
100
AcDbPolyline
 90
       32
 70
   128
 43
0.0
 10
910.2637472172
 20
239.0780046822
 10
909.2909591422
 20
238.5235793647
 10
905.3269417587
 20
236.4068463002
 10
901.1779524907
 20
234.4117419875
 10
896.8551762796
 20
232.5436448752
 10
892.3702665659
 20
230.8075910228
 10
887.7353138732
 20
229.2082605246
 10
882.9628132146
 20
227.7499648929
 10
878.0656304079
 20
226.4366354348
 10
873.0569673924
 20
225.2718126543
 10
867.9503266379
 20
224.2586367078
 10
862.7594747451
 20
223.3998389385
 10
857.498405333
 20
222.6977345133
 10
852.1813013144
 20
222.1542161816
 10
846.822496662
 20
221.7707491727
 10
841.4364377654
 20
221.548367246
 10
836.0376444874
 20
221.4876699037
 10
830.64067102
 20
221.5888207752
 10
825.2600666496
 20
221.8515471756
 10
819.9103365343
 20
222.275140841
 10
814.6059026006
 20
222.8584598378
 10
809.3610646646
 20
223.599931641
 10
804.1899618822
 20
224.4975573737
 10
799.1065346321
 20
225.5489171958
 10
794.1244869355
 20
226.751176827
 10
789.2572495122
 20
228.1010951878
 10
784.5179435738
 20
229.5950331371
 10
779.9193454512
 20
231.2289632822
 10
775.4738521518
 20
232.9984808364
 10
771.1934479397
 20
234.8988154932
 10
767.0896720279
 20
236.9248442863
 10
763.1735874707
 20
239.0711054003
  0
LWPOLYLINE
  5
323
330
1F
100
AcDbEntity
  8
0
  6
Continuous
 62
     7
370
    15
100
AcDbPolyline
 90
       91
 70
   128
 43
0.0
 10
898.5845360679
 20
144.9713123086
 10
898.6835784713
 20
148.3036312141
 10
898.9802231567
 20
151.7340673217
 10
899.473024901
 20
155.2459078915
 10
900.1595828238
 20
158.8220435892
 10
901.0365520838
 20
162.4450518413
 10
902.0996601749
 20
166.0972817158
 10
903.3437277414
 20
169.7609399156
 10
904.7626938112
 20
173.4181774665
 10
906.3496453241
 20
177.0511766747
 10
908.096850812
 20
180.6422379331
 10
909.9957980653
 20
184.1738659524
 10
912.0372356039
 20
187.6288549959
 10
914.2112177494
 20
190.9903727041
 10
916.5071530791
 20
194.2420421008
 10
918.913856027
 20
197.3680213794
 10
921.4196013783
 20
200.3530810832
 10
924.0121813935
 20
203.1826783014
 10
926.6789652832
 20
205.8430275206
 10
929.4069607446
 20
208.321167787
 10
932.1828772579
 20
210.6050258503
 10
934.9931908369
 20
212.6834749835
 10
937.8242099164
 20
214.5463891915
 10
940.6621420559
 20
216.1846925433
 10
943.4931611354
 20
217.5904033899
 10
946.3034747144
 20
218.7566732492
 10
949.0793912277
 20
219.6778201717
 10
951.8073866891
 20
220.3493564223
 10
954.4741705788
 20
220.7680103438
 10
957.066750594
 20
220.9317422963
 10
959.5724959453
 20
220.8397545943
 10
961.9791988932
 20
220.4924953926
 10
964.2751342229
 20
219.8916565032
 10
966.4491163684
 20
219.0401651526
 10
968.490553907
 20
217.9421697213
 10
970.3895011603
 20
216.6030195324
 10
972.1367066482
 20
215.0292387913
 10
973.7236581611
 20
213.2284947993
 10
975.1426242309
 20
211.2095606003
 10
976.3866917974
 20
208.9822722387
 10
977.4497998885
 20
206.5574808395
 10
978.3267691485
 20
203.9469997428
 10
979.0133270713
 20
201.1635469499
 10
979.5061288156
 20
198.2206831631
 10
979.802773501
 20
195.132745719
 10
979.9018159044
 20
191.9147787384
 10
979.802773501
 20
188.5824598329
 10
979.5061288156
 20
185.1520237253
 10
979.0133270713
 20
181.6401831555
 10
978.3267691485
 20
178.0640474577
 10
977.4497998885
 20
174.4410392056
 10
976.3866917974
 20
170.7888093312
 10
975.1426242309
 20
167.1251511313
 10
973.7236581611
 20
163.4679135804
 10
972.1367066482
 20
159.8349143723
 10
970.3895011603
 20
156.2438531138
 10
968.490553907
 20
152.7122250945
 10
966.4491163684
 20
149.2572360511
 10
964.2751342229
 20
145.8957183428
 10
961.9791988932
 20
142.6440489462
 10
959.5724959453
 20
139.5180696675
 10
957.066750594
 20
136.5330099637
 10
954.4741705788
 20
133.7034127456
 10
951.807386689
 20
131.0430635263
 10
949.0793912277
 20
128.5649232599
 10
946.3034747144
 20
126.2810651967
 10
943.4931611354
 20
124.2026160634
 10
940.6621420559
 20
122.3397018555
 10
937.8242099164
 20
120.7013985036
 10
934.9931908369
 20
119.2956876571
 10
932.1828772579
 20
118.1294177978
 10
929.4069607446
 20
117.2082708752
 10
926.6789652832
 20
116.5367346247
 10
924.0121813935
 20
116.1180807032
 10
921.4196013783
 20
115.9543487507
 10
918.913856027
 20
116.0463364526
 10
916.5071530791
 20
116.3935956543
 10
914.2112177494
 20
116.9944345438
 10
912.0372356039
 20
117.8459258943
 10
909.9957980653
 20
118.9439213257
 10
908.096850812
 20
120.2830715145
 10
906.3496453241
 20
121.8568522557
 10
904.7626938112
 20
123.6575962477
 10
903.3437277414
 20
125.6765304467
 10
902.0996601749
 20
127.9038188083
 10
901.0365520838
 20
130.3286102074
 10
900.1595828238
 20
132.9390913042
 10
899.473024901
 20
135.7225440971
 10
898.9802231567
 20
138.6654078838
 10
898.6835784713
 20
141.753345328
 10
898.5845360679
 20
144.9713123086
  0
LWPOLYLINE
  5
324
330
1F
100
AcDbEntity
  8
0
  6
Continuous
 62
     7
370
    15
100
AcDbPolyline
 90
       77
 70
   128
 43
0.0
 10
967.8810006242
 20
184.9753097879
 10
967.7831879339
 20
182.1879527889
 10
967.4904180228
 20
179.3067041361
 10
967.0046908062
 20
176.3512456794
 10
966.3293242936
 20
173.3417661969
 10
965.4689319231
 20
170.2988234849
 10
964.429391047
 20
167.2432039277
 10
963.2178027835
 20
164.1957805052
 10
961.842443509
 20
161.1773702094
 10
960.312708322
 20
158.2085918434
 10
958.639046865
 20
155.3097251735
 10
956.8328919426
 20
152.5005723987
 10
954.9065814246
 20
149.8003228808
 10
952.8732739649
 20
147.227422062
 10
950.7468591153
 20
144.7994454638
 10
948.5418624453
 20
142.5329786283
 10
946.2733463181
 20
140.4435038222
 10
943.956806999
 20
138.545294277
 10
941.6080688005
 20
136.8513166888
 10
939.2431759861
 20
135.3731426421
 10
936.8782831718
 20
134.1208695645
 10
934.5295449733
 20
133.103051751
 10
932.2130056542
 20
132.3266419292
 10
929.944489527
 20
131.7969437655
 10
927.739492857
 20
131.5175756355
 10
925.6130780074
 20
131.4904459067
 10
923.5797705477
 20
131.7157399028
 10
921.6534600297
 20
132.1919186372
 10
919.8473051073
 20
132.9157293265
 10
918.1736436503
 20
133.8822276096
 10
916.6439084633
 20
135.0848113232
 10
915.2685491888
 20
136.5152656013
 10
914.0569609253
 20
138.1638189905
 10
913.0174200492
 20
140.0192101998
 10
912.1570276787
 20
142.0687650256
 10
911.4816611661
 20
144.2984829305
 10
910.9959339495
 20
146.6931326801
 10
910.7031640384
 20
149.2363563885
 10
910.6053513481
 20
151.9107812591
 10
910.7031640384
 20
154.6981382581
 10
910.9959339495
 20
157.5793869108
 10
911.4816611661
 20
160.5348453675
 10
912.1570276787
 20
163.5443248501
 10
913.0174200492
 20
166.5872675621
 10
914.0569609253
 20
169.6428871193
 10
915.2685491888
 20
172.6903105418
 10
916.6439084633
 20
175.7087208375
 10
918.1736436503
 20
178.6774992036
 10
919.8473051073
 20
181.5763658734
 10
921.6534600297
 20
184.3855186482
 10
923.5797705477
 20
187.0857681662
 10
925.6130780074
 20
189.658668985
 10
927.739492857
 20
192.0866455831
 10
929.944489527
 20
194.3531124186
 10
932.2130056542
 20
196.4425872248
 10
934.5295449733
 20
198.3407967699
 10
936.8782831718
 20
200.0347743582
 10
939.2431759861
 20
201.5129484049
 10
941.6080688005
 20
202.7652214824
 10
943.956806999
 20
203.783039296
 10
946.2733463181
 20
204.5594491178
 10
948.5418624453
 20
205.0891472815
 10
950.7468591153
 20
205.3685154115
 10
952.8732739649
 20
205.3956451402
 10
954.9065814246
 20
205.1703511442
 10
956.8328919426
 20
204.6941724097
 10
958.639046865
 20
203.9703617205
 10
960.312708322
 20
203.0038634374
 10
961.842443509
 20
201.8012797237
 10
963.2178027835
 20
200.3708254457
 10
964.429391047
 20
198.7222720564
 10
965.4689319231
 20
196.8668808472
 10
966.3293242936
 20
194.8173260213
 10
967.0046908062
 20
192.5876081165
 10
967.4904180228
 20
190.1929583669
 10
967.7831879339
 20
187.6497346585
 10
967.8810006242
 20
184.9753097879
  0
LWPOLYLINE
  5
325
330
1F
100
AcDbEntity
  8
0
  6
Continuous
 62
     7
370
    15
100
AcDbPolyline
 90
      107
 70
   128
 43
0.0
 10
892.5741284278
 20
334.1859679292
 10
889.166754236
 20
336.0397304816
 10
885.5751332399
 20
337.7737089262
 10
881.8118811395
 20
339.3818126007
 10
877.8902164948
 20
340.8583929822
 10
873.8239142961
 20
342.1982635282
 10
869.6272575781
 20
343.3967178946
 10
865.3149872506
 20
344.4495464668
 10
860.9022503203
 20
345.3530511459
 10
856.4045466867
 20
346.1040583388
 10
851.8376746979
 20
346.6999301054
 10
847.2176756582
 20
347.1385734243
 10
842.5607774827
 20
347.418447545
 10
837.8833376963
 20
347.5385693993
 10
833.2017859766
 20
347.4985170548
 10
828.5325664449
 20
347.2984311969
 10
823.8920799051
 20
346.9390146345
 10
819.2966262354
 20
346.4215298313
 10
814.7623471343
 20
345.7477944716
 10
810.3051694226
 20
344.9201750753
 10
805.9407490997
 20
343.9415786859
 10
801.6844163509
 20
342.8154426588
 10
797.5511217005
 20
341.5457225879
 10
793.5553834965
 20
340.1368784112
 10
789.7112369151
 20
338.5938587454
 10
786.0321846614
 20
336.9220835031
 10
782.5311495406
 20
335.1274248561
 10
779.2204290663
 20
333.2161866081
 10
776.1116522649
 20
331.1950820533
 10
773.2157388283
 20
329.0712103951
 10
770.542860758
 20
326.8520318103
 10
768.1024066358
 20
324.5453412444
 10
765.9029486457
 20
322.1592410322
 10
763.9522124642
 20
319.7021124378
 10
762.2570501233
 20
317.182586215
 10
760.8234159424
 20
314.6095122915
 10
759.656345614
 20
311.9919286833
 10
758.7599385151
 20
309.3390297483
 10
758.1373433084
 20
306.6601338907
 10
757.7907468823
 20
303.9646508301
 10
757.7213666692
 20
301.2620485488
 10
757.9294463698
 20
298.5618200361
 10
758.4142550966
 20
295.873449943
 10
759.1740899411
 20
293.2063812675
 10
760.2062819558
 20
290.5699821857
 10
761.5072055285
 20
287.9735131454
 10
763.0722911179
 20
285.4260943389
 10
764.8960413036
 20
282.9366736676
 10
766.9720500967
 20
280.5139953124
 10
769.2930254405
 20
278.1665690195
 10
771.8508148244
 20
275.9026402092
 10
774.6364339201
 20
273.7301610142
 10
777.6400981388
 20
271.6567623467
 10
780.8512570004
 20
269.6897270952
 10
784.2586311922
 20
267.8359645429
 10
787.8502521883
 20
266.1019860982
 10
791.6135042887
 20
264.4938824237
 10
795.5351689334
 20
263.0173020423
 10
799.6014711321
 20
261.6774314962
 10
803.7981278501
 20
260.4789771298
 10
808.1103981776
 20
259.4261485577
 10
812.5231351079
 20
258.5226438786
 10
817.0208387415
 20
257.7716366857
 10
821.5877107303
 20
257.1757649191
 10
826.20770977
 20
256.7371216001
 10
830.8646079455
 20
256.4572474795
 10
835.5420477319
 20
256.3371256252
 10
840.2235994516
 20
256.3771779696
 10
844.8928189833
 20
256.5772638275
 10
849.5333055231
 20
256.93668039
 10
854.1287591928
 20
257.4541651932
 10
858.6630382939
 20
258.1279005529
 10
863.1202160055
 20
258.9555199491
 10
867.4846363285
 20
259.9341163385
 10
871.7409690772
 20
261.0602523656
 10
875.8742637277
 20
262.3299724366
 10
879.8700019317
 20
263.7388166132
 10
883.7141485131
 20
265.2818362791
 10
887.3932007668
 20
266.9536115213
 10
890.8942358876
 20
268.7482701684
 10
894.2049563618
 20
270.6595084164
 10
897.3137331633
 20
272.6806129712
 10
900.2096465999
 20
274.8044846293
 10
902.8825246702
 20
277.0236632142
 10
905.3229787924
 20
279.3303537801
 10
907.5224367825
 20
281.7164539923
 10
909.473172964
 20
284.1735825866
 10
911.1683353049
 20
286.6931088095
 10
912.6019694858
 20
289.266182733
 10
913.7690398142
 20
291.8837663412
 10
914.665446913
 20
294.5366652762
 10
915.2880421198
 20
297.2155611337
 10
915.6346385459
 20
299.9110441944
 10
915.704018759
 20
302.6136464757
 10
915.4959390583
 20
305.3138749884
 10
915.0111303316
 20
308.0022450815
 10
914.2512954871
 20
310.669313757
 10
913.2191034724
 20
313.3057128388
 10
911.9181798997
 20
315.9021818791
 10
910.3530943103
 20
318.4496006856
 10
908.5293441246
 20
320.9390213569
 10
906.4533353315
 20
323.361699712
 10
904.1323599877
 20
325.709126005
 10
901.5745706038
 20
327.9730548152
 10
898.7889515081
 20
330.1455340103
 10
895.7852872894
 20
332.2189326778
 10
892.5741284278
 20
334.1859679292
  0
LWPOLYLINE
  5
326
330
1F
100
AcDbEntity
  8
0
  6
Continuous
 62
     7
370
    15
100
AcDbPolyline
 90
       27
 70
   128
 43
0.0
 10
893.9883419902
 20
333.3692944173
 10
897.2509928261
 20
331.3718259013
 10
900.3049556004
 20
329.2672627936
 10
903.1397026706
 20
327.0628599592
 10
905.7454620763
 20
324.7662164312
 10
908.1132512252
 20
322.3852492158
 10
910.2349078574
 20
319.9281660001
 10
912.103118183
 20
317.403436859
 10
913.7114420941
 20
314.8197650568
 10
915.0543353648
 20
312.1860570456
 10
916.127168764
 20
309.5113917625
 10
916.9262440126
 20
306.8049893327
 10
917.4488065327
 20
304.076179286
 10
917.6930549431
 20
301.3343683961
 10
917.6581472689
 20
298.5890082531
 10
917.344203844
 20
295.8495626821
 10
916.7523068966
 20
293.1254751194
 10
915.8844968179
 20
290.4261360594
 10
914.7437651291
 20
287.7608506828
 10
913.3340441687
 20
285.1388067805
 10
911.6601935368
 20
282.5690430811
 10
909.7279833433
 20
280.0604180924
 10
907.5440743171
 20
277.6215795644
 10
905.115994845
 20
275.2609346787
 10
902.4521150199
 20
272.9866210673
 10
899.5616177874
 20
270.8064787604
 10
899.5412494659
 20
270.7920222278
  0
LWPOLYLINE
  5
327
330
1F
100
AcDbEntity
  8
0
  6
Continuous
 62
     7
370
    15
100
AcDbPolyline
 90
       14
 70
   128
 43
0.0
 10
893.2772887216
 20
266.8347889015
 10
893.1413745201
 20
266.7584191335
 10
889.6337603938
 20
264.9044563136
 10
885.9437163841
 20
263.1725256945
 10
882.083962837
 20
261.5685975997
 10
878.0678051225
 20
260.0982011016
 10
873.9090877685
 20
258.7664049615
 10
869.622146735
 20
257.5778001568
 10
865.2217599959
 20
256.5364840543
 10
860.7230965959
 20
255.6460462863
 10
856.1416643597
 20
254.9095563764
 10
851.4932564333
 20
254.3295531579
 10
846.7938968419
 20
253.9080360219
 10
844.0213771542
 20
253.7352014793
  0
LWPOLYLINE
  5
328
330
1F
100
AcDbEntity
  8
0
  6
Continuous
 62
     7
370
    15
100
AcDbPolyline
 90
       14
 70
   128
 43
0.0
 10
829.404008274
 20
253.7352014793
 10
827.8123943473
 20
253.8276025523
 10
823.1028223995
 20
254.2092496617
 10
818.4401664942
 20
254.7497975647
 10
813.8404997721
 20
255.4473828808
 10
809.3196782373
 20
256.2996008888
 10
804.8932860983
 20
257.3035138168
 10
800.5765820455
 20
258.4556609688
 10
796.3844466523
 20
259.7520706551
 10
792.3313310776
 20
261.1882738827
 10
788.4312072507
 20
262.7593197618
 10
784.6975197062
 20
264.4597925716
 10
781.1431392386
 20
266.2838304301
 10
780.1480967065
 20
266.8347889015
  0
LWPOLYLINE
  5
329
330
1F
100
AcDbEntity
  8
0
  6
Continuous
 62
     7
370
    15
100
AcDbPolyline
 90
       27
 70
   128
 43
0.0
 10
773.8841359623
 20
270.7920222278
 10
771.6750254631
 20
272.4324576092
 10
768.9535993074
 20
274.6839511701
 10
766.4657527838
 20
277.023764987
 10
764.2200620145
 20
279.4438332369
 10
762.2242683609
 20
281.9358134433
 10
760.4852517373
 20
284.4911152341
 10
759.009006894
 20
287.1009299546
 10
757.800622753
 20
289.756261033
 10
756.8642648647
 20
292.4479549928
 10
756.2031610487
 20
295.1667330074
 10
755.8195902668
 20
297.9032228858
 10
755.714874767
 20
300.6479913804
 10
755.8893755253
 20
303.3915767056
 10
756.3424910014
 20
306.1245211544
 10
757.0726592125
 20
308.8374037013
 10
758.0773631173
 20
311.5208724779
 10
759.3531392935
 20
314.1656770116
 10
760.8955898763
 20
316.7627001133
 10
762.6993977189
 20
319.3029893061
 10
764.7583447221
 20
321.7777876872
 10
767.0653332689
 20
324.1785641138
 10
769.612410692
 20
326.4970426121
 10
772.3907966879
 20
328.7252309065
 10
775.3909135844
 20
330.8554479704
 10
778.602419357
 20
332.8803505043
 10
779.427736803
 20
333.3639209381
  0
LINE
  5
32A
330
1F
100
AcDbEntity
  8
0
  6
Continuous
 62
     7
370
    15
100
AcDbLine
 10
827.7126927141
 20
253.1714907118
 30
0.0
 11
827.7126927141
 21
247.1721408243
 31
0.0
  0
LINE
  5
32B
330
1F
100
AcDbEntity
  8
0
  6
Continuous
 62
     7
370
    15
100
AcDbLine
 10
836.7126927141
 20
256.1711656556
 30
0.0
 11
827.7126927141
 21
253.1714907118
 31
0.0
  0
LINE
  5
32C
330
1F
100
AcDbEntity
  8
0
  6
Continuous
 62
     7
370
    15
100
AcDbLine
 10
845.7126927141
 20
253.1714907118
 30
0.0
 11
836.7126927141
 21
256.1711656556
 31
0.0
  0
LINE
  5
32D
330
1F
100
AcDbEntity
  8
0
  6
Continuous
 62
     7
370
    15
100
AcDbLine
 10
845.7126927141
 20
247.1721408243
 30
0.0
 11
845.7126927141
 21
253.1714907118
 31
0.0
  0
LINE
  5
32E
330
1F
100
AcDbEntity
  8
0
  6
Continuous
 62
     7
370
    15
100
AcDbLine
 10
836.7126927141
 20
244.1724658806
 30
0.0
 11
845.7126927141
 21
247.1721408243
 31
0.0
  0
LINE
  5
32F
330
1F
100
AcDbEntity
  8
0
  6
Continuous
 62
     7
370
    15
100
AcDbLine
 10
827.7126927141
 20
247.1721408243
 30
0.0
 11
836.7126927141
 21
244.1724658806
 31
0.0
  0
LINE
  5
330
330
1F
100
AcDbEntity
  8
0
  6
Continuous
 62
     7
370
    15
100
AcDbLine
 10
836.7126927141
 20
244.1724658806
 30
0.0
 11
836.7126927141
 21
240.0897618212
 31
0.0
  0
LINE
  5
331
330
1F
100
AcDbEntity
  8
0
  6
Continuous
 62
     7
370
    15
100
AcDbLine
 10
845.7126927141
 20
247.1721408243
 30
0.0
 11
845.7126927141
 21
243.0894367649
 31
0.0
  0
LINE
  5
332
330
1F
100
AcDbEntity
  8
0
  6
Continuous
 62
     7
370
    15
100
AcDbLine
 10
827.7126927141
 20
247.1721408243
 30
0.0
 11
827.7126927141
 21
243.0894367649
 31
0.0
  0
SPLINE
  5
333
330
1F
100
AcDbEntity
  8
0
  6
Continuous
 62
     7
370
    15
100
AcDbSpline
210
0.0
220
0.0
230
1.0
 70
     8
 71
     3
 72
    17
 73
    13
 74
     0
 42
0.000000001
 43
0.00000001
 40
0.0
 40
0.0
 40
0.0
 40
0.0
 40
0.0935359841728115
 40
0.187907038641999
 40
0.2819179843183818
 40
0.3746606265404931
 40
0.4972664792145626
 40
0.618353798549474
 40
0.7380058640757042
 40
0.8561635118481247
 40
0.9720591982429224
 40
1.0
 40
1.0
 40
1.0
 40
1.0
 10
847.0578820694348
 20
178.9279636098737
 30
0.0
 10
847.1214875430244
 20
180.5251890379421
 30
0.0
 10
847.2492663469717
 20
183.7338995987626
 30
0.0
 10
848.274366367756
 20
188.5487446224884
 30
0.0
 10
849.8624046204628
 20
193.2902165308492
 30
0.0
 10
852.2338387971857
 20
198.4147241353325
 30
0.0
 10
855.4923575569093
 20
203.852152088112
 30
0.0
 10
859.7169851539461
 20
209.5392930848875
 30
0.0
 10
864.4575224369812
 20
214.9810785067279
 30
0.0
 10
869.5969564910466
 20
220.1304341705098
 30
0.0
 10
873.6200673006942
 20
223.8517758618756
 30
0.0
 10
875.9344576693369
 20
225.7435793039155
 30
0.0
 10
876.3840370723772
 20
226.1110695396448
 30
0.0
  0
SPLINE
  5
334
330
1F
100
AcDbEntity
  8
0
  6
Continuous
 62
     7
370
    15
100
AcDbSpline
210
0.0
220
0.0
230
1.0
 70
     8
 71
     3
 72
     9
 73
     5
 74
     0
 42
0.000000001
 43
0.00000001
 40
0.0
 40
0.0
 40
0.0
 40
0.0
 40
0.2556299906480062
 40
1.0
 40
1.0
 40
1.0
 40
1.0
 10
918.0910001892231
 20
244.0475874385838
 30
0.0
 10
918.1135558454831
 20
244.0239798000235
 30
0.0
 10
918.2017914089355
 20
243.9316289827328
 30
0.0
 10
918.2622148498617
 20
243.7921912460087
 30
0.0
 10
918.3071922471488
 20
243.6883979766193
 30
0.0
  0
SPLINE
  5
335
330
1F
100
AcDbEntity
  8
0
  6
Continuous
 62
     7
370
    15
100
AcDbSpline
210
0.0
220
0.0
230
1.0
 70
     8
 71
     3
 72
    15
 73
    11
 74
     0
 42
0.000000001
 43
0.00000001
 40
0.0
 40
0.0
 40
0.0
 40
0.0
 40
0.0902862210847756
 40
0.2173995952987717
 40
0.3446370137397097
 40
0.4730522136683087
 40
0.6038450238779667
 40
0.7351844210838177
 40
0.8681606419828654
 40
1.0
 40
1.0
 40
1.0
 40
1.0
 10
863.5897977106795
 20
148.3083071381685
 30
0.0
 10
862.7159946697238
 20
148.941627107065
 30
0.0
 10
860.6119700999479
 20
150.4665940763154
 30
0.0
 10
857.6238172899982
 20
153.3574763779826
 30
0.0
 10
854.6277270354565
 20
156.8697480246205
 30
0.0
 10
852.0312376244092
 20
160.751812645485
 30
0.0
 10
849.8860124314273
 20
164.9532425738683
 30
0.0
 10
848.2864399116592
 20
169.4424278538432
 30
0.0
 10
847.2515176269161
 20
174.1191348228247
 30
0.0
 10
847.1222422606504
 20
177.3296149166733
 30
0.0
 10
847.0578820694348
 20
178.9279636098737
 30
0.0
  0
LWPOLYLINE
  5
336
330
1F
100
AcDbEntity
  8
0
  6
Continuous
 62
     7
370
    15
100
AcDbPolyline
 90
       22
 70
   128
 43
0.0
 10
776.6086163132
 20
124.3458606798
 10
780.1379100652
 20
122.4216182911
 10
783.851738999
 20
120.6168279078
 10
787.7379893765
 20
118.9373763809
 10
791.7839850568
 20
117.3887417324
 10
795.9765288429
 20
115.9759752864
 10
800.3019455285
 20
114.7036851936
 10
804.7461265033
 20
113.5760213997
 10
809.2945757728
 20
112.5966621097
 10
813.9324572409
 20
111.76880179
 10
818.6446431021
 20
111.0951407488
 10
823.4157631857
 20
110.5778763286
 10
828.2302550896
 20
110.2186957382
 10
833.0724149419
 20
110.0187705502
 10
837.9264486237
 20
109.978752879
 10
842.776523286
 20
110.0987732538
 10
847.6068189934
 20
110.3784401931
 10
852.4015803252
 20
110.8168414816
 10
857.1451677666
 20
111.4125471454
 10
861.8221087213
 20
112.1636141163
 10
866.41714798
 20
113.0675925701
 10
867.1803888025
 20
113.2343451406
  0
LWPOLYLINE
  5
337
330
1F
100
AcDbEntity
  8
0
  6
Continuous
 62
     7
370
    15
100
AcDbPolyline
 90
       15
 70
   128
 43
0.0
 10
751.7126927141
 20
159.0432054322
 10
751.7906792091
 20
156.9417178058
 10
752.1369973167
 20
154.1463984231
 10
752.7591837635
 20
151.367051407
 10
753.6552091065
 20
148.6127424099
 10
754.8221506974
 20
145.8924554151
 10
756.2562022152
 20
143.2150634335
 10
757.952686082
 20
140.5892995612
 10
759.9060687199
 20
138.0237284941
 10
762.1099786009
 20
135.5267185919
 10
764.5572270289
 20
133.1064145818
 10
767.2398315884
 20
130.7707109924
 10
770.1490421808
 20
128.5272264034
 10
773.2753695657
 20
126.3832785951
 10
776.6086163132
 20
124.3458606798
  0
LWPOLYLINE
  5
338
330
1F
100
AcDbEntity
  8
0
  6
Continuous
 62
     7
370
    15
100
AcDbPolyline
 90
       20
 70
   128
 43
0.0
 10
965.0525734995
 20
184.9753097879
 10
964.9545001286
 20
187.5847219254
 10
964.6609866371
 20
190.0621000849
 10
964.1741477962
 20
192.3895947
 10
963.497491291
 20
194.5504361188
 10
962.6358924472
 20
196.5290554292
 10
961.5955591041
 20
198.3111966338
 10
960.3839868872
 20
199.8840193644
 10
959.0099052023
 20
201.2361913972
 10
957.4832143393
 20
202.3579703016
 10
955.8149141409
 20
203.241273635
 10
954.0170247482
 20
203.8797371766
 10
952.1024999955
 20
204.268760782
 10
950.0851340775
 20
204.4055415272
 10
947.9794621619
 20
204.2890939037
 10
945.8006556631
 20
203.9202569194
 10
943.5644129318
 20
203.3016880531
 10
941.2868461482
 20
202.4378441078
 10
938.9843652332
 20
201.3349490989
 10
938.5225789993
 20
201.0864858997
  0
LWPOLYLINE
  5
339
330
1F
100
AcDbEntity
  8
0
  6
Continuous
 62
     7
370
    15
100
AcDbPolyline
 90
       38
 70
   128
 43
0.0
 10
910.6143020266
 20
152.7426940801
 10
910.7034247189
 20
150.9341853452
 10
910.9969382105
 20
148.4568071857
 10
911.4837770513
 20
146.1293125706
 10
912.1604335565
 20
143.9684711518
 10
913.0220324004
 20
141.9898518414
 10
914.0623657435
 20
140.2077106368
 10
915.2739379603
 20
138.6348879062
 10
916.6480196452
 20
137.2827158734
 10
918.1747105082
 20
136.160936969
 10
919.8430107067
 20
135.2776336356
 10
921.6409000994
 20
134.639170094
 10
923.5554248521
 20
134.2501464886
 10
925.57279077
 20
134.1133657435
 10
927.6784626856
 20
134.2298133669
 10
929.8572691844
 20
134.5986503513
 10
932.0935119157
 20
135.2172192175
 10
934.3710786993
 20
136.0810631628
 10
936.6735596144
 20
137.1839581717
 10
938.9843652332
 20
138.5179578604
 10
941.2868461482
 20
140.0734507307
 10
943.5644129318
 20
141.8392294207
 10
945.8006556631
 20
143.8025714544
 10
947.9794621619
 20
145.9493309077
 10
950.0851340775
 20
148.2640403293
 10
952.1024999955
 20
150.7300221849
 10
954.0170247482
 20
153.3295090187
 10
955.8149141409
 20
156.0437714685
 10
957.4832143393
 20
158.8532532111
 10
959.0099052023
 20
161.7377118663
 10
960.3839868872
 20
164.6763648433
 10
961.5955591041
 20
167.64803908
 10
962.6358924472
 20
170.6313235956
 10
963.497491291
 20
173.6047237566
 10
964.1741477962
 20
176.5468161468
 10
964.6609866371
 20
179.4364029232
 10
964.9545001286
 20
182.2526645467
 10
965.0525734995
 20
184.9753097879
  0
SPLINE
  5
33A
330
1F
100
AcDbEntity
  8
0
  6
Continuous
 62
     7
370
    15
100
AcDbSpline
210
0.0
220
0.0
230
1.0
 70
     8
 71
     3
 72
    14
 73
    10
 74
     0
 42
0.000000001
 43
0.00000001
 40
0.0
 40
0.0
 40
0.0
 40
0.0
 40
0.1790932150789147
 40
0.3574044076894469
 40
0.4757986627314847
 40
0.5955551192958158
 40
0.7182660410476057
 40
0.8985015223295088
 40
0.9999999999999999
 40
0.9999999999999999
 40
0.9999999999999999
 40
0.9999999999999999
 10
855.3460309819292
 20
177.2800429900742
 30
0.0
 10
855.4126045855403
 20
175.9384240833729
 30
0.0
 10
855.545461094682
 20
173.2610445384066
 30
0.0
 10
856.4800286854271
 20
169.7808752085187
 30
0.0
 10
857.647941458969
 20
166.8434559847404
 30
0.0
 10
858.910548211061
 20
164.3875507131493
 30
0.0
 10
860.6603524445932
 20
161.6474537219421
 30
0.0
 10
862.5705316797391
 20
159.1519408059845
 30
0.0
 10
864.1416693572587
 20
157.6225063264728
 30
0.0
 10
864.7076930026578
 20
157.0715068234507
 30
0.0
  0
SPLINE
  5
33B
330
1F
100
AcDbEntity
  8
0
  6
Continuous
 62
     7
370
    15
100
AcDbSpline
210
0.0
220
0.0
230
1.0
 70
     8
 71
     3
 72
    28
 73
    24
 74
     0
 42
0.000000001
 43
0.00000001
 40
0.0
 40
0.0
 40
0.0
 40
0.0
 40
0.0212424960960048
 40
0.0667737658691576
 40
0.1127475956471762
 40
0.1595459645920959
 40
0.1989905355989693
 40
0.2392246122987712
 40
0.2788105256791029
 40
0.3183892746357903
 40
0.3588424760545605
 40
0.3972732028531518
 40
0.4402979245915882
 40
0.4917588221250839
 40
0.5374859663583488
 40
0.5814661645294612
 40
0.6300597760653964
 40
0.6765898822387637
 40
0.7225133884800704
 40
0.7923106701241058
 40
0.8621722892196132
 40
0.931203431140849
 40
1.0
 40
1.0
 40
1.0
 40
1.0
 10
897.5874017534218
 20
224.6527046118689
 30
0.0
 10
897.2006081772458
 20
224.414296228247
 30
0.0
 10
895.9847593627496
 20
223.6648821519886
 30
0.0
 10
893.8420722328696
 20
222.2810765781058
 30
0.0
 10
891.2004693043691
 20
220.5431763830489
 30
0.0
 10
888.6503053488372
 20
218.8123757070362
 30
0.0
 10
886.2121099699347
 20
217.1112397907582
 30
0.0
 10
883.9228121165349
 20
215.4685922644237
 30
0.0
 10
881.6515423947229
 20
213.7894490131829
 30
0.0
 10
879.4058369209395
 20
212.0746839265736
 30
0.0
 10
877.2205902952608
 20
210.345069554748
 30
0.0
 10
875.0195911377899
 20
208.5345649888958
 30
0.0
 10
872.6836269552241
 20
206.5247163154773
 30
0.0
 10
870.3092078060971
 20
204.3606603098719
 30
0.0
 10
868.029028784305
 20
202.1332150729085
 30
0.0
 10
865.9082883265501
 20
199.905060090627
 30
0.0
 10
863.9091224772837
 20
197.6112429258883
 30
0.0
 10
862.0405315440889
 20
195.2276991881922
 30
0.0
 10
860.0933318773156
 20
192.4174795058654
 30
0.0
 10
858.1876945971281
 20
189.0995942199326
 30
0.0
 10
856.5843227238855
 20
185.2339105227205
 30
0.0
 10
855.5424911722157
 20
181.275500571279
 30
0.0
 10
855.4114433673116
 20
178.6103502177083
 30
0.0
 10
855.3460309819292
 20
177.2800429900742
 30
0.0
  0
LINE
  5
33C
330
1F
100
AcDbEntity
  8
0
  6
Continuous
 62
     7
370
    15
100
AcDbLine
 10
899.4303435573
 20
260.0171269669
 30
0.0
 11
899.4303435573
 21
255.9344229075
 31
0.0
  0
LINE
  5
33D
330
1F
100
AcDbEntity
  8
0
  6
Continuous
 62
     7
370
    15
100
AcDbLine
 10
899.4303435573
 20
260.0171269669
 30
0.0
 11
909.4685392022
 21
261.569872976
 31
0.0
  0
LINE
  5
33E
330
1F
100
AcDbEntity
  8
0
  6
Continuous
 62
     7
370
    15
100
AcDbLine
 10
909.4685392022
 20
261.569872976
 30
0.0
 11
909.4685392022
 21
257.4871689166
 31
0.0
  0
LINE
  5
33F
330
1F
100
AcDbEntity
  8
0
  6
Continuous
 62
     7
370
    15
100
AcDbLine
 10
892.081874329
 20
264.2593079551
 30
0.0
 11
899.4303435573
 21
260.0171269669
 31
0.0
  0
LINE
  5
340
330
1F
100
AcDbEntity
  8
0
  6
Continuous
 62
     7
370
    15
100
AcDbLine
 10
894.7716007455
 20
270.0542349524
 30
0.0
 11
892.081874329
 21
264.2593079551
 31
0.0
  0
LINE
  5
341
330
1F
100
AcDbEntity
  8
0
  6
Continuous
 62
     7
370
    15
100
AcDbLine
 10
904.8097963904
 20
271.6069809615
 30
0.0
 11
894.7716007455
 21
270.0542349524
 31
0.0
  0
LINE
  5
342
330
1F
100
AcDbEntity
  8
0
  6
Continuous
 62
     7
370
    15
100
AcDbLine
 10
912.1582656187
 20
267.3647999733
 30
0.0
 11
904.8097963904
 21
271.6069809615
 31
0.0
  0
LINE
  5
343
330
1F
100
AcDbEntity
  8
0
  6
Continuous
 62
     7
370
    15
100
AcDbLine
 10
909.4685392022
 20
261.569872976
 30
0.0
 11
912.1582656187
 21
267.3647999733
 31
0.0
  0
LINE
  5
344
330
1F
100
AcDbEntity
  8
0
  6
Continuous
 62
     7
370
    15
100
AcDbLine
 10
768.6155890378
 20
271.6069809615
 30
0.0
 11
761.2671198095
 21
267.3647999733
 31
0.0
  0
LINE
  5
345
330
1F
100
AcDbEntity
  8
0
  6
Continuous
 62
     7
370
    15
100
AcDbLine
 10
778.6537846827
 20
270.0542349524
 30
0.0
 11
768.6155890378
 21
271.6069809615
 31
0.0
  0
LINE
  5
346
330
1F
100
AcDbEntity
  8
0
  6
Continuous
 62
     7
370
    15
100
AcDbLine
 10
781.3435110992
 20
264.2593079551
 30
0.0
 11
778.6537846827
 21
270.0542349524
 31
0.0
  0
LINE
  5
347
330
1F
100
AcDbEntity
  8
0
  6
Continuous
 62
     7
370
    15
100
AcDbLine
 10
773.9950418708
 20
260.0171269669
 30
0.0
 11
781.3435110992
 21
264.2593079551
 31
0.0
  0
LINE
  5
348
330
1F
100
AcDbEntity
  8
0
  6
Continuous
 62
     7
370
    15
100
AcDbLine
 10
763.956846226
 20
261.569872976
 30
0.0
 11
773.9950418708
 21
260.0171269669
 31
0.0
  0
LINE
  5
349
330
1F
100
AcDbEntity
  8
0
  6
Continuous
 62
     7
370
    15
100
AcDbLine
 10
761.2671198095
 20
267.3647999733
 30
0.0
 11
763.956846226
 21
261.569872976
 31
0.0
  0
LINE
  5
34A
330
1F
100
AcDbEntity
  8
0
  6
Continuous
 62
     7
370
    15
100
AcDbLine
 10
763.956846226
 20
261.569872976
 30
0.0
 11
763.956846226
 21
257.4871689166
 31
0.0
  0
LINE
  5
34B
330
1F
100
AcDbEntity
  8
0
  6
Continuous
 62
     7
370
    15
100
AcDbLine
 10
773.9950418708
 20
260.0171269669
 30
0.0
 11
773.9950418708
 21
255.9344229075
 31
0.0
  0
LINE
  5
34C
330
1F
100
AcDbEntity
  8
0
  6
Continuous
 62
     7
370
    15
100
AcDbLine
 10
892.081874329
 20
264.2593079551
 30
0.0
 11
892.081874329
 21
260.1766038957
 31
0.0
  0
LINE
  5
34D
330
1F
100
AcDbEntity
  8
0
  6
Continuous
 62
     7
370
    15
100
AcDbLine
 10
781.3435110992
 20
264.2593079551
 30
0.0
 11
781.3435110992
 21
260.1766038957
 31
0.0
  0
LINE
  5
34E
330
1F
100
AcDbEntity
  8
0
  6
Continuous
 62
     7
370
    15
100
AcDbLine
 10
912.1582656187
 20
267.3647999733
 30
0.0
 11
912.1582656187
 21
263.2820959139
 31
0.0
  0
LINE
  5
34F
330
1F
100
AcDbEntity
  8
0
  6
Continuous
 62
     7
370
    15
100
AcDbLine
 10
761.2671198095
 20
267.3647999733
 30
0.0
 11
761.2671198095
 21
263.2820959139
 31
0.0
  0
LINE
  5
350
330
1F
100
AcDbEntity
  8
0
  6
Continuous
 62
     7
370
    15
100
AcDbLine
 10
924.0165402914
 20
298.3753397272
 30
0.0
 11
924.0165402914
 21
294.2926356678
 31
0.0
  0
LINE
  5
351
330
1F
100
AcDbEntity
  8
0
  6
Continuous
 62
     7
370
    15
100
AcDbLine
 10
924.0165402914
 20
298.3753397272
 30
0.0
 11
934.4088451368
 21
298.3753397272
 31
0.0
  0
LINE
  5
352
330
1F
100
AcDbEntity
  8
0
  6
Continuous
 62
     7
370
    15
100
AcDbLine
 10
934.4088451368
 20
298.3753397272
 30
0.0
 11
934.4088451368
 21
294.2926356678
 31
0.0
  0
LINE
  5
353
330
1F
100
AcDbEntity
  8
0
  6
Continuous
 62
     7
370
    15
100
AcDbLine
 10
918.8203878687
 20
303.570929136
 30
0.0
 11
924.0165402914
 21
298.3753397272
 31
0.0
  0
LINE
  5
354
330
1F
100
AcDbEntity
  8
0
  6
Continuous
 62
     7
370
    15
100
AcDbLine
 10
924.0165402914
 20
308.7665185448
 30
0.0
 11
918.8203878687
 21
303.570929136
 31
0.0
  0
LINE
  5
355
330
1F
100
AcDbEntity
  8
0
  6
Continuous
 62
     7
370
    15
100
AcDbLine
 10
934.4088451368
 20
308.7665185448
 30
0.0
 11
924.0165402914
 21
308.7665185448
 31
0.0
  0
LINE
  5
356
330
1F
100
AcDbEntity
  8
0
  6
Continuous
 62
     7
370
    15
100
AcDbLine
 10
939.6049975595
 20
303.570929136
 30
0.0
 11
934.4088451368
 21
308.7665185448
 31
0.0
  0
LINE
  5
357
330
1F
100
AcDbEntity
  8
0
  6
Continuous
 62
     7
370
    15
100
AcDbLine
 10
934.4088451368
 20
298.3753397272
 30
0.0
 11
939.6049975595
 21
303.570929136
 31
0.0
  0
LINE
  5
358
330
1F
100
AcDbEntity
  8
0
  6
Continuous
 62
     7
370
    15
100
AcDbLine
 10
739.0165402914
 20
298.3753397272
 30
0.0
 11
739.0165402914
 21
294.2926356678
 31
0.0
  0
LINE
  5
359
330
1F
100
AcDbEntity
  8
0
  6
Continuous
 62
     7
370
    15
100
AcDbLine
 10
739.0165402914
 20
298.3753397272
 30
0.0
 11
749.4088451368
 21
298.3753397272
 31
0.0
  0
LINE
  5
35A
330
1F
100
AcDbEntity
  8
0
  6
Continuous
 62
     7
370
    15
100
AcDbLine
 10
749.4088451368
 20
298.3753397272
 30
0.0
 11
749.4088451368
 21
294.2926356678
 31
0.0
  0
LINE
  5
35B
330
1F
100
AcDbEntity
  8
0
  6
Continuous
 62
     7
370
    15
100
AcDbLine
 10
749.4088451368
 20
308.7665185448
 30
0.0
 11
739.0165402914
 21
308.7665185448
 31
0.0
  0
LINE
  5
35C
330
1F
100
AcDbEntity
  8
0
  6
Continuous
 62
     7
370
    15
100
AcDbLine
 10
754.6049975595
 20
303.570929136
 30
0.0
 11
749.4088451368
 21
308.7665185448
 31
0.0
  0
LINE
  5
35D
330
1F
100
AcDbEntity
  8
0
  6
Continuous
 62
     7
370
    15
100
AcDbLine
 10
749.4088451368
 20
298.3753397272
 30
0.0
 11
754.6049975595
 21
303.570929136
 31
0.0
  0
LINE
  5
35E
330
1F
100
AcDbEntity
  8
0
  6
Continuous
 62
     7
370
    15
100
AcDbLine
 10
733.8203878687
 20
303.570929136
 30
0.0
 11
739.0165402914
 21
298.3753397272
 31
0.0
  0
LINE
  5
35F
330
1F
100
AcDbEntity
  8
0
  6
Continuous
 62
     7
370
    15
100
AcDbLine
 10
739.0165402914
 20
308.7665185448
 30
0.0
 11
733.8203878687
 21
303.570929136
 31
0.0
  0
LINE
  5
360
330
1F
100
AcDbEntity
  8
0
  6
Continuous
 62
     7
370
    15
100
AcDbLine
 10
939.6049975595
 20
303.570929136
 30
0.0
 11
939.6049975595
 21
299.4882250766
 31
0.0
  0
LINE
  5
361
330
1F
100
AcDbEntity
  8
0
  6
Continuous
 62
     7
370
    15
100
AcDbLine
 10
918.8203878687
 20
303.570929136
 30
0.0
 11
918.8203878687
 21
299.4882250766
 31
0.0
  0
LINE
  5
362
330
1F
100
AcDbEntity
  8
0
  6
Continuous
 62
     7
370
    15
100
AcDbLine
 10
754.6049975595
 20
303.570929136
 30
0.0
 11
754.6049975595
 21
299.4882250766
 31
0.0
  0
LINE
  5
363
330
1F
100
AcDbEntity
  8
0
  6
Continuous
 62
     7
370
    15
100
AcDbLine
 10
733.8203878687
 20
303.570929136
 30
0.0
 11
733.8203878687
 21
299.4882250766
 31
0.0
  0
LWPOLYLINE
  5
364
330
1F
100
AcDbEntity
  8
0
  6
Continuous
 62
     7
370
    15
100
AcDbPolyline
 90
       21
 70
   128
 43
0.0
 10
867.5345383984
 20
112.3426926856
 10
863.4544884523
 20
111.4340937139
 10
858.9408907696
 20
110.5959981228
 10
854.3492157305
 20
109.9137344674
 10
849.6955917612
 20
109.3896992237
 10
844.9963648854
 20
109.0257330845
 10
840.268041309
 20
108.8231144942
 10
835.527229441
 20
108.7825551581
 10
830.790581556
 20
108.9041975422
 10
826.0747353024
 20
109.1876143732
 10
821.3962552622
 20
109.6318101392
 10
816.7715747672
 20
110.2352245864
 10
812.2169381762
 20
110.9957381995
 10
807.7483438164
 20
111.9106796467
 10
803.3814877885
 20
112.9768351628
 10
799.1317088336
 20
114.1904598376
 10
795.0139344551
 20
115.5472907703
 10
791.0426284859
 20
117.0425620427
 10
787.2317402829
 20
118.6710214599
 10
783.5946557299
 20
120.4269489988
 10
780.1441502192
 20
122.3041768999
  0
LWPOLYLINE
  5
365
330
1F
100
AcDbEntity
  8
0
  6
Continuous
 62
     7
370
    15
100
AcDbPolyline
 90
       48
 70
   128
 43
0.0
 10
679.3814339001
 20
242.9402857273
 10
679.4790345606
 20
247.1212647834
 10
679.7715452635
 20
251.4024534789
 10
680.2580930419
 20
255.7710750638
 10
680.9372258459
 20
260.2140918545
 10
681.8069168763
 20
264.7182441426
 10
682.8645706334
 20
269.2700897673
 10
684.1070306625
 20
273.8560442323
 10
685.5305889747
 20
278.462421247
 10
687.1309971123
 20
283.075473572
 10
688.9034788286
 20
287.6814340459
 10
690.8427443414
 20
292.2665566725
 10
692.9430061203
 20
296.8171576438
 10
695.1979961586
 20
301.3196561778
 10
697.6009846797
 20
305.7606150493
 10
700.1448002215
 20
310.1267806917
 10
702.8218510386
 20
314.4051227505
 10
705.6241477591
 20
318.5828729716
 10
708.5433272283
 20
322.6475633062
 10
711.5706774672
 20
326.5870631209
 10
714.6971636729
 20
330.3896153999
 10
717.9134551818
 20
334.0438718325
 10
721.2099533159
 20
337.5389266814
 10
724.5768200291
 20
340.8643493293
 10
728.0040072678
 20
344.0102154079
 10
731.4812869583
 20
346.9671364164
 10
734.9982815314
 20
349.7262877404
 10
738.5444948929
 20
352.2794349878
 10
742.1093437484
 20
354.6189585639
 10
745.6821891877
 20
356.7378764107
 10
749.2523684359
 20
358.6298648446
 10
752.8092266748
 20
360.2892774285
 10
756.3421488416
 20
361.7111618231
 10
759.8405913078
 20
362.8912745663
 10
763.2941133462
 20
363.8260937381
 10
766.6924082897
 20
364.5128294705
 10
770.0253342905
 20
364.9494322743
 10
773.2829445874
 20
365.134599155
 10
776.455517191
 20
365.0677775019
 10
779.5335838977
 20
364.7491667372
 10
782.5079585467
 20
364.1797177204
 10
785.3697644349
 20
363.3611299114
 10
788.1104608089
 20
362.2958462979
 10
790.7218683534
 20
360.9870461048
 10
793.196193602
 20
359.4386353064
 10
795.5260521956
 20
357.6552349691
 10
797.7044909205
 20
355.6421674603
 10
798.100140448
 20
355.2348247794
  0
LWPOLYLINE
  5
366
330
1F
100
AcDbEntity
  8
0
  6
Continuous
 62
     7
370
    15
100
AcDbPolyline
 90
       30
 70
   128
 43
0.0
 10
744.7994416981
 20
205.1752736764
 10
742.1093437484
 20
203.6857160111
 10
738.5444948929
 20
201.9093527078
 10
734.9982815314
 20
200.3681291592
 10
731.4812869583
 20
199.0666449822
 10
728.0040072678
 20
198.0087843171
 10
724.5768200291
 20
197.1977042358
 10
721.2099533159
 20
196.6358253201
 10
717.9134551818
 20
196.3248244376
 10
714.6971636729
 20
196.2656297372
 10
711.5706774672
 20
196.4584178789
 10
708.5433272283
 20
196.9026135074
 10
705.6241477591
 20
197.5968909682
 10
702.8218510386
 20
198.5391782645
 10
700.1448002215
 20
199.7266632407
 10
697.6009846797
 20
201.1558019749
 10
695.1979961586
 20
202.8223293554
 10
692.9430061203
 20
204.7212718094
 10
690.8427443414
 20
206.8469621465
 10
688.9034788286
 20
209.193056471
 10
687.1309971123
 20
211.7525531156
 10
685.5305889747
 20
214.5178135361
 10
684.1070306625
 20
217.4805851087
 10
682.8645706334
 20
220.6320257586
 10
681.8069168763
 20
223.9627303481
 10
680.9372258459
 20
227.4627587458
 10
680.2580930419
 20
231.1216654913
 10
679.7715452635
 20
234.9285309687
 10
679.4790345606
 20
238.8719939952
 10
679.3814339001
 20
242.9402857273
  0
LWPOLYLINE
  5
367
330
1F
100
AcDbEntity
  8
0
  6
Continuous
 62
     7
370
    15
100
AcDbPolyline
 90
       30
 70
   128
 43
0.0
 10
686.452501712
 20
242.9402857273
 10
686.5515987955
 20
238.9553575541
 10
686.8485726083
 20
235.0976093644
 10
687.3424718537
 20
231.3793986887
 10
688.0317144235
 20
227.8126360768
 10
688.9140924661
 20
224.4087469446
 10
689.9867794584
 20
221.1786349753
 10
691.2463392606
 20
218.1326471911
 10
692.6887371231
 20
215.2805408093
 10
694.3093526106
 20
212.6314519865
 10
696.1029944031
 20
210.1938665528
 10
698.0639169252
 20
207.9755928293
 10
700.1858387509
 20
205.9837366153
 10
702.4619627249
 20
204.2246784269
 10
704.884997736
 20
202.7040530577
 10
707.4471820724
 20
201.4267315293
 10
710.1403082853
 20
200.3968054875
 10
712.9557494796
 20
199.6175740961
 10
715.8844869483
 20
199.091533468
 10
718.9171390623
 20
198.8203686699
 10
722.0439913228
 20
198.8049483245
 10
725.2550274791
 20
199.0453218278
 10
728.5399616145
 20
199.540719191
 10
731.8882710946
 20
200.2895535069
 10
735.2892302747
 20
201.2894260336
 10
738.7319448572
 20
202.5371338778
 10
742.2053867895
 20
204.0286802553
 10
745.6984295899
 20
205.7592872932
 10
749.1998839892
 20
207.7234113355
 10
751.7126927141
 20
209.2740900427
  0
LWPOLYLINE
  5
368
330
1F
100
AcDbEntity
  8
0
  6
Continuous
 62
     7
370
    15
100
AcDbPolyline
 90
       43
 70
   128
 43
0.0
 10
792.9018584801
 20
353.9390682765
 10
790.4994910732
 20
355.2815760861
 10
787.8707830196
 20
356.4356620744
 10
785.1153958031
 20
357.3406032135
 10
782.2421557594
 20
357.9935007041
 10
779.2602667427
 20
358.3922631187
 10
776.1792806424
 20
358.535613101
 10
773.009066786
 20
358.423091458
 10
769.759780324
 20
358.0550586302
 10
766.4418297006
 20
357.4326935378
 10
763.065843312
 20
356.5579898039
 10
759.6426354603
 20
355.4337493682
 10
756.1831717123
 20
354.0635735117
 10
752.6985337733
 20
352.4518513207
 10
749.1998839891
 20
350.6037456274
 10
745.6984295899
 20
348.5251764715
 10
742.2053867895
 20
346.2228021365
 10
738.7319448572
 20
343.7039978217
 10
735.2892302747
 20
340.9768320165
 10
731.8882710946
 20
338.0500406552
 10
728.5399616145
 20
334.9329991329
 10
725.2550274791
 20
331.6356922733
 10
722.0439913227
 20
328.1686823444
 10
718.9171390623
 20
324.5430752241
 10
715.8844869483
 20
320.7704848251
 10
712.9557494796
 20
316.8629958917
 10
710.1403082853
 20
312.8331252891
 10
707.4471820724
 20
308.6937819078
 10
704.884997736
 20
304.4582253123
 10
702.4619627249
 20
300.1400232675
 10
700.1858387509
 20
295.7530082764
 10
698.0639169252
 20
291.3112332704
 10
696.1029944031
 20
286.8289265941
 10
694.3093526106
 20
282.320446427
 10
692.6887371231
 20
277.8002347903
 10
691.2463392606
 20
273.2827712847
 10
689.9867794584
 20
268.7825267075
 10
688.9140924661
 20
264.313916699
 10
688.0317144235
 20
259.8912555641
 10
687.3424718537
 20
255.5287104198
 10
686.8485726083
 20
251.2402558134
 10
686.5515987955
 20
247.0396289578
 10
686.452501712
 20
242.9402857273
  0
LWPOLYLINE
  5
369
330
1F
100
AcDbEntity
  8
0
  6
Continuous
 62
     7
370
    15
100
AcDbPolyline
 90
       45
 70
   128
 43
0.0
 10
670.1890457447
 20
248.2469384542
 10
670.2866464052
 20
252.4279175103
 10
670.5791571081
 20
256.7091062057
 10
671.0657048865
 20
261.0777277907
 10
671.7448376905
 20
265.5207445814
 10
672.6145287209
 20
270.0248968695
 10
673.672182478
 20
274.5767424942
 10
674.9146425071
 20
279.1626969592
 10
676.3382008192
 20
283.7690739739
 10
677.9386089569
 20
288.3821262988
 10
679.7110906732
 20
292.9880867728
 10
681.650356186
 20
297.5732093994
 10
683.7506179649
 20
302.1238103706
 10
686.0056080032
 20
306.6263089046
 10
688.4085965243
 20
311.0672677762
 10
690.9524120661
 20
315.4334334185
 10
693.6294628831
 20
319.7117754774
 10
696.4317596037
 20
323.8895256984
 10
699.3509390728
 20
327.9542160331
 10
702.3782893118
 20
331.8937158478
 10
705.5047755175
 20
335.6962681267
 10
708.7210670264
 20
339.3505245594
 10
712.0175651605
 20
342.8455794083
 10
715.3844318737
 20
346.1710020561
 10
718.8116191124
 20
349.3168681347
 10
722.2888988029
 20
352.2737891432
 10
725.805893376
 20
355.0329404672
 10
729.3521067375
 20
357.5860877147
 10
732.916955593
 20
359.9256112908
 10
736.4898010323
 20
362.0445291376
 10
740.0599802805
 20
363.9365175715
 10
743.6168385194
 20
365.5959301554
 10
747.1497606862
 20
367.0178145499
 10
750.6482031524
 20
368.1979272932
 10
754.1017251908
 20
369.1327464649
 10
757.5000201343
 20
369.8194821973
 10
760.8329461351
 20
370.2560850011
 10
764.090556432
 20
370.4412518818
 10
767.2631290356
 20
370.3744302288
 10
770.3411957423
 20
370.055819464
 10
773.3155703913
 20
369.4863704473
 10
776.1773762795
 20
368.6677826383
 10
778.9180726535
 20
367.6024990247
 10
781.529480198
 20
366.2936988317
 10
781.8426643888
 20
366.1153333962
  0
LWPOLYLINE
  5
36A
330
1F
100
AcDbEntity
  8
0
  6
Continuous
 62
     7
370
    15
100
AcDbPolyline
 90
       16
 70
   128
 43
0.0
 10
689.35018162
 20
205.8962938557
 10
688.4085965243
 20
206.4624547017
 10
686.0056080032
 20
208.1289820822
 10
683.7506179649
 20
210.0279245363
 10
681.650356186
 20
212.1536148733
 10
679.7110906732
 20
214.4997091979
 10
677.9386089569
 20
217.0592058424
 10
676.3382008192
 20
219.824466263
 10
674.9146425071
 20
222.7872378356
 10
673.672182478
 20
225.9386784854
 10
672.6145287209
 20
229.269383075
 10
671.7448376905
 20
232.7694114727
 10
671.0657048865
 20
236.4283182181
 10
670.5791571081
 20
240.2351836955
 10
670.2866464052
 20
244.1786467221
 10
670.1890457447
 20
248.2469384542
  0
LWPOLYLINE
  5
36B
330
1F
100
AcDbEntity
  8
0
  6
Continuous
 62
     7
370
    15
100
AcDbPolyline
 90
       36
 70
   128
 43
0.0
 10
705.7103840351
 20
295.9177865802
 10
705.812655507
 20
297.2890175709
 10
706.1161828335
 20
298.7342561973
 10
706.6112103965
 20
300.2070513009
 10
707.2818276028
 20
301.6600660352
 10
708.1064802637
 20
303.0465993111
 10
709.0586633641
 20
304.3220868083
 10
710.1077729558
 20
305.4455333091
 10
711.2200897931
 20
306.3808303186
 10
712.3598630978
 20
307.0979166215
 10
713.490459618
 20
307.5737444738
 10
714.5755410513
 20
307.793020377
 10
715.5802319877
 20
307.748696623
 10
716.4722408337
 20
307.4421978137
 10
717.2228976911
 20
306.8833750732
 10
717.808075831
 20
306.090189424
 10
718.2089671463
 20
305.0881345056
 10
718.4126866603
 20
303.9094171876
 10
718.4126866603
 20
302.5919224144
 10
718.2089671463
 20
301.177995552
 10
717.808075831
 20
299.7130813732
 10
717.2228976911
 20
298.244263425
 10
716.4722408337
 20
296.8187507249
 10
715.5802319877
 20
295.4823604239
 10
714.5755410513
 20
294.2780452059
 10
713.490459618
 20
293.2445127529
 10
712.3598630978
 20
292.4149816483
 10
711.2200897931
 20
291.8161137044
 10
710.1077729558
 20
291.4671570297
 10
709.0586633641
 20
291.3793273788
 10
708.1064802637
 20
291.5554476689
 10
707.2818276028
 20
291.9898572491
 10
706.6112103965
 20
292.6685938379
 10
706.1161828335
 20
293.5698422829
 10
705.812655507
 20
294.6646357177
 10
705.7103840351
 20
295.9177865802
  0
LWPOLYLINE
  5
36C
330
1F
100
AcDbEntity
  8
0
  6
Continuous
 62
     7
370
    15
100
AcDbPolyline
 90
       36
 70
   128
 43
0.0
 10
705.7103840351
 20
212.1974625262
 10
705.812655507
 20
213.5686935169
 10
706.1161828335
 20
215.0139321433
 10
706.6112103965
 20
216.4867272469
 10
707.2818276028
 20
217.9397419812
 10
708.1064802637
 20
219.3262752571
 10
709.0586633641
 20
220.6017627543
 10
710.1077729558
 20
221.7252092551
 10
711.2200897931
 20
222.6605062647
 10
712.3598630978
 20
223.3775925675
 10
713.490459618
 20
223.8534204198
 10
714.5755410513
 20
224.072696323
 10
715.5802319877
 20
224.028372569
 10
716.4722408337
 20
223.7218737597
 10
717.2228976911
 20
223.1630510192
 10
717.808075831
 20
222.36986537
 10
718.2089671463
 20
221.3678104516
 10
718.4126866603
 20
220.1890931336
 10
718.4126866603
 20
218.8715983604
 10
718.2089671463
 20
217.457671498
 10
717.808075831
 20
215.9927573192
 10
717.2228976911
 20
214.523939371
 10
716.4722408337
 20
213.0984266709
 10
715.5802319877
 20
211.7620363699
 10
714.5755410513
 20
210.5577211519
 10
713.490459618
 20
209.5241886989
 10
712.3598630978
 20
208.6946575943
 10
711.2200897931
 20
208.0957896504
 10
710.1077729558
 20
207.7468329757
 10
709.0586633641
 20
207.6590033248
 10
708.1064802637
 20
207.8351236149
 10
707.2818276028
 20
208.2695331951
 10
706.6112103965
 20
208.9482697839
 10
706.1161828335
 20
209.8495182289
 10
705.812655507
 20
210.9443116637
 10
705.7103840351
 20
212.1974625262
  0
SPLINE
  5
36D
330
1F
100
AcDbEntity
  8
0
  6
Continuous
 62
     7
370
    15
100
AcDbSpline
210
0.0
220
0.0
230
1.0
 70
     8
 71
     3
 72
    10
 73
     6
 74
     0
 42
0.000000001
 43
0.00000001
 40
0.0
 40
0.0
 40
0.0
 40
0.0
 40
0.4395676946230695
 40
0.8772159875903067
 40
1.0
 40
1.0
 40
1.0
 40
1.0
 10
749.4899966711706
 20
238.3894308477809
 30
0.0
 10
749.4923017625891
 20
239.7719734349837
 30
0.0
 10
749.4969018800908
 20
242.5310216449727
 30
0.0
 10
749.519860817711
 20
245.9731941226093
 30
0.0
 10
749.5546969393856
 20
247.9770215895538
 30
0.0
 10
749.5623291168224
 20
248.4160362113157
 30
0.0
  0
SPLINE
  5
36E
330
1F
100
AcDbEntity
  8
0
  6
Continuous
 62
     7
370
    15
100
AcDbSpline
210
0.0
220
0.0
230
1.0
 70
     8
 71
     3
 72
    16
 73
    12
 74
     0
 42
0.000000001
 43
0.00000001
 40
0.0
 40
0.0
 40
0.0
 40
0.0
 40
0.0113127732129292
 40
0.1260916292257535
 40
0.2359964537118499
 40
0.3444684795813737
 40
0.4561330304972612
 40
0.5656808630663326
 40
0.6744488331208626
 40
0.8375014491457082
 40
0.9999999999999999
 40
0.9999999999999999
 40
0.9999999999999999
 40
0.9999999999999999
 10
750.551227838695
 20
222.3560203297383
 30
0.0
 10
750.5380275610046
 20
222.3830700379245
 30
0.0
 10
750.3908978971388
 20
222.6845647917826
 30
0.0
 10
750.1930270202273
 20
223.41508893432
 30
0.0
 10
749.9553824541218
 20
224.5731439190647
 30
0.0
 10
749.7872679414995
 20
225.930523382097
 30
0.0
 10
749.666665204545
 20
227.486532040625
 30
0.0
 10
749.5863643447815
 20
229.2575484987741
 30
0.0
 10
749.5280807677284
 20
231.5578293041825
 30
0.0
 10
749.4953793270904
 20
234.5103405871646
 30
0.0
 10
749.4917888528992
 20
237.0978686911413
 30
0.0
 10
749.4899966711706
 20
238.3894308477809
 30
0.0
  0
LINE
  5
36F
330
1F
100
AcDbEntity
  8
0
  6
Continuous
 62
     7
370
    15
100
AcDbLine
 10
904.8097963904
 20
335.5348773105
 30
0.0
 11
912.1582656187
 21
339.7770582987
 31
0.0
  0
LINE
  5
370
330
1F
100
AcDbEntity
  8
0
  6
Continuous
 62
     7
370
    15
100
AcDbLine
 10
894.7716007455
 20
337.0876233196
 30
0.0
 11
904.8097963904
 21
335.5348773105
 31
0.0
  0
LINE
  5
371
330
1F
100
AcDbEntity
  8
0
  6
Continuous
 62
     7
370
    15
100
AcDbLine
 10
892.081874329
 20
342.8825503169
 30
0.0
 11
894.7716007455
 21
337.0876233196
 31
0.0
  0
LINE
  5
372
330
1F
100
AcDbEntity
  8
0
  6
Continuous
 62
     7
370
    15
100
AcDbLine
 10
899.4303435573
 20
347.1247313051
 30
0.0
 11
892.081874329
 21
342.8825503169
 31
0.0
  0
LINE
  5
373
330
1F
100
AcDbEntity
  8
0
  6
Continuous
 62
     7
370
    15
100
AcDbLine
 10
909.4685392022
 20
345.571985296
 30
0.0
 11
899.4303435573
 21
347.1247313051
 31
0.0
  0
LINE
  5
374
330
1F
100
AcDbEntity
  8
0
  6
Continuous
 62
     7
370
    15
100
AcDbLine
 10
912.1582656187
 20
339.7770582987
 30
0.0
 11
909.4685392022
 21
345.571985296
 31
0.0
  0
LINE
  5
375
330
1F
100
AcDbEntity
  8
0
  6
Continuous
 62
     7
370
    15
100
AcDbLine
 10
894.7716007455
 20
337.0876233196
 30
0.0
 11
894.7716007455
 21
333.0049192602
 31
0.0
  0
LINE
  5
376
330
1F
100
AcDbEntity
  8
0
  6
Continuous
 62
     7
370
    15
100
AcDbLine
 10
904.8097963904
 20
335.5348773105
 30
0.0
 11
904.8097963904
 21
331.4521732511
 31
0.0
  0
LINE
  5
377
330
1F
100
AcDbEntity
  8
0
  6
Continuous
 62
     7
370
    15
100
AcDbLine
 10
781.3435110992
 20
342.8825503169
 30
0.0
 11
773.9950418708
 21
347.1247313051
 31
0.0
  0
LINE
  5
378
330
1F
100
AcDbEntity
  8
0
  6
Continuous
 62
     7
370
    15
100
AcDbLine
 10
778.6537846827
 20
337.0876233196
 30
0.0
 11
781.3435110992
 21
342.8825503169
 31
0.0
  0
LINE
  5
379
330
1F
100
AcDbEntity
  8
0
  6
Continuous
 62
     7
370
    15
100
AcDbLine
 10
768.6155890378
 20
335.5348773105
 30
0.0
 11
778.6537846827
 21
337.0876233196
 31
0.0
  0
LINE
  5
37A
330
1F
100
AcDbEntity
  8
0
  6
Continuous
 62
     7
370
    15
100
AcDbLine
 10
761.2671198095
 20
339.7770582987
 30
0.0
 11
768.6155890378
 21
335.5348773105
 31
0.0
  0
LINE
  5
37B
330
1F
100
AcDbEntity
  8
0
  6
Continuous
 62
     7
370
    15
100
AcDbLine
 10
763.956846226
 20
345.571985296
 30
0.0
 11
761.2671198095
 21
339.7770582987
 31
0.0
  0
LINE
  5
37C
330
1F
100
AcDbEntity
  8
0
  6
Continuous
 62
     7
370
    15
100
AcDbLine
 10
773.9950418708
 20
347.1247313051
 30
0.0
 11
763.956846226
 21
345.571985296
 31
0.0
  0
LINE
  5
37D
330
1F
100
AcDbEntity
  8
0
  6
Continuous
 62
     7
370
    15
100
AcDbLine
 10
768.6155890378
 20
335.5348773105
 30
0.0
 11
768.6155890378
 21
331.4521732511
 31
0.0
  0
LINE
  5
37E
330
1F
100
AcDbEntity
  8
0
  6
Continuous
 62
     7
370
    15
100
AcDbLine
 10
778.6537846827
 20
337.0876233196
 30
0.0
 11
778.6537846827
 21
333.0049192602
 31
0.0
  0
LINE
  5
37F
330
1F
100
AcDbEntity
  8
0
  6
Continuous
 62
     7
370
    15
100
AcDbLine
 10
912.1582656187
 20
339.7770582987
 30
0.0
 11
912.1582656187
 21
335.6943542393
 31
0.0
  0
LINE
  5
380
330
1F
100
AcDbEntity
  8
0
  6
Continuous
 62
     7
370
    15
100
AcDbLine
 10
761.2671198095
 20
339.7770582987
 30
0.0
 11
761.2671198095
 21
335.6943542393
 31
0.0
  0
LINE
  5
381
330
1F
100
AcDbEntity
  8
0
  6
Continuous
 62
     7
370
    15
100
AcDbLine
 10
892.081874329
 20
342.8825503169
 30
0.0
 11
892.081874329
 21
338.7998462575
 31
0.0
  0
LINE
  5
382
330
1F
100
AcDbEntity
  8
0
  6
Continuous
 62
     7
370
    15
100
AcDbLine
 10
781.3435110992
 20
342.8825503169
 30
0.0
 11
781.3435110992
 21
338.7998462575
 31
0.0
  0
LINE
  5
383
330
1F
100
AcDbEntity
  8
0
  6
Continuous
 62
     7
370
    15
100
AcDbLine
 10
845.7126927141
 20
353.9703675602
 30
0.0
 11
845.7126927141
 21
359.9697174477
 31
0.0
  0
LINE
  5
384
330
1F
100
AcDbEntity
  8
0
  6
Continuous
 62
     7
370
    15
100
AcDbLine
 10
836.7126927141
 20
350.9706926164
 30
0.0
 11
845.7126927141
 21
353.9703675602
 31
0.0
  0
LINE
  5
385
330
1F
100
AcDbEntity
  8
0
  6
Continuous
 62
     7
370
    15
100
AcDbLine
 10
827.7126927141
 20
353.9703675602
 30
0.0
 11
836.7126927141
 21
350.9706926164
 31
0.0
  0
LINE
  5
386
330
1F
100
AcDbEntity
  8
0
  6
Continuous
 62
     7
370
    15
100
AcDbLine
 10
827.7126927141
 20
359.9697174477
 30
0.0
 11
827.7126927141
 21
353.9703675602
 31
0.0
  0
LINE
  5
387
330
1F
100
AcDbEntity
  8
0
  6
Continuous
 62
     7
370
    15
100
AcDbLine
 10
836.7126927141
 20
362.9693923914
 30
0.0
 11
827.7126927141
 21
359.9697174477
 31
0.0
  0
LINE
  5
388
330
1F
100
AcDbEntity
  8
0
  6
Continuous
 62
     7
370
    15
100
AcDbLine
 10
845.7126927141
 20
359.9697174477
 30
0.0
 11
836.7126927141
 21
362.9693923914
 31
0.0
  0
LINE
  5
389
330
1F
100
AcDbEntity
  8
0
  6
Continuous
 62
     7
370
    15
100
AcDbLine
 10
836.7126927141
 20
350.9706926164
 30
0.0
 11
836.7126927141
 21
347.543576767
 31
0.0
  0
LINE
  5
38A
330
1F
100
AcDbEntity
  8
0
  6
Continuous
 62
     7
370
    15
100
AcDbLine
 10
845.7126927141
 20
353.9703675602
 30
0.0
 11
845.7126927141
 21
349.8876635007
 31
0.0
  0
LINE
  5
38B
330
1F
100
AcDbEntity
  8
0
  6
Continuous
 62
     7
370
    15
100
AcDbLine
 10
827.7126927141
 20
353.9703675602
 30
0.0
 11
827.7126927141
 21
349.8876635007
 31
0.0
  0
LWPOLYLINE
  5
38C
330
1F
100
AcDbEntity
  8
0
  6
Continuous
 62
     8
370
    15
100
AcDbPolyline
 90
       20
 70
   128
 43
0.0
 10
706.9585983664
 20
254.7782033487
 10
707.0571616768
 20
258.130646713
 10
707.3523819091
 20
261.5809129339
 10
707.8428522043
 20
265.1125599217
 10
708.5262352482
 20
268.7087577701
 10
709.3992744093
 20
272.3523689587
 10
710.4578092585
 20
276.0260300209
 10
711.6967953951
 20
279.7122342887
 10
713.110328486
 20
283.3934153202
 10
714.6916724023
 20
287.0520306114
 10
716.4332913201
 20
290.6706451941
 10
718.3268856321
 20
294.2320147221
 10
720.363431499
 20
297.7191676477
 10
722.5332238524
 20
301.1154860991
 10
724.8259226436
 20
304.4047850723
 10
727.2306021188
 20
307.5713895598
 10
729.7358028852
 20
310.600209249
 10
732.3295865202
 20
313.4768104349
 10
734.9995924636
 20
316.1874848027
 10
736.2510452865
 20
317.3761545056
  0
LWPOLYLINE
  5
38D
330
1F
100
AcDbEntity
  8
0
  6
Continuous
 62
     8
370
    15
100
AcDbPolyline
 90
       21
 70
   128
 43
0.0
 10
740.4330720876
 20
227.2122163793
 10
737.7330969213
 20
226.3685716654
 10
734.9995924636
 20
225.7443645488
 10
732.3295865202
 20
225.3723156719
 10
729.7358028852
 20
225.2541980172
 10
727.2306021188
 20
225.3905744689
 10
724.8259226436
 20
225.7807951313
 10
722.5332238524
 20
226.4230004252
 10
720.363431499
 20
227.3141299499
 10
718.3268856321
 20
228.4499370673
 10
716.4332913201
 20
229.8250091393
 10
714.6916724023
 20
231.4327933213
 10
713.110328486
 20
233.2656277895
 10
711.6967953951
 20
235.314778253
 10
710.4578092585
 20
237.5704795766
 10
709.3992744093
 20
240.0219823163
 10
708.5262352482
 20
242.6576039452
 10
707.8428522043
 20
245.4647845258
 10
707.3523819091
 20
248.4301465644
 10
707.0571616768
 20
251.5395587604
 10
706.9585983664
 20
254.7782033487
  0
LWPOLYLINE
  5
38E
330
1F
100
AcDbEntity
  8
0
  6
Continuous
 62
     8
370
    15
100
AcDbPolyline
 90
       12
 70
   128
 43
0.0
 10
721.1007339901
 20
254.7782033487
 10
721.1989523976
 20
251.8398366865
 10
721.4930450339
 20
249.0317012819
 10
721.981327363
 20
246.3698818802
 10
722.661002548
 20
243.8696251419
 10
723.528177471
 20
241.5452523112
 10
724.5778850325
 20
239.4100771852
 10
725.8041126027
 20
237.4763298535
 10
727.1998364611
 20
235.7550866459
 10
728.7570620278
 20
234.2562066876
 10
730.4668696559
 20
232.9882754271
 10
731.1473836112
 20
232.572730235
  0
ARC
  5
38F
330
1F
100
AcDbEntity
  8
0
  6
Continuous
 62
     8
370
    15
100
AcDbCircle
 10
790.4561723905
 20
252.522862269
 30
0.0
 40
69.39209896736162
100
AcDbArc
 50
149.4239882165
 51
178.1374783538
  0
ENDSEC
  0
SECTION
  2
OBJECTS
  0
DICTIONARY
  5
C
330
0
100
AcDbDictionary
281
     1
  3
ACAD_GROUP
350
D
  3
ACAD_LAYOUT
350
1A
  3
ACAD_MLINESTYLE
350
17
  3
ACAD_PLOTSETTINGS
350
19
  3
ACAD_PLOTSTYLENAME
350
E
  3
ACAD_SCALELIST
350
47
  0
DICTIONARY
  5
D
102
{ACAD_REACTORS
330
C
102
}
330
C
100
AcDbDictionary
281
     1
  0
DICTIONARY
  5
1A
102
{ACAD_REACTORS
330
C
102
}
330
C
100
AcDbDictionary
281
     1
  3
Layout1
350
1E
  3
Layout2
350
26
  3
Model
350
22
  0
DICTIONARY
  5
17
102
{ACAD_REACTORS
330
C
102
}
330
C
100
AcDbDictionary
281
     1
  3
Standard
350
18
  0
DICTIONARY
  5
19
102
{ACAD_REACTORS
330
C
102
}
330
C
100
AcDbDictionary
281
     1
  0
ACDBDICTIONARYWDFLT
  5
E
102
{ACAD_REACTORS
330
C
102
}
330
C
100
AcDbDictionary
281
     1
  3
Normal
350
F
100
AcDbDictionaryWithDefault
340
F
  0
DICTIONARY
  5
47
102
{ACAD_REACTORS
330
C
102
}
330
C
100
AcDbDictionary
281
     1
  3
A0
350
48
  3
A1
350
49
  3
A2
350
4A
  3
A3
350
4B
  3
A4
350
4C
  3
A5
350
4D
  3
A6
350
4E
  3
A7
350
4F
  3
A8
350
50
  3
A9
350
51
  3
B0
350
52
  3
B1
350
53
  3
B2
350
54
  3
B3
350
55
  3
B4
350
56
  3
B5
350
57
  3
B6
350
58
  3
B7
350
59
  3
B8
350
5A
  3
B9
350
5B
  3
C0
350
5C
  3
C1
350
5D
  3
C2
350
5E
  3
C3
350
5F
  3
C4
350
60
  3
C5
350
61
  3
C6
350
62
  3
C7
350
63
  3
C8
350
64
  3
C9
350
65
  3
D0
350
66
  3
D1
350
67
  3
D2
350
68
  0
LAYOUT
  5
1E
102
{ACAD_REACTORS
330
1A
102
}
330
1A
100
AcDbPlotSettings
  1

  2
none_device
  4

  6

 40
0.0
 41
0.0
 42
0.0
 43
0.0
 44
0.0
 45
0.0
 46
0.0
 47
0.0
 48
0.0
 49
0.0
140
0.0
141
0.0
142
1.0
143
1.0
 70
   688
 72
     1
 73
     0
 74
     5
  7

 75
    16
147
1.0
148
0.0
149
0.0
100
AcDbLayout
  1
Layout1
 70
     1
 71
     1
 10
0.0
 20
0.0
 11
420.0
 21
297.0
 12
0.0
 22
0.0
 32
0.0
 14
1.0000000000E+20
 24
1.0000000000E+20
 34
1.0000000000E+20
 15
-1.0000000000E+20
 25
-1.0000000000E+20
 35
-1.0000000000E+20
146
0.0
 13
0.0
 23
0.0
 33
0.0
 16
1.0
 26
0.0
 36
0.0
 17
0.0
 27
1.0
 37
0.0
 76
     0
330
1B
  0
LAYOUT
  5
26
102
{ACAD_REACTORS
330
1A
102
}
330
1A
100
AcDbPlotSettings
  1

  2
none_device
  4

  6

 40
0.0
 41
0.0
 42
0.0
 43
0.0
 44
0.0
 45
0.0
 46
0.0
 47
0.0
 48
0.0
 49
0.0
140
0.0
141
0.0
142
1.0
143
1.0
 70
   688
 72
     1
 73
     0
 74
     5
  7

 75
    16
147
1.0
148
0.0
149
0.0
100
AcDbLayout
  1
Layout2
 70
     1
 71
     2
 10
0.0
 20
0.0
 11
0.0
 21
0.0
 12
0.0
 22
0.0
 32
0.0
 14
0.0
 24
0.0
 34
0.0
 15
0.0
 25
0.0
 35
0.0
146
0.0
 13
0.0
 23
0.0
 33
0.0
 16
1.0
 26
0.0
 36
0.0
 17
0.0
 27
1.0
 37
0.0
 76
     0
330
23
  0
LAYOUT
  5
22
102
{ACAD_REACTORS
330
1A
102
}
330
1A
100
AcDbPlotSettings
  1

  2
none_device
  4
Letter_(8.50_x_11.00_Inches)
  6

 40
6.35
 41
6.35
 42
6.35000508
 43
6.35000508
 44
215.9
 45
279.4
 46
0.0
 47
0.0
 48
0.0
 49
0.0
140
0.0
141
0.0
142
1.0
143
1.0
 70
  1712
 72
     1
 73
     0
 74
     0
  7

 75
     0
147
1.0
148
0.0
149
0.0
100
AcDbLayout
  1
Model
 70
     1
 71
     0
 10
0.0
 20
0.0
 11
1189.0
 21
841.0
 12
0.0
 22
0.0
 32
0.0
 14
0.0
 24
0.0
 34
0.0
 15
1189.0
 25
841.0
 35
0.0
146
0.0
 13
0.0
 23
0.0
 33
0.0
 16
1.0
 26
0.0
 36
0.0
 17
0.0
 27
1.0
 37
0.0
 76
     0
330
1F
331
29
  0
MLINESTYLE
  5
18
102
{ACAD_REACTORS
330
17
102
}
330
17
100
AcDbMlineStyle
  2
Standard
 70
     0
  3

 62
   256
 51
90.0
 52
90.0
 71
     2
 49
0.5
 62
   256
  6
BYLAYER
 49
-0.5
 62
   256
  6
BYLAYER
  0
ACDBPLACEHOLDER
  5
F
102
{ACAD_REACTORS
330
E
102
}
330
E
  0
SCALE
  5
48
102
{ACAD_REACTORS
330
47
102
}
330
47
100
AcDbScale
 70
     0
300
1:1
140
1.0
141
1.0
290
     1
  0
SCALE
  5
49
102
{ACAD_REACTORS
330
47
102
}
330
47
100
AcDbScale
 70
     0
300
1:2
140
1.0
141
2.0
290
     0
  0
SCALE
  5
4A
102
{ACAD_REACTORS
330
47
102
}
330
47
100
AcDbScale
 70
     0
300
1:4
140
1.0
141
4.0
290
     0
  0
SCALE
  5
4B
102
{ACAD_REACTORS
330
47
102
}
330
47
100
AcDbScale
 70
     0
300
1:5
140
1.0
141
5.0
290
     0
  0
SCALE
  5
4C
102
{ACAD_REACTORS
330
47
102
}
330
47
100
AcDbScale
 70
     0
300
1:8
140
1.0
141
8.0
290
     0
  0
SCALE
  5
4D
102
{ACAD_REACTORS
330
47
102
}
330
47
100
AcDbScale
 70
     0
300
1:10
140
1.0
141
10.0
290
     0
  0
SCALE
  5
4E
102
{ACAD_REACTORS
330
47
102
}
330
47
100
AcDbScale
 70
     0
300
1:16
140
1.0
141
16.0
290
     0
  0
SCALE
  5
4F
102
{ACAD_REACTORS
330
47
102
}
330
47
100
AcDbScale
 70
     0
300
1:20
140
1.0
141
20.0
290
     0
  0
SCALE
  5
50
102
{ACAD_REACTORS
330
47
102
}
330
47
100
AcDbScale
 70
     0
300
1:30
140
1.0
141
30.0
290
     0
  0
SCALE
  5
51
102
{ACAD_REACTORS
330
47
102
}
330
47
100
AcDbScale
 70
     0
300
1:40
140
1.0
141
40.0
290
     0
  0
SCALE
  5
52
102
{ACAD_REACTORS
330
47
102
}
330
47
100
AcDbScale
 70
     0
300
1:50
140
1.0
141
50.0
290
     0
  0
SCALE
  5
53
102
{ACAD_REACTORS
330
47
102
}
330
47
100
AcDbScale
 70
     0
300
1:100
140
1.0
141
100.0
290
     0
  0
SCALE
  5
54
102
{ACAD_REACTORS
330
47
102
}
330
47
100
AcDbScale
 70
     0
300
2:1
140
2.0
141
1.0
290
     0
  0
SCALE
  5
55
102
{ACAD_REACTORS
330
47
102
}
330
47
100
AcDbScale
 70
     0
300
4:1
140
4.0
141
1.0
290
     0
  0
SCALE
  5
56
102
{ACAD_REACTORS
330
47
102
}
330
47
100
AcDbScale
 70
     0
300
8:1
140
8.0
141
1.0
290
     0
  0
SCALE
  5
57
102
{ACAD_REACTORS
330
47
102
}
330
47
100
AcDbScale
 70
     0
300
10:1
140
10.0
141
1.0
290
     0
  0
SCALE
  5
58
102
{ACAD_REACTORS
330
47
102
}
330
47
100
AcDbScale
 70
     0
300
100:1
140
100.0
141
1.0
290
     0
  0
SCALE
  5
59
102
{ACAD_REACTORS
330
47
102
}
330
47
100
AcDbScale
 70
     0
300
1/128" = 1'-0"
140
0.0078125
141
12.0
290
     0
  0
SCALE
  5
5A
102
{ACAD_REACTORS
330
47
102
}
330
47
100
AcDbScale
 70
     0
300
1/64" = 1'-0"
140
0.015625
141
12.0
290
     0
  0
SCALE
  5
5B
102
{ACAD_REACTORS
330
47
102
}
330
47
100
AcDbScale
 70
     0
300
1/32" = 1'-0"
140
0.03125
141
12.0
290
     0
  0
SCALE
  5
5C
102
{ACAD_REACTORS
330
47
102
}
330
47
100
AcDbScale
 70
     0
300
1/16" = 1'-0"
140
0.0625
141
12.0
290
     0
  0
SCALE
  5
5D
102
{ACAD_REACTORS
330
47
102
}
330
47
100
AcDbScale
 70
     0
300
3/32" = 1'-0"
140
0.09375
141
12.0
290
     0
  0
SCALE
  5
5E
102
{ACAD_REACTORS
330
47
102
}
330
47
100
AcDbScale
 70
     0
300
1/8" = 1'-0"
140
0.125
141
12.0
290
     0
  0
SCALE
  5
5F
102
{ACAD_REACTORS
330
47
102
}
330
47
100
AcDbScale
 70
     0
300
3/16" = 1'-0"
140
0.1875
141
12.0
290
     0
  0
SCALE
  5
60
102
{ACAD_REACTORS
330
47
102
}
330
47
100
AcDbScale
 70
     0
300
1/4" = 1'-0"
140
0.25
141
12.0
290
     0
  0
SCALE
  5
61
102
{ACAD_REACTORS
330
47
102
}
330
47
100
AcDbScale
 70
     0
300
3/8" = 1'-0"
140
0.375
141
12.0
290
     0
  0
SCALE
  5
62
102
{ACAD_REACTORS
330
47
102
}
330
47
100
AcDbScale
 70
     0
300
1/2" = 1'-0"
140
0.5
141
12.0
290
     0
  0
SCALE
  5
63
102
{ACAD_REACTORS
330
47
102
}
330
47
100
AcDbScale
 70
     0
300
3/4" = 1'-0"
140
0.75
141
12.0
290
     0
  0
SCALE
  5
64
102
{ACAD_REACTORS
330
47
102
}
330
47
100
AcDbScale
 70
     0
300
1" = 1'-0"
140
1.0
141
12.0
290
     0
  0
SCALE
  5
65
102
{ACAD_REACTORS
330
47
102
}
330
47
100
AcDbScale
 70
     0
300
1-1/2" = 1'-0"
140
1.5
141
12.0
290
     0
  0
SCALE
  5
66
102
{ACAD_REACTORS
330
47
102
}
330
47
100
AcDbScale
 70
     0
300
3" = 1'-0"
140
3.0
141
12.0
290
     0
  0
SCALE
  5
67
102
{ACAD_REACTORS
330
47
102
}
330
47
100
AcDbScale
 70
     0
300
6" = 1'-0"
140
6.0
141
12.0
290
     0
  0
SCALE
  5
68
102
{ACAD_REACTORS
330
47
102
}
330
47
100
AcDbScale
 70
     0
300
1'-0" = 1'-0"
140
12.0
141
12.0
290
     0
  0
ENDSEC
  0
EOF
