  0
SECTION
  2
HEADER
  9
$ACADVER
  1
AC1015
  9
$ACADMAINTVER
 70
     6
  9
$DWGCODEPAGE
  3
ANSI_1252
  9
$INSBASE
 10
0.0
 20
0.0
 30
0.0
  9
$EXTMIN
 10
0.0
 20
0.0
 30
0.0
  9
$EXTMAX
 10
1189.0
 20
841.0
 30
0.0
  9
$LIMMIN
 10
0.0
 20
0.0
  9
$LIMMAX
 10
1189.0
 20
841.0
  9
$ORTHOMODE
 70
     0
  9
$REGENMODE
 70
     1
  9
$FILLMODE
 70
     1
  9
$QTEXTMODE
 70
     0
  9
$MIRRTEXT
 70
     1
  9
$LTSCALE
 40
1.0
  9
$ATTMODE
 70
     1
  9
$TEXTSIZE
 40
3.0
  9
$TRACEWID
 40
1.0
  9
$TEXTSTYLE
  7
Standard
  9
$CLAYER
  8
0
  9
$CELTYPE
  6
ByLayer
  9
$CECOLOR
 62
   256
  9
$CELTSCALE
 40
1.0
  9
$DISPSILH
 70
     0
  9
$DIMSCALE
 40
1.0
  9
$DIMASZ
 40
3.0
  9
$DIMEXO
 40
1.0
  9
$DIMDLI
 40
3.75
  9
$DIMRND
 40
0.0
  9
$DIMDLE
 40
0.0
  9
$DIMEXE
 40
1.0
  9
$DIMTP
 40
0.0
  9
$DIMTM
 40
0.0
  9
$DIMTXT
 40
3.0
  9
$DIMCEN
 40
2.5
  9
$DIMTSZ
 40
0.0
  9
$DIMTOL
 70
     0
  9
$DIMLIM
 70
     0
  9
$DIMTIH
 70
     1
  9
$DIMTOH
 70
     1
  9
$DIMSE1
 70
     0
  9
$DIMSE2
 70
     0
  9
$DIMTAD
 70
     1
  9
$DIMZIN
 70
     0
  9
$DIMBLK
  1

  9
$DIMASO
 70
     1
  9
$DIMSHO
 70
     1
  9
$DIMPOST
  1

  9
$DIMAPOST
  1

  9
$DIMALT
 70
     0
  9
$DIMALTD
 70
     3
  9
$DIMALTF
 40
0.0393700787
  9
$DIMLFAC
 40
1.0
  9
$DIMTOFL
 70
     1
  9
$DIMTVP
 40
0.0
  9
$DIMTIX
 70
     0
  9
$DIMSOXD
 70
     0
  9
$DIMSAH
 70
     0
  9
$DIMBLK1
  1

  9
$DIMBLK2
  1

  9
$DIMSTYLE
  2
ISO-25
  9
$DIMCLRD
 70
     0
  9
$DIMCLRE
 70
     0
  9
$DIMCLRT
 70
     0
  9
$DIMTFAC
 40
1.0
  9
$DIMGAP
 40
3.0
  9
$DIMJUST
 70
     0
  9
$DIMSD1
 70
     0
  9
$DIMSD2
 70
     0
  9
$DIMTOLJ
 70
     0
  9
$DIMTZIN
 70
     0
  9
$DIMALTZ
 70
     0
  9
$DIMALTTZ
 70
     0
  9
$DIMUPT
 70
     0
  9
$DIMDEC
 70
     2
  9
$DIMTDEC
 70
     3
  9
$DIMALTU
 70
     2
  9
$DIMALTTD
 70
     3
  9
$DIMTXSTY
  7
Standard
  9
$DIMAUNIT
 70
     0
  9
$DIMADEC
 70
     2
  9
$DIMALTRND
 40
0.0
  9
$DIMAZIN
 70
     0
  9
$DIMDSEP
 70
    44
  9
$DIMATFIT
 70
     3
  9
$DIMFRAC
 70
     0
  9
$DIMLDRBLK
  1

  9
$DIMLUNIT
 70
     2
  9
$DIMLWD
 70
    -2
  9
$DIMLWE
 70
    -2
  9
$DIMTMOVE
 70
     0
  9
$LUNITS
 70
     2
  9
$LUPREC
 70
     2
  9
$SKETCHINC
 40
1.0
  9
$FILLETRAD
 40
10.0
  9
$AUNITS
 70
     0
  9
$AUPREC
 70
     2
  9
$MENU
  1
.
  9
$ELEVATION
 40
0.0
  9
$PELEVATION
 40
0.0
  9
$THICKNESS
 40
0.0
  9
$LIMCHECK
 70
     0
  9
$CHAMFERA
 40
0.0
  9
$CHAMFERB
 40
0.0
  9
$CHAMFERC
 40
0.0
  9
$CHAMFERD
 40
0.0
  9
$SKPOLY
 70
     0
  9
$TDCREATE
 40
2457877.519189768
  9
$TDUCREATE
 40
2457877.435856435
  9
$TDUPDATE
 40
2457877.519190706
  9
$TDUUPDATE
 40
2457877.435857373
  9
$TDINDWG
 40
0.0000000116
  9
$TDUSRTIMER
 40
0.0000000116
  9
$USRTIMER
 70
     1
  9
$ANGBASE
 50
0.0
  9
$ANGDIR
 70
     0
  9
$PDMODE
 70
     0
  9
$PDSIZE
 40
-1.0
  9
$PLINEWID
 40
0.0
  9
$SPLFRAME
 70
     0
  9
$SPLINETYPE
 70
     6
  9
$SPLINESEGS
 70
     8
  9
$HANDSEED
  5
39C
  9
$SURFTAB1
 70
     6
  9
$SURFTAB2
 70
     6
  9
$SURFTYPE
 70
     6
  9
$SURFU
 70
     6
  9
$SURFV
 70
     6
  9
$UCSBASE
  2

  9
$UCSNAME
  2

  9
$UCSORG
 10
0.0
 20
0.0
 30
0.0
  9
$UCSXDIR
 10
1.0
 20
0.0
 30
0.0
  9
$UCSYDIR
 10
0.0
 20
1.0
 30
0.0
  9
$UCSORTHOREF
  2

  9
$UCSORTHOVIEW
 70
     0
  9
$UCSORGTOP
 10
0.0
 20
0.0
 30
0.0
  9
$UCSORGBOTTOM
 10
0.0
 20
0.0
 30
0.0
  9
$UCSORGLEFT
 10
0.0
 20
0.0
 30
0.0
  9
$UCSORGRIGHT
 10
0.0
 20
0.0
 30
0.0
  9
$UCSORGFRONT
 10
0.0
 20
0.0
 30
0.0
  9
$UCSORGBACK
 10
0.0
 20
0.0
 30
0.0
  9
$PUCSBASE
  2

  9
$PUCSNAME
  2

  9
$PUCSORG
 10
0.0
 20
0.0
 30
0.0
  9
$PUCSXDIR
 10
1.0
 20
0.0
 30
0.0
  9
$PUCSYDIR
 10
0.0
 20
1.0
 30
0.0
  9
$PUCSORTHOREF
  2

  9
$PUCSORTHOVIEW
 70
     0
  9
$PUCSORGTOP
 10
0.0
 20
0.0
 30
0.0
  9
$PUCSORGBOTTOM
 10
0.0
 20
0.0
 30
0.0
  9
$PUCSORGLEFT
 10
0.0
 20
0.0
 30
0.0
  9
$PUCSORGRIGHT
 10
0.0
 20
0.0
 30
0.0
  9
$PUCSORGFRONT
 10
0.0
 20
0.0
 30
0.0
  9
$PUCSORGBACK
 10
0.0
 20
0.0
 30
0.0
  9
$USERI1
 70
     0
  9
$USERI2
 70
     0
  9
$USERI3
 70
     0
  9
$USERI4
 70
     0
  9
$USERI5
 70
     0
  9
$USERR1
 40
0.0
  9
$USERR2
 40
0.0
  9
$USERR3
 40
0.0
  9
$USERR4
 40
0.0
  9
$USERR5
 40
0.0
  9
$WORLDVIEW
 70
     1
  9
$SHADEDGE
 70
     3
  9
$SHADEDIF
 70
    70
  9
$TILEMODE
 70
     1
  9
$MAXACTVP
 70
    64
  9
$PINSBASE
 10
0.0
 20
0.0
 30
0.0
  9
$PLIMCHECK
 70
     0
  9
$PEXTMIN
 10
1.0000000000E+20
 20
1.0000000000E+20
 30
1.0000000000E+20
  9
$PEXTMAX
 10
-1.0000000000E+20
 20
-1.0000000000E+20
 30
-1.0000000000E+20
  9
$PLIMMIN
 10
0.0
 20
0.0
  9
$PLIMMAX
 10
420.0
 20
297.0
  9
$UNITMODE
 70
     0
  9
$VISRETAIN
 70
     1
  9
$PLINEGEN
 70
     0
  9
$PSLTSCALE
 70
     1
  9
$TREEDEPTH
 70
  3020
  9
$CMLSTYLE
  2
Standard
  9
$CMLJUST
 70
     0
  9
$CMLSCALE
 40
20.0
  9
$PROXYGRAPHICS
 70
     1
  9
$MEASUREMENT
 70
     1
  9
$CELWEIGHT
370
    -1
  9
$ENDCAPS
280
     0
  9
$JOINSTYLE
280
     0
  9
$LWDISPLAY
290
     1
  9
$INSUNITS
 70
     4
  9
$HYPERLINKBASE
  1

  9
$STYLESHEET
  1

  9
$XEDIT
290
     1
  9
$CEPSNTYPE
380
     0
  9
$PSTYLEMODE
290
     1
  9
$FINGERPRINTGUID
  2
{5B790BFC-9481-4349-ADFF-5DBA0612F71F}
  9
$VERSIONGUID
  2
{FAEB1C32-E019-11D5-929B-00C0DF256EC4}
  9
$EXTNAMES
290
     1
  9
$PSVPSCALE
 40
0.0
  9
$OLESTARTUP
290
     0
  0
ENDSEC
  0
SECTION
  2
CLASSES
  0
CLASS
  1
ACDBDICTIONARYWDFLT
  2
AcDbDictionaryWithDefault
  3
ObjectDBX Classes
 90
        0
280
     0
281
     0
  0
CLASS
  1
VISUALSTYLE
  2
AcDbVisualStyle
  3
ObjectDBX Classes
 90
     4095
280
     0
281
     0
  0
CLASS
  1
MATERIAL
  2
AcDbMaterial
  3
ObjectDBX Classes
 90
     1153
280
     0
281
     0
  0
CLASS
  1
SCALE
  2
AcDbScale
  3
ObjectDBX Classes
 90
     1153
280
     0
281
     0
  0
CLASS
  1
TABLESTYLE
  2
AcDbTableStyle
  3
ObjectDBX Classes
 90
     4095
280
     0
281
     0
  0
CLASS
  1
MLEADERSTYLE
  2
AcDbMLeaderStyle
  3
ACDB_MLEADERSTYLE_CLASS
 90
     4095
280
     0
281
     0
  0
CLASS
  1
SUN
  2
AcDbSun
  3
SCENEOE
 90
     1153
280
     0
281
     0
  0
CLASS
  1
ACDBPLACEHOLDER
  2
AcDbPlaceHolder
  3
ObjectDBX Classes
 90
        0
280
     0
281
     0
  0
CLASS
  1
LAYOUT
  2
AcDbLayout
  3
ObjectDBX Classes
 90
        0
280
     0
281
     0
  0
ENDSEC
  0
SECTION
  2
TABLES
  0
TABLE
  2
VPORT
  5
8
330
0
100
AcDbSymbolTable
 70
     1
  0
VPORT
  5
29
330
8
100
AcDbSymbolTableRecord
100
AcDbViewportTableRecord
  2
*Active
 70
     0
 10
0.0
 20
0.0
 11
1.0
 21
1.0
 12
594.5
 22
420.5
 13
0.0
 23
0.0
 14
10.0
 24
10.0
 15
10.0
 25
10.0
 16
0.0
 26
0.0
 36
1.0
 17
0.0
 27
0.0
 37
0.0
 40
841.0
 41
1.4137931034
 42
50.0
 43
0.0
 44
0.0
 50
0.0
 51
0.0
 71
     0
 72
  2000
 73
     1
 74
     3
 75
     0
 76
     0
 77
     0
 78
     0
281
     0
 65
     1
110
0.0
120
0.0
130
0.0
111
1.0
121
0.0
131
0.0
112
0.0
122
1.0
132
0.0
 79
     0
146
0.0
  0
ENDTAB
  0
TABLE
  2
LTYPE
  5
5
330
0
100
AcDbSymbolTable
 70
     6
  0
LTYPE
  5
14
330
5
100
AcDbSymbolTableRecord
100
AcDbLinetypeTableRecord
  2
ByBlock
 70
     0
  3

 72
    65
 73
     0
 40
0.0
  0
LTYPE
  5
15
330
5
100
AcDbSymbolTableRecord
100
AcDbLinetypeTableRecord
  2
ByLayer
 70
     0
  3

 72
    65
 73
     0
 40
0.0
  0
LTYPE
  5
16
330
5
100
AcDbSymbolTableRecord
100
AcDbLinetypeTableRecord
  2
Continuous
 70
     0
  3
Solid line
 72
    65
 73
     0
 40
0.0
  0
LTYPE
  5
6E
330
5
100
AcDbSymbolTableRecord
100
AcDbLinetypeTableRecord
  2
HIDDEN
 70
     0
  3
Hidden __ __ __ __ __ __ __ __ __ __ __ __ __ __
 72
    65
 73
     2
 40
1.905
 49
1.27
 74
     0
 49
-0.635
 74
     0
  0
LTYPE
  5
6F
330
5
100
AcDbSymbolTableRecord
100
AcDbLinetypeTableRecord
  2
PHANTOM
 70
     0
  3
Phantom ______  __  __  ______  __  __  ______
 72
    65
 73
     6
 40
12.7
 49
6.35
 74
     0
 49
-1.27
 74
     0
 49
1.27
 74
     0
 49
-1.27
 74
     0
 49
1.27
 74
     0
 49
-1.27
 74
     0
  0
LTYPE
  5
70
330
5
100
AcDbSymbolTableRecord
100
AcDbLinetypeTableRecord
  2
CENTER
 70
     0
  3
Center ____ _ ____ _ ____ _ ____ _ ____ _ ____
 72
    65
 73
     4
 40
10.16
 49
6.35
 74
     0
 49
-1.27
 74
     0
 49
1.27
 74
     0
 49
-1.27
 74
     0
  0
LTYPE
  5
71
330
5
100
AcDbSymbolTableRecord
100
AcDbLinetypeTableRecord
  2
CENTERX2
 70
     0
  3
Center (2x) ________  __  ________  __  _____
 72
    65
 73
     4
 40
20.32
 49
12.7
 74
     0
 49
-2.54
 74
     0
 49
2.54
 74
     0
 49
-2.54
 74
     0
  0
LTYPE
  5
72
330
5
100
AcDbSymbolTableRecord
100
AcDbLinetypeTableRecord
  2
DOT2
 70
     0
  3
Dot (.5x) ........................................
 72
    65
 73
     2
 40
0.635
 49
0.0
 74
     0
 49
-0.635
 74
     0
  0
ENDTAB
  0
TABLE
  2
LAYER
  5
2
330
0
100
AcDbSymbolTable
 70
     1
  0
LAYER
  5
10
330
2
100
AcDbSymbolTableRecord
100
AcDbLayerTableRecord
  2
0
 70
     0
 62
     7
  6
Continuous
370
    -3
390
F
  0
ENDTAB
  0
TABLE
  2
STYLE
  5
3
330
0
100
AcDbSymbolTable
 70
     5
  0
STYLE
  5
11
330
3
100
AcDbSymbolTableRecord
100
AcDbTextStyleTableRecord
  2
Standard
 70
     0
 40
0.0
 41
1.0
 50
0.0
 71
     0
 42
3.0
  3
txt
  4

  0
STYLE
  5
102
330
3
100
AcDbSymbolTableRecord
100
AcDbTextStyleTableRecord
  2
SLDTEXTSTYLE0
 70
     0
 40
0.0
 41
0.8435443038
 50
0.0
 71
     0
 42
3.0
  3
ISOCP
  4

  0
STYLE
  5
155
330
3
100
AcDbSymbolTableRecord
100
AcDbTextStyleTableRecord
  2
SLDTEXTSTYLE1
 70
     0
 40
0.0
 41
0.5316086498
 50
0.0
 71
     0
 42
3.0
  3
TXT
  4

  0
STYLE
  5
172
330
3
100
AcDbSymbolTableRecord
100
AcDbTextStyleTableRecord
  2
SLDTEXTSTYLE2
 70
     0
 40
0.0
 41
1.0126582278
 50
0.0
 71
     0
 42
3.0
  3
ISOCP
  4

  0
STYLE
  5
1A3
330
3
100
AcDbSymbolTableRecord
100
AcDbTextStyleTableRecord
  2
SLDTEXTSTYLE3
 70
     0
 40
0.0
 41
0.96
 50
0.0
 71
     0
 42
3.0
  3
ISOCP
  4

  0
ENDTAB
  0
TABLE
  2
VIEW
  5
6
330
0
100
AcDbSymbolTable
 70
     0
  0
ENDTAB
  0
TABLE
  2
UCS
  5
7
330
0
100
AcDbSymbolTable
 70
     0
  0
ENDTAB
  0
TABLE
  2
APPID
  5
9
330
0
100
AcDbSymbolTable
 70
     1
  0
APPID
  5
12
330
9
100
AcDbSymbolTableRecord
100
AcDbRegAppTableRecord
  2
ACAD
 70
     0
  0
ENDTAB
  0
TABLE
  2
DIMSTYLE
  5
A
330
0
100
AcDbSymbolTable
 70
     1
100
AcDbDimStyleTable
  0
DIMSTYLE
105
27
330
A
100
AcDbSymbolTableRecord
100
AcDbDimStyleTableRecord
  2
ISO-25
 70
     0
 41
2.5
 42
0.625
 43
3.75
 44
1.25
 73
     0
 74
     0
 77
     1
 78
     8
140
2.5
141
2.5
143
0.0393700787
147
0.625
171
     3
172
     1
178
     0
271
     2
272
     2
274
     3
278
    44
283
     0
284
     8
340
11
  0
ENDTAB
  0
TABLE
  2
BLOCK_RECORD
  5
1
330
0
100
AcDbSymbolTable
 70
     4
  0
BLOCK_RECORD
  5
1F
330
1
100
AcDbSymbolTableRecord
100
AcDbBlockTableRecord
  2
*Model_Space
340
22
  0
BLOCK_RECORD
  5
1B
330
1
100
AcDbSymbolTableRecord
100
AcDbBlockTableRecord
  2
*Paper_Space
340
1E
  0
BLOCK_RECORD
  5
23
330
1
100
AcDbSymbolTableRecord
100
AcDbBlockTableRecord
  2
*Paper_Space0
340
26
  0
BLOCK_RECORD
  5
73
330
1
100
AcDbSymbolTableRecord
100
AcDbBlockTableRecord
  2
A0H
340
0
  0
BLOCK_RECORD
  5
15E
330
1
100
AcDbSymbolTableRecord
100
AcDbBlockTableRecord
  2
ISO2768
340
0
  0
BLOCK_RECORD
  5
1A0
330
1
100
AcDbSymbolTableRecord
100
AcDbBlockTableRecord
  2
Nota legale
340
0
  0
ENDTAB
  0
ENDSEC
  0
SECTION
  2
BLOCKS
  0
BLOCK
  5
20
330
1F
100
AcDbEntity
  8
0
100
AcDbBlockBegin
  2
*Model_Space
 70
     0
 10
0.0
 20
0.0
 30
0.0
  3
*Model_Space
  1

  0
ENDBLK
  5
21
330
1F
100
AcDbEntity
  8
0
100
AcDbBlockEnd
  0
BLOCK
  5
1C
330
1B
100
AcDbEntity
 67
     1
  8
0
100
AcDbBlockBegin
  2
*Paper_Space
 70
     0
 10
0.0
 20
0.0
 30
0.0
  3
*Paper_Space
  1

  0
ENDBLK
  5
1D
330
1B
100
AcDbEntity
 67
     1
  8
0
100
AcDbBlockEnd
  0
BLOCK
  5
24
330
23
100
AcDbEntity
  8
0
100
AcDbBlockBegin
  2
*Paper_Space0
 70
     0
 10
0.0
 20
0.0
 30
0.0
  3
*Paper_Space0
  1

  0
ENDBLK
  5
25
330
23
100
AcDbEntity
  8
0
100
AcDbBlockEnd
  0
BLOCK
  5
74
330
73
100
AcDbEntity
  8
0
100
AcDbBlockBegin
  2
A0H
 70
     0
 10
0.0
 20
0.0
 30
0.0
  3
A0H
  1

  0
LINE
  5
76
330
73
100
AcDbEntity
  8
0
  6
Continuous
 62
     7
370
     0
100
AcDbLine
 10
139.0
 20
830.9999999407
 30
0.0
 11
139.0
 21
836.0
 31
0.0
  0
LINE
  5
77
330
73
100
AcDbEntity
  8
0
  6
Continuous
 62
     7
370
     0
100
AcDbLine
 10
349.0
 20
830.9999999407
 30
0.0
 11
349.0
 21
836.0
 31
0.0
  0
LINE
  5
78
330
73
100
AcDbEntity
  8
0
  6
Continuous
 62
     7
370
     0
100
AcDbLine
 10
559.0
 20
830.9999999407
 30
0.0
 11
559.0
 21
836.0
 31
0.0
  0
LINE
  5
79
330
73
100
AcDbEntity
  8
0
  6
Continuous
 62
     7
370
     0
100
AcDbLine
 10
769.0
 20
830.9999999407
 30
0.0
 11
769.0
 21
836.0
 31
0.0
  0
LINE
  5
7A
330
73
100
AcDbEntity
  8
0
  6
Continuous
 62
     7
370
     0
100
AcDbLine
 10
979.0
 20
830.9999999407
 30
0.0
 11
979.0
 21
836.0
 31
0.0
  0
LINE
  5
7B
330
73
100
AcDbEntity
  8
0
  6
Continuous
 62
     7
370
     0
100
AcDbLine
 10
329.4999999291
 20
830.9999999407
 30
0.0
 11
327.3865971476
 21
836.0
 31
0.0
  0
LINE
  5
7C
330
73
100
AcDbEntity
  8
0
  6
Continuous
 62
     7
370
     0
100
AcDbLine
 10
329.4999999291
 20
830.9999999407
 30
0.0
 11
331.6134037388
 21
836.0
 31
0.0
  0
LINE
  5
7D
330
73
100
AcDbEntity
  8
0
  6
Continuous
 62
     7
370
     0
100
AcDbLine
 10
263.9999999307
 20
830.9999999407
 30
0.0
 11
261.8865971369
 21
836.0
 31
0.0
  0
LINE
  5
7E
330
73
100
AcDbEntity
  8
0
  6
Continuous
 62
     7
370
     0
100
AcDbLine
 10
263.9999999307
 20
830.9999999407
 30
0.0
 11
266.1134037507
 21
836.0
 31
0.0
  0
LINE
  5
7F
330
73
100
AcDbEntity
  8
0
  6
Continuous
 62
     7
370
     0
100
AcDbLine
 10
634.0
 20
830.9999999407
 30
0.0
 11
631.8865971264
 21
836.0
 31
0.0
  0
LINE
  5
80
330
73
100
AcDbEntity
  8
0
  6
Continuous
 62
     7
370
     0
100
AcDbLine
 10
634.0
 20
830.9999999407
 30
0.0
 11
636.1134038095
 21
836.0
 31
0.0
  0
LINE
  5
81
330
73
100
AcDbEntity
  8
0
  6
Continuous
 62
     7
370
     0
100
AcDbLine
 10
1004.0
 20
830.9999999407
 30
0.0
 11
1001.8865971264
 21
836.0
 31
0.0
  0
LINE
  5
82
330
73
100
AcDbEntity
  8
0
  6
Continuous
 62
     7
370
     0
100
AcDbLine
 10
1004.0
 20
830.9999999407
 30
0.0
 11
1006.1134038095
 21
836.0
 31
0.0
  0
LINE
  5
83
330
73
100
AcDbEntity
  8
0
  6
Continuous
 62
     7
370
     0
100
AcDbLine
 10
1179.0
 20
297.0
 30
0.0
 11
1183.9999314379
 21
299.1133751678
 31
0.0
  0
LINE
  5
84
330
73
100
AcDbEntity
  8
0
  6
Continuous
 62
     7
370
     0
100
AcDbLine
 10
1179.0
 20
297.0
 30
0.0
 11
1183.9999314379
 21
294.8866264869
 31
0.0
  0
LINE
  5
85
330
73
100
AcDbEntity
  8
0
  6
Continuous
 62
     7
370
     0
100
AcDbLine
 10
1179.0
 20
594.0
 30
0.0
 11
1183.9999314379
 21
596.1133751678
 31
0.0
  0
LINE
  5
86
330
73
100
AcDbEntity
  8
0
  6
Continuous
 62
     7
370
     0
100
AcDbLine
 10
1179.0
 20
594.0
 30
0.0
 11
1183.9999314379
 21
591.8866264868
 31
0.0
  0
LINE
  5
87
330
73
100
AcDbEntity
  8
0
  6
Continuous
 62
     7
370
     0
100
AcDbLine
 10
979.0
 20
5.0
 30
0.0
 11
979.0
 21
10.0
 31
0.0
  0
LINE
  5
88
330
73
100
AcDbEntity
  8
0
  6
Continuous
 62
     7
370
     0
100
AcDbLine
 10
769.0
 20
5.0
 30
0.0
 11
769.0
 21
10.0
 31
0.0
  0
LINE
  5
89
330
73
100
AcDbEntity
  8
0
  6
Continuous
 62
     7
370
     0
100
AcDbLine
 10
559.0
 20
5.0
 30
0.0
 11
559.0
 21
10.0
 31
0.0
  0
LINE
  5
8A
330
73
100
AcDbEntity
  8
0
  6
Continuous
 62
     7
370
     0
100
AcDbLine
 10
349.0
 20
5.0
 30
0.0
 11
349.0
 21
10.0
 31
0.0
  0
LINE
  5
8B
330
73
100
AcDbEntity
  8
0
  6
Continuous
 62
     7
370
     0
100
AcDbLine
 10
139.0
 20
5.0
 30
0.0
 11
139.0
 21
10.0
 31
0.0
  0
LINE
  5
8C
330
73
100
AcDbEntity
  8
0
  6
Continuous
 62
     7
370
     0
100
AcDbLine
 10
264.0
 20
10.0
 30
0.0
 11
266.1134033203
 21
5.0
 31
0.0
  0
LINE
  5
8D
330
73
100
AcDbEntity
  8
0
  6
Continuous
 62
     7
370
     0
100
AcDbLine
 10
264.0
 20
10.0
 30
0.0
 11
261.8865966797
 21
5.0
 31
0.0
  0
LINE
  5
8E
330
73
100
AcDbEntity
  8
0
  6
Continuous
 62
     7
370
     0
100
AcDbLine
 10
329.5
 20
10.0
 30
0.0
 11
331.6134033203
 21
5.0
 31
0.0
  0
LINE
  5
8F
330
73
100
AcDbEntity
  8
0
  6
Continuous
 62
     7
370
     0
100
AcDbLine
 10
329.5
 20
10.0
 30
0.0
 11
327.3865966797
 21
5.0
 31
0.0
  0
LINE
  5
90
330
73
100
AcDbEntity
  8
0
  6
Continuous
 62
     7
370
     0
100
AcDbLine
 10
634.0
 20
10.0
 30
0.0
 11
636.1134033203
 21
5.0
 31
0.0
  0
LINE
  5
91
330
73
100
AcDbEntity
  8
0
  6
Continuous
 62
     7
370
     0
100
AcDbLine
 10
634.0
 20
10.0
 30
0.0
 11
631.8865966797
 21
5.0
 31
0.0
  0
LINE
  5
92
330
73
100
AcDbEntity
  8
0
  6
Continuous
 62
     7
370
     0
100
AcDbLine
 10
1004.0
 20
10.0
 30
0.0
 11
1006.1134033203
 21
5.0
 31
0.0
  0
LINE
  5
93
330
73
100
AcDbEntity
  8
0
  6
Continuous
 62
     7
370
     0
100
AcDbLine
 10
1004.0
 20
10.0
 30
0.0
 11
1001.8865966797
 21
5.0
 31
0.0
  0
LINE
  5
94
330
73
100
AcDbEntity
  8
0
  6
Continuous
 62
     7
370
     0
100
AcDbLine
 10
1034.124999986
 20
5.0
 30
0.0
 11
1034.124999986
 21
10.0
 31
0.0
  0
LINE
  5
95
330
73
100
AcDbEntity
  8
0
  6
Continuous
 62
     7
370
     0
100
AcDbLine
 10
985.83333332
 20
5.0
 30
0.0
 11
985.83333332
 21
10.0
 31
0.0
  0
LINE
  5
96
330
73
100
AcDbEntity
  8
0
  6
Continuous
 62
     7
370
     0
100
AcDbLine
 10
937.541666654
 20
5.0
 30
0.0
 11
937.541666654
 21
10.0
 31
0.0
  0
LINE
  5
97
330
73
100
AcDbEntity
  8
0
  6
Continuous
 62
     7
370
     0
100
AcDbLine
 10
889.249999988
 20
5.0
 30
0.0
 11
889.249999988
 21
10.0
 31
0.0
  0
LINE
  5
98
330
73
100
AcDbEntity
  8
0
  6
Continuous
 62
     7
370
     0
100
AcDbLine
 10
840.958333322
 20
5.0
 30
0.0
 11
840.958333322
 21
10.0
 31
0.0
  0
LINE
  5
99
330
73
100
AcDbEntity
  8
0
  6
Continuous
 62
     7
370
     0
100
AcDbLine
 10
792.666666656
 20
5.0
 30
0.0
 11
792.666666656
 21
10.0
 31
0.0
  0
LINE
  5
9A
330
73
100
AcDbEntity
  8
0
  6
Continuous
 62
     7
370
     0
100
AcDbLine
 10
744.37499999
 20
5.0
 30
0.0
 11
744.37499999
 21
10.0
 31
0.0
  0
LINE
  5
9B
330
73
100
AcDbEntity
  8
0
  6
Continuous
 62
     7
370
     0
100
AcDbLine
 10
696.083333324
 20
5.0
 30
0.0
 11
696.083333324
 21
10.0
 31
0.0
  0
LINE
  5
9C
330
73
100
AcDbEntity
  8
0
  6
Continuous
 62
     7
370
     0
100
AcDbLine
 10
647.791666658
 20
5.0
 30
0.0
 11
647.791666658
 21
10.0
 31
0.0
  0
LINE
  5
9D
330
73
100
AcDbEntity
  8
0
  6
Continuous
 62
     7
370
     0
100
AcDbLine
 10
599.499999992
 20
5.0
 30
0.0
 11
599.499999992
 21
10.0
 31
0.0
  0
LINE
  5
9E
330
73
100
AcDbEntity
  8
0
  6
Continuous
 62
     7
370
     0
100
AcDbLine
 10
551.208333326
 20
5.0
 30
0.0
 11
551.208333326
 21
10.0
 31
0.0
  0
LINE
  5
9F
330
73
100
AcDbEntity
  8
0
  6
Continuous
 62
     7
370
     0
100
AcDbLine
 10
502.91666666
 20
5.0
 30
0.0
 11
502.91666666
 21
10.0
 31
0.0
  0
LINE
  5
A0
330
73
100
AcDbEntity
  8
0
  6
Continuous
 62
     7
370
     0
100
AcDbLine
 10
454.624999994
 20
5.0
 30
0.0
 11
454.624999994
 21
10.0
 31
0.0
  0
LINE
  5
A1
330
73
100
AcDbEntity
  8
0
  6
Continuous
 62
     7
370
     0
100
AcDbLine
 10
406.333333328
 20
5.0
 30
0.0
 11
406.333333328
 21
10.0
 31
0.0
  0
LINE
  5
A2
330
73
100
AcDbEntity
  8
0
  6
Continuous
 62
     7
370
     0
100
AcDbLine
 10
358.041666662
 20
5.0
 30
0.0
 11
358.041666662
 21
10.0
 31
0.0
  0
LINE
  5
A3
330
73
100
AcDbEntity
  8
0
  6
Continuous
 62
     7
370
     0
100
AcDbLine
 10
309.749999996
 20
5.0
 30
0.0
 11
309.749999996
 21
10.0
 31
0.0
  0
LINE
  5
A4
330
73
100
AcDbEntity
  8
0
  6
Continuous
 62
     7
370
     0
100
AcDbLine
 10
261.45833333
 20
5.0
 30
0.0
 11
261.45833333
 21
10.0
 31
0.0
  0
LINE
  5
A5
330
73
100
AcDbEntity
  8
0
  6
Continuous
 62
     7
370
     0
100
AcDbLine
 10
213.166666664
 20
5.0
 30
0.0
 11
213.166666664
 21
10.0
 31
0.0
  0
LINE
  5
A6
330
73
100
AcDbEntity
  8
0
  6
Continuous
 62
     7
370
     0
100
AcDbLine
 10
164.874999998
 20
5.0
 30
0.0
 11
164.874999998
 21
10.0
 31
0.0
  0
LINE
  5
A7
330
73
100
AcDbEntity
  8
0
  6
Continuous
 62
     7
370
     0
100
AcDbLine
 10
116.583333332
 20
5.0
 30
0.0
 11
116.583333332
 21
10.0
 31
0.0
  0
LINE
  5
A8
330
73
100
AcDbEntity
  8
0
  6
Continuous
 62
     7
370
     0
100
AcDbLine
 10
68.291666666
 20
5.0
 30
0.0
 11
68.291666666
 21
10.0
 31
0.0
  0
LINE
  5
A9
330
73
100
AcDbEntity
  8
0
  6
Continuous
 62
     7
370
     0
100
AcDbLine
 10
1183.9999314379
 20
55.61111113
 30
0.0
 11
1179.0
 21
55.61111113
 31
0.0
  0
LINE
  5
AA
330
73
100
AcDbEntity
  8
0
  6
Continuous
 62
     7
370
     0
100
AcDbLine
 10
1183.9999314379
 20
101.22222224
 30
0.0
 11
1179.0
 21
101.22222224
 31
0.0
  0
LINE
  5
AB
330
73
100
AcDbEntity
  8
0
  6
Continuous
 62
     7
370
     0
100
AcDbLine
 10
1183.9999314379
 20
146.83333335
 30
0.0
 11
1179.0
 21
146.83333335
 31
0.0
  0
LINE
  5
AC
330
73
100
AcDbEntity
  8
0
  6
Continuous
 62
     7
370
     0
100
AcDbLine
 10
1183.9999314379
 20
192.44444446
 30
0.0
 11
1179.0
 21
192.44444446
 31
0.0
  0
LINE
  5
AD
330
73
100
AcDbEntity
  8
0
  6
Continuous
 62
     7
370
     0
100
AcDbLine
 10
1183.9999314379
 20
238.05555557
 30
0.0
 11
1179.0
 21
238.05555557
 31
0.0
  0
LINE
  5
AE
330
73
100
AcDbEntity
  8
0
  6
Continuous
 62
     7
370
     0
100
AcDbLine
 10
1183.9999314379
 20
283.66666668
 30
0.0
 11
1179.0
 21
283.66666668
 31
0.0
  0
LINE
  5
AF
330
73
100
AcDbEntity
  8
0
  6
Continuous
 62
     7
370
     0
100
AcDbLine
 10
1183.9999314379
 20
329.27777779
 30
0.0
 11
1179.0
 21
329.27777779
 31
0.0
  0
LINE
  5
B0
330
73
100
AcDbEntity
  8
0
  6
Continuous
 62
     7
370
     0
100
AcDbLine
 10
1183.9999314379
 20
374.8888889
 30
0.0
 11
1179.0
 21
374.8888889
 31
0.0
  0
LINE
  5
B1
330
73
100
AcDbEntity
  8
0
  6
Continuous
 62
     7
370
     0
100
AcDbLine
 10
1183.9999314379
 20
420.50000001
 30
0.0
 11
1179.0
 21
420.50000001
 31
0.0
  0
LINE
  5
B2
330
73
100
AcDbEntity
  8
0
  6
Continuous
 62
     7
370
     0
100
AcDbLine
 10
1183.9999314379
 20
466.11111112
 30
0.0
 11
1179.0
 21
466.11111112
 31
0.0
  0
LINE
  5
B3
330
73
100
AcDbEntity
  8
0
  6
Continuous
 62
     7
370
     0
100
AcDbLine
 10
1183.9999314379
 20
511.72222223
 30
0.0
 11
1179.0
 21
511.72222223
 31
0.0
  0
LINE
  5
B4
330
73
100
AcDbEntity
  8
0
  6
Continuous
 62
     7
370
     0
100
AcDbLine
 10
1183.9999314379
 20
557.33333334
 30
0.0
 11
1179.0
 21
557.33333334
 31
0.0
  0
LINE
  5
B5
330
73
100
AcDbEntity
  8
0
  6
Continuous
 62
     7
370
     0
100
AcDbLine
 10
1183.9999314379
 20
602.94444445
 30
0.0
 11
1179.0
 21
602.94444445
 31
0.0
  0
LINE
  5
B6
330
73
100
AcDbEntity
  8
0
  6
Continuous
 62
     7
370
     0
100
AcDbLine
 10
1183.9999314379
 20
648.55555556
 30
0.0
 11
1179.0
 21
648.55555556
 31
0.0
  0
LINE
  5
B7
330
73
100
AcDbEntity
  8
0
  6
Continuous
 62
     7
370
     0
100
AcDbLine
 10
1183.9999314379
 20
694.16666667
 30
0.0
 11
1179.0
 21
694.16666667
 31
0.0
  0
LINE
  5
B8
330
73
100
AcDbEntity
  8
0
  6
Continuous
 62
     7
370
     0
100
AcDbLine
 10
1183.9999314379
 20
739.77777778
 30
0.0
 11
1179.0
 21
739.77777778
 31
0.0
  0
LINE
  5
B9
330
73
100
AcDbEntity
  8
0
  6
Continuous
 62
     7
370
     0
100
AcDbLine
 10
1183.9999314379
 20
785.38888889
 30
0.0
 11
1179.0
 21
785.38888889
 31
0.0
  0
LINE
  5
BA
330
73
100
AcDbEntity
  8
0
  6
Continuous
 62
     7
370
     0
100
AcDbLine
 10
20.0
 20
10.0
 30
0.0
 11
15.0
 21
10.0
 31
0.0
  0
LINE
  5
BB
330
73
100
AcDbEntity
  8
0
  6
Continuous
 62
     7
370
     0
100
AcDbLine
 10
20.0
 20
55.61111113
 30
0.0
 11
15.0
 21
55.61111113
 31
0.0
  0
LINE
  5
BC
330
73
100
AcDbEntity
  8
0
  6
Continuous
 62
     7
370
     0
100
AcDbLine
 10
20.0
 20
101.22222224
 30
0.0
 11
15.0
 21
101.22222224
 31
0.0
  0
LINE
  5
BD
330
73
100
AcDbEntity
  8
0
  6
Continuous
 62
     7
370
     0
100
AcDbLine
 10
20.0
 20
146.83333335
 30
0.0
 11
15.0
 21
146.83333335
 31
0.0
  0
LINE
  5
BE
330
73
100
AcDbEntity
  8
0
  6
Continuous
 62
     7
370
     0
100
AcDbLine
 10
20.0
 20
192.44444446
 30
0.0
 11
15.0
 21
192.44444446
 31
0.0
  0
LINE
  5
BF
330
73
100
AcDbEntity
  8
0
  6
Continuous
 62
     7
370
     0
100
AcDbLine
 10
20.0
 20
238.05555557
 30
0.0
 11
15.0
 21
238.05555557
 31
0.0
  0
LINE
  5
C0
330
73
100
AcDbEntity
  8
0
  6
Continuous
 62
     7
370
     0
100
AcDbLine
 10
20.0
 20
283.66666668
 30
0.0
 11
15.0
 21
283.66666668
 31
0.0
  0
LINE
  5
C1
330
73
100
AcDbEntity
  8
0
  6
Continuous
 62
     7
370
     0
100
AcDbLine
 10
20.0
 20
329.27777779
 30
0.0
 11
15.0
 21
329.27777779
 31
0.0
  0
LINE
  5
C2
330
73
100
AcDbEntity
  8
0
  6
Continuous
 62
     7
370
     0
100
AcDbLine
 10
20.0
 20
374.8888889
 30
0.0
 11
15.0
 21
374.8888889
 31
0.0
  0
LINE
  5
C3
330
73
100
AcDbEntity
  8
0
  6
Continuous
 62
     7
370
     0
100
AcDbLine
 10
20.0
 20
420.50000001
 30
0.0
 11
15.0
 21
420.50000001
 31
0.0
  0
LINE
  5
C4
330
73
100
AcDbEntity
  8
0
  6
Continuous
 62
     7
370
     0
100
AcDbLine
 10
20.0
 20
466.11111112
 30
0.0
 11
15.0
 21
466.11111112
 31
0.0
  0
LINE
  5
C5
330
73
100
AcDbEntity
  8
0
  6
Continuous
 62
     7
370
     0
100
AcDbLine
 10
20.0
 20
511.72222223
 30
0.0
 11
15.0
 21
511.72222223
 31
0.0
  0
LINE
  5
C6
330
73
100
AcDbEntity
  8
0
  6
Continuous
 62
     7
370
     0
100
AcDbLine
 10
20.0
 20
557.33333334
 30
0.0
 11
15.0
 21
557.33333334
 31
0.0
  0
LINE
  5
C7
330
73
100
AcDbEntity
  8
0
  6
Continuous
 62
     7
370
     0
100
AcDbLine
 10
20.0
 20
602.94444445
 30
0.0
 11
15.0
 21
602.94444445
 31
0.0
  0
LINE
  5
C8
330
73
100
AcDbEntity
  8
0
  6
Continuous
 62
     7
370
     0
100
AcDbLine
 10
20.0
 20
648.55555556
 30
0.0
 11
15.0
 21
648.55555556
 31
0.0
  0
LINE
  5
C9
330
73
100
AcDbEntity
  8
0
  6
Continuous
 62
     7
370
     0
100
AcDbLine
 10
20.0
 20
694.16666667
 30
0.0
 11
15.0
 21
694.16666667
 31
0.0
  0
LINE
  5
CA
330
73
100
AcDbEntity
  8
0
  6
Continuous
 62
     7
370
     0
100
AcDbLine
 10
20.0
 20
739.77777778
 30
0.0
 11
15.0
 21
739.77777778
 31
0.0
  0
LINE
  5
CB
330
73
100
AcDbEntity
  8
0
  6
Continuous
 62
     7
370
     0
100
AcDbLine
 10
1179.0
 20
830.9999999407
 30
0.0
 11
1179.0
 21
836.0
 31
0.0
  0
LINE
  5
CC
330
73
100
AcDbEntity
  8
0
  6
Continuous
 62
     7
370
     0
100
AcDbLine
 10
1130.708333318
 20
830.9999999407
 30
0.0
 11
1130.708333318
 21
836.0
 31
0.0
  0
LINE
  5
CD
330
73
100
AcDbEntity
  8
0
  6
Continuous
 62
     7
370
     0
100
AcDbLine
 10
1082.416666652
 20
830.9999999407
 30
0.0
 11
1082.416666652
 21
836.0
 31
0.0
  0
LINE
  5
CE
330
73
100
AcDbEntity
  8
0
  6
Continuous
 62
     7
370
     0
100
AcDbLine
 10
1034.124999986
 20
830.9999999407
 30
0.0
 11
1034.124999986
 21
836.0
 31
0.0
  0
LINE
  5
CF
330
73
100
AcDbEntity
  8
0
  6
Continuous
 62
     7
370
     0
100
AcDbLine
 10
985.83333332
 20
830.9999999407
 30
0.0
 11
985.83333332
 21
836.0
 31
0.0
  0
LINE
  5
D0
330
73
100
AcDbEntity
  8
0
  6
Continuous
 62
     7
370
     0
100
AcDbLine
 10
937.541666654
 20
830.9999999407
 30
0.0
 11
937.541666654
 21
836.0
 31
0.0
  0
LINE
  5
D1
330
73
100
AcDbEntity
  8
0
  6
Continuous
 62
     7
370
     0
100
AcDbLine
 10
889.249999988
 20
830.9999999407
 30
0.0
 11
889.249999988
 21
836.0
 31
0.0
  0
LINE
  5
D2
330
73
100
AcDbEntity
  8
0
  6
Continuous
 62
     7
370
     0
100
AcDbLine
 10
840.958333322
 20
830.9999999407
 30
0.0
 11
840.958333322
 21
836.0
 31
0.0
  0
LINE
  5
D3
330
73
100
AcDbEntity
  8
0
  6
Continuous
 62
     7
370
     0
100
AcDbLine
 10
792.666666656
 20
830.9999999407
 30
0.0
 11
792.666666656
 21
836.0
 31
0.0
  0
LINE
  5
D4
330
73
100
AcDbEntity
  8
0
  6
Continuous
 62
     7
370
     0
100
AcDbLine
 10
744.37499999
 20
830.9999999407
 30
0.0
 11
744.37499999
 21
836.0
 31
0.0
  0
LINE
  5
D5
330
73
100
AcDbEntity
  8
0
  6
Continuous
 62
     7
370
     0
100
AcDbLine
 10
696.083333324
 20
830.9999999407
 30
0.0
 11
696.083333324
 21
836.0
 31
0.0
  0
LINE
  5
D6
330
73
100
AcDbEntity
  8
0
  6
Continuous
 62
     7
370
     0
100
AcDbLine
 10
647.791666658
 20
830.9999999407
 30
0.0
 11
647.791666658
 21
836.0
 31
0.0
  0
LINE
  5
D7
330
73
100
AcDbEntity
  8
0
  6
Continuous
 62
     7
370
     0
100
AcDbLine
 10
599.499999992
 20
830.9999999407
 30
0.0
 11
599.499999992
 21
836.0
 31
0.0
  0
LINE
  5
D8
330
73
100
AcDbEntity
  8
0
  6
Continuous
 62
     7
370
     0
100
AcDbLine
 10
551.208333326
 20
830.9999999407
 30
0.0
 11
551.208333326
 21
836.0
 31
0.0
  0
LINE
  5
D9
330
73
100
AcDbEntity
  8
0
  6
Continuous
 62
     7
370
     0
100
AcDbLine
 10
502.91666666
 20
830.9999999407
 30
0.0
 11
502.91666666
 21
836.0
 31
0.0
  0
LINE
  5
DA
330
73
100
AcDbEntity
  8
0
  6
Continuous
 62
     7
370
     0
100
AcDbLine
 10
454.624999994
 20
830.9999999407
 30
0.0
 11
454.624999994
 21
836.0
 31
0.0
  0
LINE
  5
DB
330
73
100
AcDbEntity
  8
0
  6
Continuous
 62
     7
370
     0
100
AcDbLine
 10
406.333333328
 20
830.9999999407
 30
0.0
 11
406.333333328
 21
836.0
 31
0.0
  0
LINE
  5
DC
330
73
100
AcDbEntity
  8
0
  6
Continuous
 62
     7
370
     0
100
AcDbLine
 10
358.041666662
 20
830.9999999407
 30
0.0
 11
358.041666662
 21
836.0
 31
0.0
  0
LINE
  5
DD
330
73
100
AcDbEntity
  8
0
  6
Continuous
 62
     7
370
     0
100
AcDbLine
 10
309.749999996
 20
830.9999999407
 30
0.0
 11
309.749999996
 21
836.0
 31
0.0
  0
LINE
  5
DE
330
73
100
AcDbEntity
  8
0
  6
Continuous
 62
     7
370
     0
100
AcDbLine
 10
261.45833333
 20
830.9999999407
 30
0.0
 11
261.45833333
 21
836.0
 31
0.0
  0
LINE
  5
DF
330
73
100
AcDbEntity
  8
0
  6
Continuous
 62
     7
370
     0
100
AcDbLine
 10
213.166666664
 20
830.9999999407
 30
0.0
 11
213.166666664
 21
836.0
 31
0.0
  0
LINE
  5
E0
330
73
100
AcDbEntity
  8
0
  6
Continuous
 62
     7
370
     0
100
AcDbLine
 10
164.874999998
 20
830.9999999407
 30
0.0
 11
164.874999998
 21
836.0
 31
0.0
  0
LINE
  5
E1
330
73
100
AcDbEntity
  8
0
  6
Continuous
 62
     7
370
     0
100
AcDbLine
 10
116.583333332
 20
830.9999999407
 30
0.0
 11
116.583333332
 21
836.0
 31
0.0
  0
LINE
  5
E2
330
73
100
AcDbEntity
  8
0
  6
Continuous
 62
     7
370
     0
100
AcDbLine
 10
1169.0
 20
10.0
 30
0.0
 11
1169.0
 21
5.0
 31
0.0
  0
LINE
  5
E3
330
73
100
AcDbEntity
  8
0
  6
Continuous
 62
     7
370
     0
100
AcDbLine
 10
1159.0
 20
10.0
 30
0.0
 11
1159.0
 21
5.0
 31
0.0
  0
LINE
  5
E4
330
73
100
AcDbEntity
  8
0
  6
Continuous
 62
     7
370
     0
100
AcDbLine
 10
1149.0
 20
10.0
 30
0.0
 11
1149.0
 21
5.0
 31
0.0
  0
LINE
  5
E5
330
73
100
AcDbEntity
  8
0
  6
Continuous
 62
     7
370
     0
100
AcDbLine
 10
1139.0
 20
10.0
 30
0.0
 11
1139.0
 21
5.0
 31
0.0
  0
LINE
  5
E6
330
73
100
AcDbEntity
  8
0
  6
Continuous
 62
     7
370
     0
100
AcDbLine
 10
1129.0
 20
10.0
 30
0.0
 11
1129.0
 21
5.0
 31
0.0
  0
LINE
  5
E7
330
73
100
AcDbEntity
  8
0
  6
Continuous
 62
     7
370
     0
100
AcDbLine
 10
1119.0
 20
10.0
 30
0.0
 11
1119.0
 21
5.0
 31
0.0
  0
LINE
  5
E8
330
73
100
AcDbEntity
  8
0
  6
Continuous
 62
     7
370
     0
100
AcDbLine
 10
1109.0
 20
10.0
 30
0.0
 11
1109.0
 21
5.0
 31
0.0
  0
LINE
  5
E9
330
73
100
AcDbEntity
  8
0
  6
Continuous
 62
     7
370
     0
100
AcDbLine
 10
1099.0
 20
10.0
 30
0.0
 11
1099.0
 21
5.0
 31
0.0
  0
LINE
  5
EA
330
73
100
AcDbEntity
  8
0
  6
Continuous
 62
     7
370
     0
100
AcDbLine
 10
1089.0
 20
10.0
 30
0.0
 11
1089.0
 21
5.0
 31
0.0
  0
LINE
  5
EB
330
73
100
AcDbEntity
  8
0
  6
Continuous
 62
     7
370
     0
100
AcDbLine
 10
1079.0
 20
10.0
 30
0.0
 11
1079.0
 21
5.0
 31
0.0
  0
LINE
  5
EC
330
73
100
AcDbEntity
  8
0
  6
Continuous
 62
     7
370
     0
100
AcDbLine
 10
20.0
 20
785.38888889
 30
0.0
 11
15.0
 21
785.38888889
 31
0.0
  0
LINE
  5
ED
330
73
100
AcDbEntity
  8
0
  6
Continuous
 62
     7
370
     0
100
AcDbLine
 10
68.291666666
 20
830.9999999407
 30
0.0
 11
68.291666666
 21
836.0
 31
0.0
  0
LINE
  5
EE
330
73
100
AcDbEntity
  8
0
  6
Continuous
 62
     7
370
     0
100
AcDbLine
 10
1183.9999314379
 20
5.0
 30
0.0
 11
1183.9999314379
 21
836.0
 31
0.0
  0
LINE
  5
EF
330
73
100
AcDbEntity
  8
0
  6
Continuous
 62
     7
370
     0
100
AcDbLine
 10
1183.9999314379
 20
5.0
 30
0.0
 11
15.0
 21
5.0
 31
0.0
  0
LINE
  5
F0
330
73
100
AcDbEntity
  8
0
  6
Continuous
 62
     7
370
     0
100
AcDbLine
 10
15.0
 20
836.0
 30
0.0
 11
15.0
 21
5.0
 31
0.0
  0
LINE
  5
F1
330
73
100
AcDbEntity
  8
0
  6
Continuous
 62
     7
370
     0
100
AcDbLine
 10
1179.0
 20
830.9999999407
 30
0.0
 11
1179.0
 21
836.0
 31
0.0
  0
LINE
  5
F2
330
73
100
AcDbEntity
  8
0
  6
Continuous
 62
     7
370
     0
100
AcDbLine
 10
1179.0
 20
10.0
 30
0.0
 11
1179.0
 21
830.9999999407
 31
0.0
  0
LINE
  5
F3
330
73
100
AcDbEntity
  8
0
  6
Continuous
 62
     7
370
     0
100
AcDbLine
 10
1179.0
 20
5.0
 30
0.0
 11
1179.0
 21
10.0
 31
0.0
  0
LINE
  5
F4
330
73
100
AcDbEntity
  8
0
  6
Continuous
 62
     7
370
     0
100
AcDbLine
 10
20.0
 20
10.0
 30
0.0
 11
15.0
 21
10.0
 31
0.0
  0
LINE
  5
F5
330
73
100
AcDbEntity
  8
0
  6
Continuous
 62
     7
370
     0
100
AcDbLine
 10
1179.0
 20
10.0
 30
0.0
 11
20.0
 21
10.0
 31
0.0
  0
LINE
  5
F6
330
73
100
AcDbEntity
  8
0
  6
Continuous
 62
     7
370
     0
100
AcDbLine
 10
1183.9999314379
 20
10.0
 30
0.0
 11
1179.0
 21
10.0
 31
0.0
  0
LINE
  5
F7
330
73
100
AcDbEntity
  8
0
  6
Continuous
 62
     7
370
     0
100
AcDbLine
 10
20.0
 20
10.0
 30
0.0
 11
20.0
 21
5.0
 31
0.0
  0
LINE
  5
F8
330
73
100
AcDbEntity
  8
0
  6
Continuous
 62
     7
370
     0
100
AcDbLine
 10
20.0
 20
830.9999999407
 30
0.0
 11
20.0
 21
10.0
 31
0.0
  0
LINE
  5
F9
330
73
100
AcDbEntity
  8
0
  6
Continuous
 62
     7
370
     0
100
AcDbLine
 10
20.0
 20
836.0
 30
0.0
 11
20.0
 21
830.9999999407
 31
0.0
  0
LINE
  5
FA
330
73
100
AcDbEntity
  8
0
  6
Continuous
 62
     7
370
     0
100
AcDbLine
 10
1179.0
 20
830.9999999407
 30
0.0
 11
1183.9999314379
 21
830.9999999407
 31
0.0
  0
LINE
  5
FB
330
73
100
AcDbEntity
  8
0
  6
Continuous
 62
     7
370
     0
100
AcDbLine
 10
20.0
 20
830.9999999407
 30
0.0
 11
1179.0
 21
830.9999999407
 31
0.0
  0
LINE
  5
FC
330
73
100
AcDbEntity
  8
0
  6
Continuous
 62
     7
370
     0
100
AcDbLine
 10
15.0
 20
830.9999999407
 30
0.0
 11
20.0
 21
830.9999999407
 31
0.0
  0
LINE
  5
FD
330
73
100
AcDbEntity
  8
0
  6
Continuous
 62
     7
370
     0
100
AcDbLine
 10
15.0
 20
836.0
 30
0.0
 11
1183.9999314379
 21
836.0
 31
0.0
  0
LINE
  5
FE
330
73
100
AcDbEntity
  8
0
  6
Continuous
 62
     7
370
     0
100
AcDbLine
 10
0.0
 20
841.0
 30
0.0
 11
1189.0
 21
841.0
 31
0.0
  0
LINE
  5
FF
330
73
100
AcDbEntity
  8
0
  6
Continuous
 62
     7
370
     0
100
AcDbLine
 10
1189.0
 20
0.0
 30
0.0
 11
1189.0
 21
841.0
 31
0.0
  0
LINE
  5
100
330
73
100
AcDbEntity
  8
0
  6
Continuous
 62
     7
370
     0
100
AcDbLine
 10
1189.0
 20
0.0
 30
0.0
 11
0.0
 21
0.0
 31
0.0
  0
LINE
  5
101
330
73
100
AcDbEntity
  8
0
  6
Continuous
 62
     7
370
     0
100
AcDbLine
 10
0.0
 20
841.0
 30
0.0
 11
0.0
 21
0.0
 31
0.0
  0
MTEXT
  5
103
330
73
100
AcDbEntity
  8
0
  6
Continuous
 62
     7
370
     0
100
AcDbMText
 10
43.2001861591
 20
834.6449155598
 30
0.0
 40
3.0
 41
0.0
 71
     1
 72
     1
  1
1
  7
SLDTEXTSTYLE0
 73
     1
 44
1.0
  0
MTEXT
  5
104
330
73
100
AcDbEntity
  8
0
  6
Continuous
 62
     7
370
     0
100
AcDbMText
 10
16.3587006522
 20
809.3393600048
 30
0.0
 40
3.0
 41
0.0
 71
     1
 72
     1
  1
A
  7
SLDTEXTSTYLE0
 73
     1
 44
1.0
  0
MTEXT
  5
105
330
73
100
AcDbEntity
  8
0
  6
Continuous
 62
     7
370
     0
100
AcDbMText
 10
91.4918528251
 20
834.6449155598
 30
0.0
 40
3.0
 41
0.0
 71
     1
 72
     1
  1
2
  7
SLDTEXTSTYLE0
 73
     1
 44
1.0
  0
MTEXT
  5
106
330
73
100
AcDbEntity
  8
0
  6
Continuous
 62
     7
370
     0
100
AcDbMText
 10
139.7835194911
 20
834.6449155598
 30
0.0
 40
3.0
 41
0.0
 71
     1
 72
     1
  1
3
  7
SLDTEXTSTYLE0
 73
     1
 44
1.0
  0
MTEXT
  5
107
330
73
100
AcDbEntity
  8
0
  6
Continuous
 62
     7
370
     0
100
AcDbMText
 10
188.0751861571
 20
834.6449155598
 30
0.0
 40
3.0
 41
0.0
 71
     1
 72
     1
  1
4
  7
SLDTEXTSTYLE0
 73
     1
 44
1.0
  0
MTEXT
  5
108
330
73
100
AcDbEntity
  8
0
  6
Continuous
 62
     7
370
     0
100
AcDbMText
 10
236.3668528231
 20
834.6449155598
 30
0.0
 40
3.0
 41
0.0
 71
     1
 72
     1
  1
5
  7
SLDTEXTSTYLE0
 73
     1
 44
1.0
  0
MTEXT
  5
109
330
73
100
AcDbEntity
  8
0
  6
Continuous
 62
     7
370
     0
100
AcDbMText
 10
284.6585194891
 20
834.6449155598
 30
0.0
 40
3.0
 41
0.0
 71
     1
 72
     1
  1
6
  7
SLDTEXTSTYLE0
 73
     1
 44
1.0
  0
MTEXT
  5
10A
330
73
100
AcDbEntity
  8
0
  6
Continuous
 62
     7
370
     0
100
AcDbMText
 10
332.9501861551
 20
834.6449155598
 30
0.0
 40
3.0
 41
0.0
 71
     1
 72
     1
  1
7
  7
SLDTEXTSTYLE0
 73
     1
 44
1.0
  0
MTEXT
  5
10B
330
73
100
AcDbEntity
  8
0
  6
Continuous
 62
     7
370
     0
100
AcDbMText
 10
381.2418528211
 20
834.6449155598
 30
0.0
 40
3.0
 41
0.0
 71
     1
 72
     1
  1
8
  7
SLDTEXTSTYLE0
 73
     1
 44
1.0
  0
MTEXT
  5
10C
330
73
100
AcDbEntity
  8
0
  6
Continuous
 62
     7
370
     0
100
AcDbMText
 10
429.5335194871
 20
834.6449155598
 30
0.0
 40
3.0
 41
0.0
 71
     1
 72
     1
  1
9
  7
SLDTEXTSTYLE0
 73
     1
 44
1.0
  0
MTEXT
  5
10D
330
73
100
AcDbEntity
  8
0
  6
Continuous
 62
     7
370
     0
100
AcDbMText
 10
476.8795339792
 20
834.6449155598
 30
0.0
 40
3.0
 41
0.0
 71
     1
 72
     1
  1
10
  7
SLDTEXTSTYLE0
 73
     1
 44
1.0
  0
MTEXT
  5
10E
330
73
100
AcDbEntity
  8
0
  6
Continuous
 62
     7
370
     0
100
AcDbMText
 10
525.1712006452
 20
834.6449155598
 30
0.0
 40
3.0
 41
0.0
 71
     1
 72
     1
  1
11
  7
SLDTEXTSTYLE0
 73
     1
 44
1.0
  0
MTEXT
  5
10F
330
73
100
AcDbEntity
  8
0
  6
Continuous
 62
     7
370
     0
100
AcDbMText
 10
573.4628673112
 20
834.6449155598
 30
0.0
 40
3.0
 41
0.0
 71
     1
 72
     1
  1
12
  7
SLDTEXTSTYLE0
 73
     1
 44
1.0
  0
MTEXT
  5
110
330
73
100
AcDbEntity
  8
0
  6
Continuous
 62
     7
370
     0
100
AcDbMText
 10
621.7545339772
 20
834.6449155598
 30
0.0
 40
3.0
 41
0.0
 71
     1
 72
     1
  1
13
  7
SLDTEXTSTYLE0
 73
     1
 44
1.0
  0
MTEXT
  5
111
330
73
100
AcDbEntity
  8
0
  6
Continuous
 62
     7
370
     0
100
AcDbMText
 10
670.0462006432
 20
834.6449155598
 30
0.0
 40
3.0
 41
0.0
 71
     1
 72
     1
  1
14
  7
SLDTEXTSTYLE0
 73
     1
 44
1.0
  0
MTEXT
  5
112
330
73
100
AcDbEntity
  8
0
  6
Continuous
 62
     7
370
     0
100
AcDbMText
 10
718.3378673092
 20
834.6449155598
 30
0.0
 40
3.0
 41
0.0
 71
     1
 72
     1
  1
15
  7
SLDTEXTSTYLE0
 73
     1
 44
1.0
  0
MTEXT
  5
113
330
73
100
AcDbEntity
  8
0
  6
Continuous
 62
     7
370
     0
100
AcDbMText
 10
761.6295339752
 20
834.6449155598
 30
0.0
 40
3.0
 41
0.0
 71
     1
 72
     1
  1
16
  7
SLDTEXTSTYLE0
 73
     1
 44
1.0
  0
MTEXT
  5
114
330
73
100
AcDbEntity
  8
0
  6
Continuous
 62
     7
370
     0
100
AcDbMText
 10
814.9212006412
 20
834.6449155598
 30
0.0
 40
3.0
 41
0.0
 71
     1
 72
     1
  1
17
  7
SLDTEXTSTYLE0
 73
     1
 44
1.0
  0
MTEXT
  5
115
330
73
100
AcDbEntity
  8
0
  6
Continuous
 62
     7
370
     0
100
AcDbMText
 10
863.2128673072
 20
834.6449155598
 30
0.0
 40
3.0
 41
0.0
 71
     1
 72
     1
  1
18
  7
SLDTEXTSTYLE0
 73
     1
 44
1.0
  0
MTEXT
  5
116
330
73
100
AcDbEntity
  8
0
  6
Continuous
 62
     7
370
     0
100
AcDbMText
 10
911.5045339732
 20
834.6449155598
 30
0.0
 40
3.0
 41
0.0
 71
     1
 72
     1
  1
19
  7
SLDTEXTSTYLE0
 73
     1
 44
1.0
  0
MTEXT
  5
117
330
73
100
AcDbEntity
  8
0
  6
Continuous
 62
     7
370
     0
100
AcDbMText
 10
959.7962006392
 20
834.6449155598
 30
0.0
 40
3.0
 41
0.0
 71
     1
 72
     1
  1
20
  7
SLDTEXTSTYLE0
 73
     1
 44
1.0
  0
MTEXT
  5
118
330
73
100
AcDbEntity
  8
0
  6
Continuous
 62
     7
370
     0
100
AcDbMText
 10
1008.0878673052
 20
834.6449155598
 30
0.0
 40
3.0
 41
0.0
 71
     1
 72
     1
  1
21
  7
SLDTEXTSTYLE0
 73
     1
 44
1.0
  0
MTEXT
  5
119
330
73
100
AcDbEntity
  8
0
  6
Continuous
 62
     7
370
     0
100
AcDbMText
 10
1056.3795339712
 20
834.6449155598
 30
0.0
 40
3.0
 41
0.0
 71
     1
 72
     1
  1
22
  7
SLDTEXTSTYLE0
 73
     1
 44
1.0
  0
MTEXT
  5
11A
330
73
100
AcDbEntity
  8
0
  6
Continuous
 62
     7
370
     0
100
AcDbMText
 10
1104.6712006372
 20
834.6449155598
 30
0.0
 40
3.0
 41
0.0
 71
     1
 72
     1
  1
23
  7
SLDTEXTSTYLE0
 73
     1
 44
1.0
  0
MTEXT
  5
11B
330
73
100
AcDbEntity
  8
0
  6
Continuous
 62
     7
370
     0
100
AcDbMText
 10
1152.9628673032
 20
834.6449155598
 30
0.0
 40
3.0
 41
0.0
 71
     1
 72
     1
  1
24
  7
SLDTEXTSTYLE0
 73
     1
 44
1.0
  0
MTEXT
  5
11C
330
73
100
AcDbEntity
  8
0
  6
Continuous
 62
     7
370
     0
100
AcDbMText
 10
16.3587006522
 20
763.7282488948
 30
0.0
 40
3.0
 41
0.0
 71
     1
 72
     1
  1
B
  7
SLDTEXTSTYLE0
 73
     1
 44
1.0
  0
MTEXT
  5
11D
330
73
100
AcDbEntity
  8
0
  6
Continuous
 62
     7
370
     0
100
AcDbMText
 10
16.2934832609
 20
718.1171377848
 30
0.0
 40
3.0
 41
0.0
 71
     1
 72
     1
  1
C
  7
SLDTEXTSTYLE0
 73
     1
 44
1.0
  0
MTEXT
  5
11E
330
73
100
AcDbEntity
  8
0
  6
Continuous
 62
     7
370
     0
100
AcDbMText
 10
16.2934832609
 20
672.5060266748
 30
0.0
 40
3.0
 41
0.0
 71
     1
 72
     1
  1
D
  7
SLDTEXTSTYLE0
 73
     1
 44
1.0
  0
MTEXT
  5
11F
330
73
100
AcDbEntity
  8
0
  6
Continuous
 62
     7
370
     0
100
AcDbMText
 10
16.3587006522
 20
626.8949155648
 30
0.0
 40
3.0
 41
0.0
 71
     1
 72
     1
  1
E
  7
SLDTEXTSTYLE0
 73
     1
 44
1.0
  0
MTEXT
  5
120
330
73
100
AcDbEntity
  8
0
  6
Continuous
 62
     7
370
     0
100
AcDbMText
 10
16.4565267391
 20
581.2838044548
 30
0.0
 40
3.0
 41
0.0
 71
     1
 72
     1
  1
F
  7
SLDTEXTSTYLE0
 73
     1
 44
1.0
  0
MTEXT
  5
121
330
73
100
AcDbEntity
  8
0
  6
Continuous
 62
     7
370
     0
100
AcDbMText
 10
16.1956571739
 20
535.6726933448
 30
0.0
 40
3.0
 41
0.0
 71
     1
 72
     1
  1
G
  7
SLDTEXTSTYLE0
 73
     1
 44
1.0
  0
MTEXT
  5
122
330
73
100
AcDbEntity
  8
0
  6
Continuous
 62
     7
370
     0
100
AcDbMText
 10
16.2934832609
 20
490.0615822348
 30
0.0
 40
3.0
 41
0.0
 71
     1
 72
     1
  1
H
  7
SLDTEXTSTYLE0
 73
     1
 44
1.0
  0
MTEXT
  5
123
330
73
100
AcDbEntity
  8
0
  6
Continuous
 62
     7
370
     0
100
AcDbMText
 10
17.0434832609
 20
444.4504711248
 30
0.0
 40
3.0
 41
0.0
 71
     1
 72
     1
  1
I
  7
SLDTEXTSTYLE0
 73
     1
 44
1.0
  0
MTEXT
  5
124
330
73
100
AcDbEntity
  8
0
  6
Continuous
 62
     7
370
     0
100
AcDbMText
 10
16.652178913
 20
398.8393600148
 30
0.0
 40
3.0
 41
0.0
 71
     1
 72
     1
  1
J
  7
SLDTEXTSTYLE0
 73
     1
 44
1.0
  0
MTEXT
  5
125
330
73
100
AcDbEntity
  8
0
  6
Continuous
 62
     7
370
     0
100
AcDbMText
 10
16.3587006522
 20
353.2282489048
 30
0.0
 40
3.0
 41
0.0
 71
     1
 72
     1
  1
K
  7
SLDTEXTSTYLE0
 73
     1
 44
1.0
  0
MTEXT
  5
126
330
73
100
AcDbEntity
  8
0
  6
Continuous
 62
     7
370
     0
100
AcDbMText
 10
16.5543528261
 20
307.6171377948
 30
0.0
 40
3.0
 41
0.0
 71
     1
 72
     1
  1
L
  7
SLDTEXTSTYLE0
 73
     1
 44
1.0
  0
MTEXT
  5
127
330
73
100
AcDbEntity
  8
0
  6
Continuous
 62
     7
370
     0
100
AcDbMText
 10
16.097831087
 20
262.0060266848
 30
0.0
 40
3.0
 41
0.0
 71
     1
 72
     1
  1
M
  7
SLDTEXTSTYLE0
 73
     1
 44
1.0
  0
MTEXT
  5
128
330
73
100
AcDbEntity
  8
0
  6
Continuous
 62
     7
370
     0
100
AcDbMText
 10
16.2934832609
 20
216.3949155748
 30
0.0
 40
3.0
 41
0.0
 71
     1
 72
     1
  1
N
  7
SLDTEXTSTYLE0
 73
     1
 44
1.0
  0
MTEXT
  5
129
330
73
100
AcDbEntity
  8
0
  6
Continuous
 62
     7
370
     0
100
AcDbMText
 10
16.1956571739
 20
170.7838044648
 30
0.0
 40
3.0
 41
0.0
 71
     1
 72
     1
  1
O
  7
SLDTEXTSTYLE0
 73
     1
 44
1.0
  0
MTEXT
  5
12A
330
73
100
AcDbEntity
  8
0
  6
Continuous
 62
     7
370
     0
100
AcDbMText
 10
16.3587006522
 20
125.1726933548
 30
0.0
 40
3.0
 41
0.0
 71
     1
 72
     1
  1
P
  7
SLDTEXTSTYLE0
 73
     1
 44
1.0
  0
MTEXT
  5
12B
330
73
100
AcDbEntity
  8
0
  6
Continuous
 62
     7
370
     0
100
AcDbMText
 10
16.1956571739
 20
79.5615822448
 30
0.0
 40
3.0
 41
0.0
 71
     1
 72
     1
  1
Q
  7
SLDTEXTSTYLE0
 73
     1
 44
1.0
  0
MTEXT
  5
12C
330
73
100
AcDbEntity
  8
0
  6
Continuous
 62
     7
370
     0
100
AcDbMText
 10
16.2934832609
 20
33.9504711348
 30
0.0
 40
3.0
 41
0.0
 71
     1
 72
     1
  1
R
  7
SLDTEXTSTYLE0
 73
     1
 44
1.0
  0
MTEXT
  5
12D
330
73
100
AcDbEntity
  8
0
  6
Continuous
 62
     7
370
     0
100
AcDbMText
 10
1180.3587006522
 20
809.3393600048
 30
0.0
 40
3.0
 41
0.0
 71
     1
 72
     1
  1
A
  7
SLDTEXTSTYLE0
 73
     1
 44
1.0
  0
MTEXT
  5
12E
330
73
100
AcDbEntity
  8
0
  6
Continuous
 62
     7
370
     0
100
AcDbMText
 10
1180.3587006522
 20
763.7282488948
 30
0.0
 40
3.0
 41
0.0
 71
     1
 72
     1
  1
B
  7
SLDTEXTSTYLE0
 73
     1
 44
1.0
  0
MTEXT
  5
12F
330
73
100
AcDbEntity
  8
0
  6
Continuous
 62
     7
370
     0
100
AcDbMText
 10
1180.2934832609
 20
718.1171377848
 30
0.0
 40
3.0
 41
0.0
 71
     1
 72
     1
  1
C
  7
SLDTEXTSTYLE0
 73
     1
 44
1.0
  0
MTEXT
  5
130
330
73
100
AcDbEntity
  8
0
  6
Continuous
 62
     7
370
     0
100
AcDbMText
 10
1180.2934832609
 20
672.5060266748
 30
0.0
 40
3.0
 41
0.0
 71
     1
 72
     1
  1
D
  7
SLDTEXTSTYLE0
 73
     1
 44
1.0
  0
MTEXT
  5
131
330
73
100
AcDbEntity
  8
0
  6
Continuous
 62
     7
370
     0
100
AcDbMText
 10
1180.3587006522
 20
626.8949155648
 30
0.0
 40
3.0
 41
0.0
 71
     1
 72
     1
  1
E
  7
SLDTEXTSTYLE0
 73
     1
 44
1.0
  0
MTEXT
  5
132
330
73
100
AcDbEntity
  8
0
  6
Continuous
 62
     7
370
     0
100
AcDbMText
 10
1180.4565267391
 20
581.2838044548
 30
0.0
 40
3.0
 41
0.0
 71
     1
 72
     1
  1
F
  7
SLDTEXTSTYLE0
 73
     1
 44
1.0
  0
MTEXT
  5
133
330
73
100
AcDbEntity
  8
0
  6
Continuous
 62
     7
370
     0
100
AcDbMText
 10
1180.1956571739
 20
535.6726933448
 30
0.0
 40
3.0
 41
0.0
 71
     1
 72
     1
  1
G
  7
SLDTEXTSTYLE0
 73
     1
 44
1.0
  0
MTEXT
  5
134
330
73
100
AcDbEntity
  8
0
  6
Continuous
 62
     7
370
     0
100
AcDbMText
 10
1180.2934832609
 20
490.0615822348
 30
0.0
 40
3.0
 41
0.0
 71
     1
 72
     1
  1
H
  7
SLDTEXTSTYLE0
 73
     1
 44
1.0
  0
MTEXT
  5
135
330
73
100
AcDbEntity
  8
0
  6
Continuous
 62
     7
370
     0
100
AcDbMText
 10
1181.0434832609
 20
444.4504711248
 30
0.0
 40
3.0
 41
0.0
 71
     1
 72
     1
  1
I
  7
SLDTEXTSTYLE0
 73
     1
 44
1.0
  0
MTEXT
  5
136
330
73
100
AcDbEntity
  8
0
  6
Continuous
 62
     7
370
     0
100
AcDbMText
 10
1180.652178913
 20
398.8393600148
 30
0.0
 40
3.0
 41
0.0
 71
     1
 72
     1
  1
J
  7
SLDTEXTSTYLE0
 73
     1
 44
1.0
  0
MTEXT
  5
137
330
73
100
AcDbEntity
  8
0
  6
Continuous
 62
     7
370
     0
100
AcDbMText
 10
1180.3587006522
 20
353.2282489048
 30
0.0
 40
3.0
 41
0.0
 71
     1
 72
     1
  1
K
  7
SLDTEXTSTYLE0
 73
     1
 44
1.0
  0
MTEXT
  5
138
330
73
100
AcDbEntity
  8
0
  6
Continuous
 62
     7
370
     0
100
AcDbMText
 10
1180.5543528261
 20
307.6171377948
 30
0.0
 40
3.0
 41
0.0
 71
     1
 72
     1
  1
L
  7
SLDTEXTSTYLE0
 73
     1
 44
1.0
  0
MTEXT
  5
139
330
73
100
AcDbEntity
  8
0
  6
Continuous
 62
     7
370
     0
100
AcDbMText
 10
1180.097831087
 20
262.0060266848
 30
0.0
 40
3.0
 41
0.0
 71
     1
 72
     1
  1
M
  7
SLDTEXTSTYLE0
 73
     1
 44
1.0
  0
MTEXT
  5
13A
330
73
100
AcDbEntity
  8
0
  6
Continuous
 62
     7
370
     0
100
AcDbMText
 10
1180.2934832609
 20
216.3949155748
 30
0.0
 40
3.0
 41
0.0
 71
     1
 72
     1
  1
N
  7
SLDTEXTSTYLE0
 73
     1
 44
1.0
  0
MTEXT
  5
13B
330
73
100
AcDbEntity
  8
0
  6
Continuous
 62
     7
370
     0
100
AcDbMText
 10
1180.1956571739
 20
170.7838044648
 30
0.0
 40
3.0
 41
0.0
 71
     1
 72
     1
  1
O
  7
SLDTEXTSTYLE0
 73
     1
 44
1.0
  0
MTEXT
  5
13C
330
73
100
AcDbEntity
  8
0
  6
Continuous
 62
     7
370
     0
100
AcDbMText
 10
1180.3587006522
 20
125.1726933548
 30
0.0
 40
3.0
 41
0.0
 71
     1
 72
     1
  1
P
  7
SLDTEXTSTYLE0
 73
     1
 44
1.0
  0
MTEXT
  5
13D
330
73
100
AcDbEntity
  8
0
  6
Continuous
 62
     7
370
     0
100
AcDbMText
 10
1180.1956571739
 20
79.5615822448
 30
0.0
 40
3.0
 41
0.0
 71
     1
 72
     1
  1
Q
  7
SLDTEXTSTYLE0
 73
     1
 44
1.0
  0
MTEXT
  5
13E
330
73
100
AcDbEntity
  8
0
  6
Continuous
 62
     7
370
     0
100
AcDbMText
 10
1180.2934832609
 20
33.9504711348
 30
0.0
 40
3.0
 41
0.0
 71
     1
 72
     1
  1
R
  7
SLDTEXTSTYLE0
 73
     1
 44
1.0
  0
MTEXT
  5
13F
330
73
100
AcDbEntity
  8
0
  6
Continuous
 62
     7
370
     0
100
AcDbMText
 10
43.2001861591
 20
8.6449155598
 30
0.0
 40
3.0
 41
0.0
 71
     1
 72
     1
  1
1
  7
SLDTEXTSTYLE0
 73
     1
 44
1.0
  0
MTEXT
  5
140
330
73
100
AcDbEntity
  8
0
  6
Continuous
 62
     7
370
     0
100
AcDbMText
 10
91.4918528251
 20
8.6449155598
 30
0.0
 40
3.0
 41
0.0
 71
     1
 72
     1
  1
2
  7
SLDTEXTSTYLE0
 73
     1
 44
1.0
  0
MTEXT
  5
141
330
73
100
AcDbEntity
  8
0
  6
Continuous
 62
     7
370
     0
100
AcDbMText
 10
139.7835194911
 20
8.6449155598
 30
0.0
 40
3.0
 41
0.0
 71
     1
 72
     1
  1
3
  7
SLDTEXTSTYLE0
 73
     1
 44
1.0
  0
MTEXT
  5
142
330
73
100
AcDbEntity
  8
0
  6
Continuous
 62
     7
370
     0
100
AcDbMText
 10
188.0751861571
 20
8.6449155598
 30
0.0
 40
3.0
 41
0.0
 71
     1
 72
     1
  1
4
  7
SLDTEXTSTYLE0
 73
     1
 44
1.0
  0
MTEXT
  5
143
330
73
100
AcDbEntity
  8
0
  6
Continuous
 62
     7
370
     0
100
AcDbMText
 10
236.3668528231
 20
8.6449155598
 30
0.0
 40
3.0
 41
0.0
 71
     1
 72
     1
  1
5
  7
SLDTEXTSTYLE0
 73
     1
 44
1.0
  0
MTEXT
  5
144
330
73
100
AcDbEntity
  8
0
  6
Continuous
 62
     7
370
     0
100
AcDbMText
 10
284.6585194891
 20
8.6449155598
 30
0.0
 40
3.0
 41
0.0
 71
     1
 72
     1
  1
6
  7
SLDTEXTSTYLE0
 73
     1
 44
1.0
  0
MTEXT
  5
145
330
73
100
AcDbEntity
  8
0
  6
Continuous
 62
     7
370
     0
100
AcDbMText
 10
332.9501861551
 20
8.6449155598
 30
0.0
 40
3.0
 41
0.0
 71
     1
 72
     1
  1
7
  7
SLDTEXTSTYLE0
 73
     1
 44
1.0
  0
MTEXT
  5
146
330
73
100
AcDbEntity
  8
0
  6
Continuous
 62
     7
370
     0
100
AcDbMText
 10
381.2418528211
 20
8.6449155598
 30
0.0
 40
3.0
 41
0.0
 71
     1
 72
     1
  1
8
  7
SLDTEXTSTYLE0
 73
     1
 44
1.0
  0
MTEXT
  5
147
330
73
100
AcDbEntity
  8
0
  6
Continuous
 62
     7
370
     0
100
AcDbMText
 10
429.5335194871
 20
8.6449155598
 30
0.0
 40
3.0
 41
0.0
 71
     1
 72
     1
  1
9
  7
SLDTEXTSTYLE0
 73
     1
 44
1.0
  0
MTEXT
  5
148
330
73
100
AcDbEntity
  8
0
  6
Continuous
 62
     7
370
     0
100
AcDbMText
 10
476.8795339792
 20
8.6449155598
 30
0.0
 40
3.0
 41
0.0
 71
     1
 72
     1
  1
10
  7
SLDTEXTSTYLE0
 73
     1
 44
1.0
  0
MTEXT
  5
149
330
73
100
AcDbEntity
  8
0
  6
Continuous
 62
     7
370
     0
100
AcDbMText
 10
525.1712006452
 20
8.6449155598
 30
0.0
 40
3.0
 41
0.0
 71
     1
 72
     1
  1
11
  7
SLDTEXTSTYLE0
 73
     1
 44
1.0
  0
MTEXT
  5
14A
330
73
100
AcDbEntity
  8
0
  6
Continuous
 62
     7
370
     0
100
AcDbMText
 10
573.4628673112
 20
8.6449155598
 30
0.0
 40
3.0
 41
0.0
 71
     1
 72
     1
  1
12
  7
SLDTEXTSTYLE0
 73
     1
 44
1.0
  0
MTEXT
  5
14B
330
73
100
AcDbEntity
  8
0
  6
Continuous
 62
     7
370
     0
100
AcDbMText
 10
621.7545339772
 20
8.6449155598
 30
0.0
 40
3.0
 41
0.0
 71
     1
 72
     1
  1
13
  7
SLDTEXTSTYLE0
 73
     1
 44
1.0
  0
MTEXT
  5
14C
330
73
100
AcDbEntity
  8
0
  6
Continuous
 62
     7
370
     0
100
AcDbMText
 10
670.0462006432
 20
8.6449155598
 30
0.0
 40
3.0
 41
0.0
 71
     1
 72
     1
  1
14
  7
SLDTEXTSTYLE0
 73
     1
 44
1.0
  0
MTEXT
  5
14D
330
73
100
AcDbEntity
  8
0
  6
Continuous
 62
     7
370
     0
100
AcDbMText
 10
718.3378673092
 20
8.6449155598
 30
0.0
 40
3.0
 41
0.0
 71
     1
 72
     1
  1
15
  7
SLDTEXTSTYLE0
 73
     1
 44
1.0
  0
MTEXT
  5
14E
330
73
100
AcDbEntity
  8
0
  6
Continuous
 62
     7
370
     0
100
AcDbMText
 10
761.6295339752
 20
8.6449155598
 30
0.0
 40
3.0
 41
0.0
 71
     1
 72
     1
  1
16
  7
SLDTEXTSTYLE0
 73
     1
 44
1.0
  0
MTEXT
  5
14F
330
73
100
AcDbEntity
  8
0
  6
Continuous
 62
     7
370
     0
100
AcDbMText
 10
814.9212006412
 20
8.6449155598
 30
0.0
 40
3.0
 41
0.0
 71
     1
 72
     1
  1
17
  7
SLDTEXTSTYLE0
 73
     1
 44
1.0
  0
MTEXT
  5
150
330
73
100
AcDbEntity
  8
0
  6
Continuous
 62
     7
370
     0
100
AcDbMText
 10
863.2128673072
 20
8.6449155598
 30
0.0
 40
3.0
 41
0.0
 71
     1
 72
     1
  1
18
  7
SLDTEXTSTYLE0
 73
     1
 44
1.0
  0
MTEXT
  5
151
330
73
100
AcDbEntity
  8
0
  6
Continuous
 62
     7
370
     0
100
AcDbMText
 10
911.5045339732
 20
8.6449155598
 30
0.0
 40
3.0
 41
0.0
 71
     1
 72
     1
  1
19
  7
SLDTEXTSTYLE0
 73
     1
 44
1.0
  0
MTEXT
  5
152
330
73
100
AcDbEntity
  8
0
  6
Continuous
 62
     7
370
     0
100
AcDbMText
 10
959.7962006392
 20
8.6449155598
 30
0.0
 40
3.0
 41
0.0
 71
     1
 72
     1
  1
20
  7
SLDTEXTSTYLE0
 73
     1
 44
1.0
  0
MTEXT
  5
153
330
73
100
AcDbEntity
  8
0
  6
Continuous
 62
     7
370
     0
100
AcDbMText
 10
1008.0878673052
 20
8.6449155598
 30
0.0
 40
3.0
 41
0.0
 71
     1
 72
     1
  1
21
  7
SLDTEXTSTYLE0
 73
     1
 44
1.0
  0
MTEXT
  5
154
330
73
100
AcDbEntity
  8
0
  6
Continuous
 62
     7
370
     0
100
AcDbMText
 10
1056.3795339712
 20
8.6449155598
 30
0.0
 40
3.0
 41
0.0
 71
     1
 72
     1
  1
22
  7
SLDTEXTSTYLE0
 73
     1
 44
1.0
  0
MTEXT
  5
156
330
73
100
AcDbEntity
  8
0
  6
Continuous
 62
     7
370
     0
100
AcDbMText
 10
1003.527178913
 20
7.389386302
 30
0.0
 40
1.5
 41
0.0
 71
     1
 72
     1
  1
1
  7
SLDTEXTSTYLE1
 73
     1
 44
1.0
  0
MTEXT
  5
157
330
73
100
AcDbEntity
  8
0
  6
Continuous
 62
     7
370
     0
100
AcDbMText
 10
633.527178913
 20
7.389386302
 30
0.0
 40
1.5
 41
0.0
 71
     1
 72
     1
  1
2
  7
SLDTEXTSTYLE1
 73
     1
 44
1.0
  0
MTEXT
  5
158
330
73
100
AcDbEntity
  8
0
  6
Continuous
 62
     7
370
     0
100
AcDbMText
 10
329.027178913
 20
7.389386302
 30
0.0
 40
1.5
 41
0.0
 71
     1
 72
     1
  1
4
  7
SLDTEXTSTYLE1
 73
     1
 44
1.0
  0
MTEXT
  5
159
330
73
100
AcDbEntity
  8
0
  6
Continuous
 62
     7
370
     0
100
AcDbMText
 10
263.527178913
 20
7.389386302
 30
0.0
 40
1.5
 41
0.0
 71
     1
 72
     1
  1
3
  7
SLDTEXTSTYLE1
 73
     1
 44
1.0
  0
MTEXT
  5
15A
330
73
100
AcDbEntity
  8
0
  6
Continuous
 62
     7
370
     0
100
AcDbMText
 10
1003.527178913
 20
835.1028068642
 30
0.0
 40
1.5
 41
0.0
 71
     1
 72
     1
  1
1
  7
SLDTEXTSTYLE1
 73
     1
 44
1.0
  0
MTEXT
  5
15B
330
73
100
AcDbEntity
  8
0
  6
Continuous
 62
     7
370
     0
100
AcDbMText
 10
633.527178913
 20
835.1028068642
 30
0.0
 40
1.5
 41
0.0
 71
     1
 72
     1
  1
2
  7
SLDTEXTSTYLE1
 73
     1
 44
1.0
  0
MTEXT
  5
15C
330
73
100
AcDbEntity
  8
0
  6
Continuous
 62
     7
370
     0
100
AcDbMText
 10
263.527178913
 20
835.1028068642
 30
0.0
 40
1.5
 41
0.0
 71
     1
 72
     1
  1
3
  7
SLDTEXTSTYLE1
 73
     1
 44
1.0
  0
MTEXT
  5
15D
330
73
100
AcDbEntity
  8
0
  6
Continuous
 62
     7
370
     0
100
AcDbMText
 10
329.027178913
 20
835.1028068642
 30
0.0
 40
1.5
 41
0.0
 71
     1
 72
     1
  1
4
  7
SLDTEXTSTYLE1
 73
     1
 44
1.0
  0
ENDBLK
  5
75
330
73
100
AcDbEntity
  8
0
100
AcDbBlockEnd
  0
BLOCK
  5
15F
330
15E
100
AcDbEntity
  8
0
100
AcDbBlockBegin
  2
ISO2768
 70
     0
 10
0.0
 20
0.0
 30
0.0
  3
ISO2768
  1

  0
LINE
  5
161
330
15E
100
AcDbEntity
  8
0
  6
Continuous
 62
     7
370
     0
100
AcDbLine
 10
-25.0
 20
0.0
 30
0.0
 11
-25.0
 21
-20.0
 31
0.0
  0
LINE
  5
162
330
15E
100
AcDbEntity
  8
0
  6
Continuous
 62
     7
370
     0
100
AcDbLine
 10
-50.0
 20
0.0
 30
0.0
 11
-50.0
 21
-20.0
 31
0.0
  0
LINE
  5
163
330
15E
100
AcDbEntity
  8
0
  6
Continuous
 62
     7
370
     0
100
AcDbLine
 10
-75.0
 20
0.0
 30
0.0
 11
-75.0
 21
-20.0
 31
0.0
  0
LINE
  5
164
330
15E
100
AcDbEntity
  8
0
  6
Continuous
 62
     7
370
     0
100
AcDbLine
 10
-95.0
 20
0.0
 30
0.0
 11
-95.0
 21
-20.0
 31
0.0
  0
LINE
  5
165
330
15E
100
AcDbEntity
  8
0
  6
Continuous
 62
     7
370
     0
100
AcDbLine
 10
-115.0
 20
0.0
 30
0.0
 11
-115.0
 21
-20.0
 31
0.0
  0
LINE
  5
166
330
15E
100
AcDbEntity
  8
0
  6
Continuous
 62
     7
370
     0
100
AcDbLine
 10
-130.0
 20
0.0
 30
0.0
 11
-130.0
 21
-20.0
 31
0.0
  0
LINE
  5
167
330
15E
100
AcDbEntity
  8
0
  6
Continuous
 62
     7
370
     0
100
AcDbLine
 10
-145.0
 20
0.0
 30
0.0
 11
-145.0
 21
-20.0
 31
0.0
  0
LINE
  5
168
330
15E
100
AcDbEntity
  8
0
  6
Continuous
 62
     7
370
     0
100
AcDbLine
 10
-155.0
 20
-4.0
 30
0.0
 11
-155.0
 21
-20.0
 31
0.0
  0
LINE
  5
169
330
15E
100
AcDbEntity
  8
0
  6
Continuous
 62
     7
370
     0
100
AcDbLine
 10
-175.0
 20
-16.0
 30
0.0
 11
0.0
 21
-16.0
 31
0.0
  0
LINE
  5
16A
330
15E
100
AcDbEntity
  8
0
  6
Continuous
 62
     7
370
     0
100
AcDbLine
 10
-175.0
 20
-12.0
 30
0.0
 11
0.0
 21
-12.0
 31
0.0
  0
LINE
  5
16B
330
15E
100
AcDbEntity
  8
0
  6
Continuous
 62
     7
370
     0
100
AcDbLine
 10
-175.0
 20
-8.0
 30
0.0
 11
0.0
 21
-8.0
 31
0.0
  0
LINE
  5
16C
330
15E
100
AcDbEntity
  8
0
  6
Continuous
 62
     7
370
     0
100
AcDbLine
 10
-175.0
 20
-4.0
 30
0.0
 11
0.0
 21
-4.0
 31
0.0
  0
LINE
  5
16D
330
15E
100
AcDbEntity
  8
0
  6
Continuous
 62
     7
370
     0
100
AcDbLine
 10
-175.0
 20
0.0
 30
0.0
 11
-175.0
 21
-20.0
 31
0.0
  0
LINE
  5
16E
330
15E
100
AcDbEntity
  8
0
  6
Continuous
 62
     7
370
     0
100
AcDbLine
 10
-180.0
 20
-20.0
 30
0.0
 11
-180.0
 21
0.0
 31
0.0
  0
LINE
  5
16F
330
15E
100
AcDbEntity
  8
0
  6
Continuous
 62
     7
370
     0
100
AcDbLine
 10
0.0
 20
-20.0
 30
0.0
 11
-180.0
 21
-20.0
 31
0.0
  0
LINE
  5
170
330
15E
100
AcDbEntity
  8
0
  6
Continuous
 62
     7
370
     0
100
AcDbLine
 10
0.0
 20
0.0
 30
0.0
 11
0.0
 21
-20.0
 31
0.0
  0
LINE
  5
171
330
15E
100
AcDbEntity
  8
0
  6
Continuous
 62
     7
370
     0
100
AcDbLine
 10
-180.0
 20
0.0
 30
0.0
 11
0.0
 21
0.0
 31
0.0
  0
MTEXT
  5
173
330
15E
100
AcDbEntity
  8
0
  6
Continuous
 62
   179
370
     0
100
AcDbMText
 10
-152.1594291518
 20
-12.9932672184
 30
0.0
 40
2.5
 41
0.0
 71
     1
 72
     1
  1
(c)
  7
SLDTEXTSTYLE2
 73
     1
 44
1.0
  0
MTEXT
  5
174
330
15E
100
AcDbEntity
  8
0
  6
Continuous
 62
   179
370
     0
100
AcDbMText
 10
-14.4385313988
 20
-13.1021223902
 30
0.0
 40
2.5
 41
0.0
 71
     1
 72
     1
  1
±4
  7
SLDTEXTSTYLE2
 73
     1
 44
1.0
  0
MTEXT
  5
175
330
15E
100
AcDbEntity
  8
0
  6
Continuous
 62
   179
370
     0
100
AcDbMText
 10
-14.4385313988
 20
-17.1021223902
 30
0.0
 40
2.5
 41
0.0
 71
     1
 72
     1
  1
±8
  7
SLDTEXTSTYLE2
 73
     1
 44
1.0
  0
MTEXT
  5
176
330
15E
100
AcDbEntity
  8
0
  6
Continuous
 62
   179
370
     0
100
AcDbMText
 10
-23.8407053118
 20
-1.1021223902
 30
0.0
 40
2.5
 41
0.0
 71
     1
 72
     1
  1
>2000 <=4000
  7
SLDTEXTSTYLE2
 73
     1
 44
1.0
  0
MTEXT
  5
177
330
15E
100
AcDbEntity
  8
0
  6
Continuous
 62
   179
370
     0
100
AcDbMText
 10
-13.0798357466
 20
-5.1021223902
 30
0.0
 40
2.5
 41
0.0
 71
     1
 72
     1
  1
-
  7
SLDTEXTSTYLE2
 73
     1
 44
1.0
  0
MTEXT
  5
178
330
15E
100
AcDbEntity
  8
0
  6
Continuous
 62
   179
370
     0
100
AcDbMText
 10
-14.4385313988
 20
-9.1021223902
 30
0.0
 40
2.5
 41
0.0
 71
     1
 72
     1
  1
±2
  7
SLDTEXTSTYLE2
 73
     1
 44
1.0
  0
MTEXT
  5
179
330
15E
100
AcDbEntity
  8
0
  6
Continuous
 62
   179
370
     0
100
AcDbMText
 10
-39.4385313988
 20
-17.1021223902
 30
0.0
 40
2.5
 41
0.0
 71
     1
 72
     1
  1
±6
  7
SLDTEXTSTYLE2
 73
     1
 44
1.0
  0
MTEXT
  5
17A
330
15E
100
AcDbEntity
  8
0
  6
Continuous
 62
   179
370
     0
100
AcDbMText
 10
-39.4385313988
 20
-13.1021223902
 30
0.0
 40
2.5
 41
0.0
 71
     1
 72
     1
  1
±3
  7
SLDTEXTSTYLE2
 73
     1
 44
1.0
  0
MTEXT
  5
17B
330
15E
100
AcDbEntity
  8
0
  6
Continuous
 62
   179
370
     0
100
AcDbMText
 10
-72.8624444423
 20
-1.1021223902
 30
0.0
 40
2.5
 41
0.0
 71
     1
 72
     1
  1
>400 <=1000
  7
SLDTEXTSTYLE2
 73
     1
 44
1.0
  0
MTEXT
  5
17C
330
15E
100
AcDbEntity
  8
0
  6
Continuous
 62
   179
370
     0
100
AcDbMText
 10
-40.9059227031
 20
-9.1021223902
 30
0.0
 40
2.5
 41
0.0
 71
     1
 72
     1
  1
±1.2
  7
SLDTEXTSTYLE2
 73
     1
 44
1.0
  0
MTEXT
  5
17D
330
15E
100
AcDbEntity
  8
0
  6
Continuous
 62
   179
370
     0
100
AcDbMText
 10
-40.9059227031
 20
-5.1021223902
 30
0.0
 40
2.5
 41
0.0
 71
     1
 72
     1
  1
±0.5
  7
SLDTEXTSTYLE2
 73
     1
 44
1.0
  0
MTEXT
  5
17E
330
15E
100
AcDbEntity
  8
0
  6
Continuous
 62
   179
370
     0
100
AcDbMText
 10
-64.4385313988
 20
-17.1021223902
 30
0.0
 40
2.5
 41
0.0
 71
     1
 72
     1
  1
±4
  7
SLDTEXTSTYLE2
 73
     1
 44
1.0
  0
MTEXT
  5
17F
330
15E
100
AcDbEntity
  8
0
  6
Continuous
 62
   179
370
     0
100
AcDbMText
 10
-48.8407053118
 20
-1.1021223902
 30
0.0
 40
2.5
 41
0.0
 71
     1
 72
     1
  1
>1000 <=2000
  7
SLDTEXTSTYLE2
 73
     1
 44
1.0
  0
MTEXT
  5
180
330
15E
100
AcDbEntity
  8
0
  6
Continuous
 62
   179
370
     0
100
AcDbMText
 10
-64.4385313988
 20
-13.1021223902
 30
0.0
 40
2.5
 41
0.0
 71
     1
 72
     1
  1
±2
  7
SLDTEXTSTYLE2
 73
     1
 44
1.0
  0
MTEXT
  5
181
330
15E
100
AcDbEntity
  8
0
  6
Continuous
 62
   179
370
     0
100
AcDbMText
 10
-65.9059227031
 20
-9.1021223902
 30
0.0
 40
2.5
 41
0.0
 71
     1
 72
     1
  1
±0.8
  7
SLDTEXTSTYLE2
 73
     1
 44
1.0
  0
MTEXT
  5
182
330
15E
100
AcDbEntity
  8
0
  6
Continuous
 62
   179
370
     0
100
AcDbMText
 10
-88.4059227031
 20
-9.1021223902
 30
0.0
 40
2.5
 41
0.0
 71
     1
 72
     1
  1
±0.5
  7
SLDTEXTSTYLE2
 73
     1
 44
1.0
  0
MTEXT
  5
183
330
15E
100
AcDbEntity
  8
0
  6
Continuous
 62
   179
370
     0
100
AcDbMText
 10
-108.4059227031
 20
-9.1021223902
 30
0.0
 40
2.5
 41
0.0
 71
     1
 72
     1
  1
±0.3
  7
SLDTEXTSTYLE2
 73
     1
 44
1.0
  0
MTEXT
  5
184
330
15E
100
AcDbEntity
  8
0
  6
Continuous
 62
   179
370
     0
100
AcDbMText
 10
-88.4059227031
 20
-5.1021223902
 30
0.0
 40
2.5
 41
0.0
 71
     1
 72
     1
  1
±0.2
  7
SLDTEXTSTYLE2
 73
     1
 44
1.0
  0
MTEXT
  5
185
330
15E
100
AcDbEntity
  8
0
  6
Continuous
 62
   179
370
     0
100
AcDbMText
 10
-108.4059227031
 20
-17.1021223902
 30
0.0
 40
2.5
 41
0.0
 71
     1
 72
     1
  1
±1.5
  7
SLDTEXTSTYLE2
 73
     1
 44
1.0
  0
MTEXT
  5
186
330
15E
100
AcDbEntity
  8
0
  6
Continuous
 62
   179
370
     0
100
AcDbMText
 10
-65.9059227031
 20
-5.1021223902
 30
0.0
 40
2.5
 41
0.0
 71
     1
 72
     1
  1
±0.3
  7
SLDTEXTSTYLE2
 73
     1
 44
1.0
  0
MTEXT
  5
187
330
15E
100
AcDbEntity
  8
0
  6
Continuous
 62
   179
370
     0
100
AcDbMText
 10
-88.4059227031
 20
-17.1021223902
 30
0.0
 40
2.5
 41
0.0
 71
     1
 72
     1
  1
±2.5
  7
SLDTEXTSTYLE2
 73
     1
 44
1.0
  0
MTEXT
  5
188
330
15E
100
AcDbEntity
  8
0
  6
Continuous
 62
   179
370
     0
100
AcDbMText
 10
-94.3841835727
 20
-1.1021223902
 30
0.0
 40
2.5
 41
0.0
 71
     1
 72
     1
  1
>120 <=400
  7
SLDTEXTSTYLE2
 73
     1
 44
1.0
  0
MTEXT
  5
189
330
15E
100
AcDbEntity
  8
0
  6
Continuous
 62
   179
370
     0
100
AcDbMText
 10
-88.4059227031
 20
-13.1021223902
 30
0.0
 40
2.5
 41
0.0
 71
     1
 72
     1
  1
±1.2
  7
SLDTEXTSTYLE2
 73
     1
 44
1.0
  0
MTEXT
  5
18A
330
15E
100
AcDbEntity
  8
0
  6
Continuous
 62
   179
370
     0
100
AcDbMText
 10
-109.3841835727
 20
-5.1021223902
 30
0.0
 40
2.5
 41
0.0
 71
     1
 72
     1
  1
±0.15
  7
SLDTEXTSTYLE2
 73
     1
 44
1.0
  0
MTEXT
  5
18B
330
15E
100
AcDbEntity
  8
0
  6
Continuous
 62
   179
370
     0
100
AcDbMText
 10
-113.4059227031
 20
-1.1021223902
 30
0.0
 40
2.5
 41
0.0
 71
     1
 72
     1
  1
>30 <=120
  7
SLDTEXTSTYLE2
 73
     1
 44
1.0
  0
MTEXT
  5
18C
330
15E
100
AcDbEntity
  8
0
  6
Continuous
 62
   179
370
     0
100
AcDbMText
 10
-124.4385313988
 20
-17.1021223902
 30
0.0
 40
2.5
 41
0.0
 71
     1
 72
     1
  1
±1
  7
SLDTEXTSTYLE2
 73
     1
 44
1.0
  0
MTEXT
  5
18D
330
15E
100
AcDbEntity
  8
0
  6
Continuous
 62
   179
370
     0
100
AcDbMText
 10
-125.9059227031
 20
-9.1021223902
 30
0.0
 40
2.5
 41
0.0
 71
     1
 72
     1
  1
±0.2
  7
SLDTEXTSTYLE2
 73
     1
 44
1.0
  0
MTEXT
  5
18E
330
15E
100
AcDbEntity
  8
0
  6
Continuous
 62
   179
370
     0
100
AcDbMText
 10
-108.4059227031
 20
-13.1021223902
 30
0.0
 40
2.5
 41
0.0
 71
     1
 72
     1
  1
±0.8
  7
SLDTEXTSTYLE2
 73
     1
 44
1.0
  0
MTEXT
  5
18F
330
15E
100
AcDbEntity
  8
0
  6
Continuous
 62
   179
370
     0
100
AcDbMText
 10
-125.9059227031
 20
-5.1021223902
 30
0.0
 40
2.5
 41
0.0
 71
     1
 72
     1
  1
±0.1
  7
SLDTEXTSTYLE2
 73
     1
 44
1.0
  0
MTEXT
  5
190
330
15E
100
AcDbEntity
  8
0
  6
Continuous
 62
   179
370
     0
100
AcDbMText
 10
-128.949400964
 20
-1.1021223902
 30
0.0
 40
2.5
 41
0.0
 71
     1
 72
     1
  1
>6 <=30
  7
SLDTEXTSTYLE2
 73
     1
 44
1.0
  0
MTEXT
  5
191
330
15E
100
AcDbEntity
  8
0
  6
Continuous
 62
   179
370
     0
100
AcDbMText
 10
-140.4983140075
 20
-1.1021223902
 30
0.0
 40
2.5
 41
0.0
 71
     1
 72
     1
  1
<=6
  7
SLDTEXTSTYLE2
 73
     1
 44
1.0
  0
MTEXT
  5
192
330
15E
100
AcDbEntity
  8
0
  6
Continuous
 62
   179
370
     0
100
AcDbMText
 10
-125.9059227031
 20
-13.1021223902
 30
0.0
 40
2.5
 41
0.0
 71
     1
 72
     1
  1
±0.5
  7
SLDTEXTSTYLE2
 73
     1
 44
1.0
  0
MTEXT
  5
193
330
15E
100
AcDbEntity
  8
0
  6
Continuous
 62
   179
370
     0
100
AcDbMText
 10
-140.9059227031
 20
-9.1021223902
 30
0.0
 40
2.5
 41
0.0
 71
     1
 72
     1
  1
±0.1
  7
SLDTEXTSTYLE2
 73
     1
 44
1.0
  0
MTEXT
  5
194
330
15E
100
AcDbEntity
  8
0
  6
Continuous
 62
   179
370
     0
100
AcDbMText
 10
-140.9059227031
 20
-17.1021223902
 30
0.0
 40
2.5
 41
0.0
 71
     1
 72
     1
  1
±0.5
  7
SLDTEXTSTYLE2
 73
     1
 44
1.0
  0
MTEXT
  5
195
330
15E
100
AcDbEntity
  8
0
  6
Continuous
 62
   179
370
     0
100
AcDbMText
 10
-140.9059227031
 20
-13.1021223902
 30
0.0
 40
2.5
 41
0.0
 71
     1
 72
     1
  1
±0.3
  7
SLDTEXTSTYLE2
 73
     1
 44
1.0
  0
MTEXT
  5
196
330
15E
100
AcDbEntity
  8
0
  6
Continuous
 62
   179
370
     0
100
AcDbMText
 10
-141.8841835727
 20
-5.1021223902
 30
0.0
 40
2.5
 41
0.0
 71
     1
 72
     1
  1
±0.05
  7
SLDTEXTSTYLE2
 73
     1
 44
1.0
  0
MTEXT
  5
197
330
15E
100
AcDbEntity
  8
0
  6
Continuous
 62
   179
370
     0
100
AcDbMText
 10
-174.7485158139
 20
-8.9932672184
 30
0.0
 40
2.5
 41
0.0
 71
     1
 72
     1
  1
Medium
  7
SLDTEXTSTYLE2
 73
     1
 44
1.0
  0
MTEXT
  5
198
330
15E
100
AcDbEntity
  8
0
  6
Continuous
 62
   179
370
     0
100
AcDbMText
 10
-174.7485158139
 20
-12.9932672184
 30
0.0
 40
2.5
 41
0.0
 71
     1
 72
     1
  1
Coarse
  7
SLDTEXTSTYLE2
 73
     1
 44
1.0
  0
MTEXT
  5
199
330
15E
100
AcDbEntity
  8
0
  6
Continuous
 62
   179
370
     0
100
AcDbMText
 10
-151.7789943692
 20
-4.9932672184
 30
0.0
 40
2.5
 41
0.0
 71
     1
 72
     1
  1
(f)
  7
SLDTEXTSTYLE2
 73
     1
 44
1.0
  0
MTEXT
  5
19A
330
15E
100
AcDbEntity
  8
0
  6
Continuous
 62
   179
370
     0
100
AcDbMText
 10
-152.7844291518
 20
-8.9932672184
 30
0.0
 40
2.5
 41
0.0
 71
     1
 72
     1
  1
(m)
  7
SLDTEXTSTYLE2
 73
     1
 44
1.0
  0
MTEXT
  5
19B
330
15E
100
AcDbEntity
  8
0
  6
Continuous
 62
   179
370
     0
100
AcDbMText
 10
-152.1866030649
 20
-16.9932672184
 30
0.0
 40
2.5
 41
0.0
 71
     1
 72
     1
  1
(v)
  7
SLDTEXTSTYLE2
 73
     1
 44
1.0
  0
MTEXT
  5
19C
330
15E
100
AcDbEntity
  8
0
  6
Continuous
 62
   179
370
     0
100
AcDbMText
 10
-174.7485158139
 20
-16.9932672184
 30
0.0
 40
2.5
 41
0.0
 71
     1
 72
     1
  1
Very Coarse
  7
SLDTEXTSTYLE2
 73
     1
 44
1.0
  0
MTEXT
  5
19D
330
15E
100
AcDbEntity
  8
0
  6
Continuous
 62
   179
370
     0
100
AcDbMText
 10
-178.6122169322
 20
-18.8727771349
 30
0.0
 40
2.5
 41
0.0
 71
     1
 72
     1
  1
ISO 2768
  7
SLDTEXTSTYLE2
 11
6.123233995736766E-17
 21
1.0
 31
0.0
 73
     1
 44
1.0
  0
MTEXT
  5
19E
330
15E
100
AcDbEntity
  8
0
  6
Continuous
 62
   179
370
     0
100
AcDbMText
 10
-174.565631434
 20
-0.9932672184
 30
0.0
 40
2.5
 41
0.0
 71
     1
 72
     1
  1
Tolerance Class
  7
SLDTEXTSTYLE2
 73
     1
 44
1.0
  0
MTEXT
  5
19F
330
15E
100
AcDbEntity
  8
0
  6
Continuous
 62
   179
370
     0
100
AcDbMText
 10
-174.7485158139
 20
-4.9932672184
 30
0.0
 40
2.5
 41
0.0
 71
     1
 72
     1
  1
Fine
  7
SLDTEXTSTYLE2
 73
     1
 44
1.0
  0
ENDBLK
  5
160
330
15E
100
AcDbEntity
  8
0
100
AcDbBlockEnd
  0
BLOCK
  5
1A1
330
1A0
100
AcDbEntity
  8
0
100
AcDbBlockBegin
  2
Nota legale
 70
     0
 10
0.0
 20
0.0
 30
0.0
  3
Nota legale
  1

  0
MTEXT
  5
1A4
330
1A0
100
AcDbEntity
  8
0
  6
Continuous
 62
     7
370
     0
100
AcDbMText
 10
2.8916698098
 20
-1.0663983927
 30
0.0
 40
1.5
 41
0.0
 71
     3
 72
     1
  1
BY TERM LAWS WE RESERVE THE PROPERTY OF THIS DRAWING WITH PROHIBITION OF USE AND REPRODUCTION
  7
SLDTEXTSTYLE3
 73
     1
 44
1.0
  0
ENDBLK
  5
1A2
330
1A0
100
AcDbEntity
  8
0
100
AcDbBlockEnd
  0
ENDSEC
  0
SECTION
  2
ENTITIES
  0
LINE
  5
1A5
330
1F
100
AcDbEntity
  8
0
  6
Continuous
 62
     7
370
    15
100
AcDbLine
 10
401.4566758772
 20
717.8728828064
 30
0.0
 11
401.4566758772
 21
725.8728828064
 31
0.0
  0
LINE
  5
1A6
330
1F
100
AcDbEntity
  8
0
  6
Continuous
 62
     7
370
    15
100
AcDbLine
 10
161.4566758772
 20
725.8728828064
 30
0.0
 11
161.4566758772
 21
717.8728828064
 31
0.0
  0
LINE
  5
1A7
330
1F
100
AcDbEntity
  8
0
  6
Continuous
 62
     7
370
    15
100
AcDbLine
 10
401.4566758772
 20
715.8728828064
 30
0.0
 11
400.4566758772
 21
716.8728828064
 31
0.0
  0
LINE
  5
1A8
330
1F
100
AcDbEntity
  8
0
  6
Continuous
 62
     7
370
    15
100
AcDbLine
 10
162.4566758772
 20
716.8728828064
 30
0.0
 11
161.4566758772
 21
715.8728828064
 31
0.0
  0
LINE
  5
1A9
330
1F
100
AcDbEntity
  8
0
  6
Continuous
 62
     7
370
    15
100
AcDbLine
 10
161.4566758772
 20
707.8728828064
 30
0.0
 11
163.4566758772
 21
705.8728828064
 31
0.0
  0
LINE
  5
1AA
330
1F
100
AcDbEntity
  8
0
  6
Continuous
 62
     7
370
    15
100
AcDbLine
 10
399.4566758772
 20
705.8728828064
 30
0.0
 11
401.4566758772
 21
707.8728828064
 31
0.0
  0
LINE
  5
1AB
330
1F
100
AcDbEntity
  8
0
  6
Continuous
 62
     7
370
    15
100
AcDbLine
 10
161.4566758772
 20
717.8728828064
 30
0.0
 11
162.4566758772
 21
716.8728828064
 31
0.0
  0
LINE
  5
1AC
330
1F
100
AcDbEntity
  8
0
  6
Continuous
 62
     7
370
    15
100
AcDbLine
 10
400.4566758772
 20
716.8728828064
 30
0.0
 11
401.4566758772
 21
717.8728828064
 31
0.0
  0
LINE
  5
1AD
330
1F
100
AcDbEntity
  8
0
  6
Continuous
 62
     7
370
    15
100
AcDbLine
 10
401.4566758772
 20
707.8728828064
 30
0.0
 11
401.4566758772
 21
715.8728828064
 31
0.0
  0
LINE
  5
1AE
330
1F
100
AcDbEntity
  8
0
  6
Continuous
 62
     7
370
    15
100
AcDbLine
 10
161.4566758772
 20
715.8728828064
 30
0.0
 11
161.4566758772
 21
707.8728828064
 31
0.0
  0
LINE
  5
1AF
330
1F
100
AcDbEntity
  8
0
  6
Continuous
 62
     7
370
    15
100
AcDbLine
 10
401.4566758772
 20
725.8728828064
 30
0.0
 11
399.4566758772
 21
727.8728828064
 31
0.0
  0
LINE
  5
1B0
330
1F
100
AcDbEntity
  8
0
  6
Continuous
 62
     7
370
    15
100
AcDbLine
 10
163.4566758772
 20
727.8728828064
 30
0.0
 11
161.4566758772
 21
725.8728828064
 31
0.0
  0
LINE
  5
1B1
330
1F
100
AcDbEntity
  8
0
  6
Continuous
 62
     7
370
    15
100
AcDbLine
 10
176.4566758772
 20
705.8728828064
 30
0.0
 11
181.4566758772
 21
700.8728828064
 31
0.0
  0
LINE
  5
1B2
330
1F
100
AcDbEntity
  8
0
  6
Continuous
 62
     7
370
    15
100
AcDbLine
 10
381.4566758772
 20
700.8728828064
 30
0.0
 11
386.4566758772
 21
705.8728828064
 31
0.0
  0
LINE
  5
1B3
330
1F
100
AcDbEntity
  8
0
  6
Continuous
 62
     7
370
    15
100
AcDbLine
 10
136.4566758772
 20
524.8728828064
 30
0.0
 11
141.4566758772
 21
529.8728828064
 31
0.0
  0
LINE
  5
1B4
330
1F
100
AcDbEntity
  8
0
  6
Continuous
 62
     7
370
    15
100
AcDbLine
 10
141.4566758772
 20
719.8728828064
 30
0.0
 11
136.4566758772
 21
724.8728828064
 31
0.0
  0
LINE
  5
1B5
330
1F
100
AcDbEntity
  8
0
  6
Continuous
 62
     7
370
    15
100
AcDbLine
 10
181.4566758772
 20
535.8728828064
 30
0.0
 11
186.4566758772
 21
530.8728828064
 31
0.0
  0
LINE
  5
1B6
330
1F
100
AcDbEntity
  8
0
  6
Continuous
 62
     7
370
    15
100
AcDbLine
 10
376.4566758772
 20
530.8728828064
 30
0.0
 11
381.4566758772
 21
535.8728828064
 31
0.0
  0
LINE
  5
1B7
330
1F
100
AcDbEntity
  8
0
  6
Continuous
 62
     7
370
    15
100
AcDbLine
 10
439.4566758772
 20
724.8728828064
 30
0.0
 11
426.4566758772
 21
724.8728828064
 31
0.0
  0
LINE
  5
1B8
330
1F
100
AcDbEntity
  8
0
  6
Continuous
 62
     7
370
    15
100
AcDbLine
 10
426.4566758772
 20
524.8728828064
 30
0.0
 11
439.4566758772
 21
524.8728828064
 31
0.0
  0
LINE
  5
1B9
330
1F
100
AcDbEntity
  8
0
  6
Continuous
 62
     7
370
    15
100
AcDbLine
 10
381.4566758772
 20
690.1160862548
 30
0.0
 11
381.4566758772
 21
700.8728828064
 31
0.0
  0
LINE
  5
1BA
330
1F
100
AcDbEntity
  8
0
  6
Continuous
 62
     7
370
    15
100
AcDbLine
 10
381.4566758772
 20
535.8728828064
 30
0.0
 11
381.4566758772
 21
559.6280350901
 31
0.0
  0
LINE
  5
1BB
330
1F
100
AcDbEntity
  8
0
  6
Continuous
 62
     7
370
    15
100
AcDbLine
 10
181.4566758772
 20
559.6296793581
 30
0.0
 11
181.4566758772
 21
535.8728828064
 31
0.0
  0
LINE
  5
1BC
330
1F
100
AcDbEntity
  8
0
  6
Continuous
 62
     7
370
    15
100
AcDbLine
 10
181.4566758772
 20
700.8728828064
 30
0.0
 11
181.4566758772
 21
690.1177305228
 31
0.0
  0
LINE
  5
1BD
330
1F
100
AcDbEntity
  8
0
  6
Continuous
 62
     7
370
    15
100
AcDbLine
 10
123.4566758772
 20
524.8728828064
 30
0.0
 11
136.4566758772
 21
524.8728828064
 31
0.0
  0
LINE
  5
1BE
330
1F
100
AcDbEntity
  8
0
  6
Continuous
 62
     7
370
    15
100
AcDbLine
 10
136.4566758772
 20
724.8728828064
 30
0.0
 11
123.4566758772
 21
724.8728828064
 31
0.0
  0
LINE
  5
1BF
330
1F
100
AcDbEntity
  8
0
  6
Continuous
 62
     7
370
    15
100
AcDbLine
 10
426.4566758772
 20
724.8728828064
 30
0.0
 11
421.4566758772
 21
719.8728828064
 31
0.0
  0
LINE
  5
1C0
330
1F
100
AcDbEntity
  8
0
  6
Continuous
 62
     7
370
    15
100
AcDbLine
 10
421.4566758772
 20
529.8728828064
 30
0.0
 11
426.4566758772
 21
524.8728828064
 31
0.0
  0
LINE
  5
1C1
330
1F
100
AcDbEntity
  8
0
  6
Continuous
 62
     7
370
    15
100
AcDbLine
 10
376.4566758772
 20
728.8728828064
 30
0.0
 11
374.4566758772
 21
730.8728828064
 31
0.0
  0
LINE
  5
1C2
330
1F
100
AcDbEntity
  8
0
  6
Continuous
 62
     7
370
    15
100
AcDbLine
 10
188.4566758772
 20
730.8728828064
 30
0.0
 11
186.4566758772
 21
728.8728828064
 31
0.0
  0
LINE
  5
1C3
330
1F
100
AcDbEntity
  8
0
  6
Continuous
 62
     7
370
    15
100
AcDbLine
 10
186.4566758772
 20
728.8728828064
 30
0.0
 11
186.4566758772
 21
727.8728828064
 31
0.0
  0
LINE
  5
1C4
330
1F
100
AcDbEntity
  8
0
  6
Continuous
 62
     7
370
    15
100
AcDbLine
 10
376.4566758772
 20
727.8728828064
 30
0.0
 11
376.4566758772
 21
728.8728828064
 31
0.0
  0
ARC
  5
1C5
330
1F
100
AcDbEntity
  8
0
  6
Continuous
 62
     7
370
    15
100
AcDbCircle
 10
151.4566758772
 20
559.6228828064
 30
0.0
 40
10.0
100
AcDbArc
 50
90.0
 51
180.0
  0
ARC
  5
1C6
330
1F
100
AcDbEntity
  8
0
  6
Continuous
 62
     7
370
    15
100
AcDbCircle
 10
151.4566758772
 20
690.1228828064
 30
0.0
 40
10.0
100
AcDbArc
 50
180.0
 51
270.0
  0
ARC
  5
1C7
330
1F
100
AcDbEntity
  8
0
  6
Continuous
 62
     7
370
    15
100
AcDbCircle
 10
411.4566758772
 20
690.1228828064
 30
0.0
 40
10.0
100
AcDbArc
 50
270.0
 51
0.0
  0
ARC
  5
1C8
330
1F
100
AcDbEntity
  8
0
  6
Continuous
 62
     7
370
    15
100
AcDbCircle
 10
411.4566758772
 20
559.6228828064
 30
0.0
 40
10.0
100
AcDbArc
 50
0.0
 51
90.0
  0
LINE
  5
1C9
330
1F
100
AcDbEntity
  8
0
  6
Continuous
 62
     7
370
    15
100
AcDbLine
 10
121.4566758772
 20
559.8728828064
 30
0.0
 11
123.4566758772
 21
559.8728828064
 31
0.0
  0
LINE
  5
1CA
330
1F
100
AcDbEntity
  8
0
  6
Continuous
 62
     7
370
    15
100
AcDbLine
 10
123.4566758772
 20
689.8728828064
 30
0.0
 11
121.4566758772
 21
689.8728828064
 31
0.0
  0
LINE
  5
1CB
330
1F
100
AcDbEntity
  8
0
  6
Continuous
 62
     7
370
    15
100
AcDbLine
 10
441.4566758772
 20
689.8728828064
 30
0.0
 11
439.4566758772
 21
689.8728828064
 31
0.0
  0
LINE
  5
1CC
330
1F
100
AcDbEntity
  8
0
  6
Continuous
 62
     7
370
    15
100
AcDbLine
 10
439.4566758772
 20
559.8728828064
 30
0.0
 11
441.4566758772
 21
559.8728828064
 31
0.0
  0
LINE
  5
1CD
330
1F
100
AcDbEntity
  8
0
  6
Continuous
 62
     7
370
    15
100
AcDbLine
 10
171.4566758251
 20
569.6228824028
 30
0.0
 11
181.4566758292
 21
559.6228823286
 31
0.0
  0
LINE
  5
1CE
330
1F
100
AcDbEntity
  8
0
  6
Continuous
 62
     7
370
    15
100
AcDbLine
 10
181.4566759182
 20
690.12288277
 30
0.0
 11
171.4566759229
 21
680.1228827747
 31
0.0
  0
LINE
  5
1CF
330
1F
100
AcDbEntity
  8
0
  6
Continuous
 62
     7
370
    15
100
AcDbLine
 10
391.4566759293
 20
680.1228832101
 30
0.0
 11
381.4566759253
 21
690.1228832843
 31
0.0
  0
LINE
  5
1D0
330
1F
100
AcDbEntity
  8
0
  6
Continuous
 62
     7
370
    15
100
AcDbLine
 10
381.4566758363
 20
559.6228828428
 30
0.0
 11
391.4566758316
 21
569.6228828381
 31
0.0
  0
LINE
  5
1D1
330
1F
100
AcDbEntity
  8
0
  6
Continuous
 62
     7
370
    15
100
AcDbLine
 10
391.4536214517
 20
569.6228828064
 30
0.0
 11
411.4566758772
 21
569.6228828064
 31
0.0
  0
LINE
  5
1D2
330
1F
100
AcDbEntity
  8
0
  6
Continuous
 62
     7
370
    15
100
AcDbLine
 10
411.4566758772
 20
680.1228828064
 30
0.0
 11
391.4526564391
 21
680.1228828064
 31
0.0
  0
LINE
  5
1D3
330
1F
100
AcDbEntity
  8
0
  6
Continuous
 62
     7
370
    15
100
AcDbLine
 10
151.4566758772
 20
569.6228828064
 30
0.0
 11
171.4606953153
 21
569.6228828064
 31
0.0
  0
LINE
  5
1D4
330
1F
100
AcDbEntity
  8
0
  6
Continuous
 62
     7
370
    15
100
AcDbLine
 10
171.4597303027
 20
680.1228828064
 30
0.0
 11
151.4566758772
 21
680.1228828064
 31
0.0
  0
LINE
  5
1D5
330
1F
100
AcDbEntity
  8
0
  6
Continuous
 62
     7
370
    15
100
AcDbLine
 10
281.4566758772
 20
717.8728828064
 30
0.0
 11
401.4566758772
 21
717.8728828064
 31
0.0
  0
LINE
  5
1D6
330
1F
100
AcDbEntity
  8
0
  6
Continuous
 62
     7
370
    15
100
AcDbLine
 10
161.4566758772
 20
717.8728828064
 30
0.0
 11
281.4566758772
 21
717.8728828064
 31
0.0
  0
LINE
  5
1D7
330
1F
100
AcDbEntity
  8
0
  6
Continuous
 62
     7
370
    15
100
AcDbLine
 10
401.4566758772
 20
725.8728828064
 30
0.0
 11
161.4566758772
 21
725.8728828064
 31
0.0
  0
LINE
  5
1D8
330
1F
100
AcDbEntity
  8
0
  6
Continuous
 62
     7
370
    15
100
AcDbLine
 10
281.4566758772
 20
715.8728828064
 30
0.0
 11
401.4566758772
 21
715.8728828064
 31
0.0
  0
LINE
  5
1D9
330
1F
100
AcDbEntity
  8
0
  6
Continuous
 62
     7
370
    15
100
AcDbLine
 10
161.4566758772
 20
715.8728828064
 30
0.0
 11
281.4566758772
 21
715.8728828064
 31
0.0
  0
LINE
  5
1DA
330
1F
100
AcDbEntity
  8
0
  6
Continuous
 62
     7
370
    15
100
AcDbLine
 10
281.4566758772
 20
716.8728828064
 30
0.0
 11
400.4566758772
 21
716.8728828064
 31
0.0
  0
LINE
  5
1DB
330
1F
100
AcDbEntity
  8
0
  6
Continuous
 62
     7
370
    15
100
AcDbLine
 10
162.4566758772
 20
716.8728828064
 30
0.0
 11
281.4566758772
 21
716.8728828064
 31
0.0
  0
LINE
  5
1DC
330
1F
100
AcDbEntity
  8
0
  6
Continuous
 62
     7
370
    15
100
AcDbLine
 10
281.4566758772
 20
705.8728828064
 30
0.0
 11
163.4566758772
 21
705.8728828064
 31
0.0
  0
LINE
  5
1DD
330
1F
100
AcDbEntity
  8
0
  6
Continuous
 62
     7
370
    15
100
AcDbLine
 10
399.4566758772
 20
705.8728828064
 30
0.0
 11
281.4566758772
 21
705.8728828064
 31
0.0
  0
LINE
  5
1DE
330
1F
100
AcDbEntity
  8
0
  6
Continuous
 62
     7
370
    15
100
AcDbLine
 10
281.4566758772
 20
707.8728828064
 30
0.0
 11
401.4566758772
 21
707.8728828064
 31
0.0
  0
LINE
  5
1DF
330
1F
100
AcDbEntity
  8
0
  6
Continuous
 62
     7
370
    15
100
AcDbLine
 10
161.4566758772
 20
707.8728828064
 30
0.0
 11
281.4566758772
 21
707.8728828064
 31
0.0
  0
LINE
  5
1E0
330
1F
100
AcDbEntity
  8
0
  6
Continuous
 62
     7
370
    15
100
AcDbLine
 10
163.4566758772
 20
727.8728828064
 30
0.0
 11
399.4566758772
 21
727.8728828064
 31
0.0
  0
LINE
  5
1E1
330
1F
100
AcDbEntity
  8
0
  6
Continuous
 62
     7
370
    15
100
AcDbLine
 10
281.4566758772
 20
732.8728828064
 30
0.0
 11
281.4566758772
 21
727.8728828064
 31
0.0
  0
LINE
  5
1E2
330
1F
100
AcDbEntity
  8
0
  6
Continuous
 62
     7
370
    15
100
AcDbLine
 10
281.4566758772
 20
732.8728828064
 30
0.0
 11
290.4566758772
 21
732.8728828064
 31
0.0
  0
LINE
  5
1E3
330
1F
100
AcDbEntity
  8
0
  6
Continuous
 62
     7
370
    15
100
AcDbLine
 10
290.4566758772
 20
732.8728828064
 30
0.0
 11
290.4566758772
 21
727.8728828064
 31
0.0
  0
LINE
  5
1E4
330
1F
100
AcDbEntity
  8
0
  6
Continuous
 62
     7
370
    15
100
AcDbLine
 10
272.4566758772
 20
732.8728828064
 30
0.0
 11
272.4566758772
 21
727.8728828064
 31
0.0
  0
LINE
  5
1E5
330
1F
100
AcDbEntity
  8
0
  6
Continuous
 62
     7
370
    15
100
AcDbLine
 10
272.4566758772
 20
732.8728828064
 30
0.0
 11
281.4566758772
 21
732.8728828064
 31
0.0
  0
LINE
  5
1E6
330
1F
100
AcDbEntity
  8
0
  6
Continuous
 62
     7
370
    15
100
AcDbLine
 10
281.4566758772
 20
700.8728828064
 30
0.0
 11
181.4566758772
 21
700.8728828064
 31
0.0
  0
LINE
  5
1E7
330
1F
100
AcDbEntity
  8
0
  6
Continuous
 62
     7
370
    15
100
AcDbLine
 10
381.4566758772
 20
700.8728828064
 30
0.0
 11
281.4566758772
 21
700.8728828064
 31
0.0
  0
LINE
  5
1E8
330
1F
100
AcDbEntity
  8
0
  6
Continuous
 62
     7
370
    15
100
AcDbLine
 10
136.4566758772
 20
624.8728828064
 30
0.0
 11
136.4566758772
 21
724.8728828064
 31
0.0
  0
LINE
  5
1E9
330
1F
100
AcDbEntity
  8
0
  6
Continuous
 62
     7
370
    15
100
AcDbLine
 10
136.4566758772
 20
524.8728828064
 30
0.0
 11
136.4566758772
 21
624.8728828064
 31
0.0
  0
LINE
  5
1EA
330
1F
100
AcDbEntity
  8
0
  6
Continuous
 62
     7
370
    15
100
AcDbLine
 10
141.4566758772
 20
624.8728828064
 30
0.0
 11
141.4566758772
 21
529.8728828064
 31
0.0
  0
LINE
  5
1EB
330
1F
100
AcDbEntity
  8
0
  6
Continuous
 62
     7
370
    15
100
AcDbLine
 10
141.4566758772
 20
719.8728828064
 30
0.0
 11
141.4566758772
 21
624.8728828064
 31
0.0
  0
LINE
  5
1EC
330
1F
100
AcDbEntity
  8
0
  6
Continuous
 62
     7
370
    15
100
AcDbLine
 10
281.4566758772
 20
530.8728828064
 30
0.0
 11
186.4566758772
 21
530.8728828064
 31
0.0
  0
LINE
  5
1ED
330
1F
100
AcDbEntity
  8
0
  6
Continuous
 62
     7
370
    15
100
AcDbLine
 10
376.4566758772
 20
530.8728828064
 30
0.0
 11
281.4566758772
 21
530.8728828064
 31
0.0
  0
LINE
  5
1EE
330
1F
100
AcDbEntity
  8
0
  6
Continuous
 62
     7
370
    15
100
AcDbLine
 10
281.4566758772
 20
535.8728828064
 30
0.0
 11
381.4566758772
 21
535.8728828064
 31
0.0
  0
LINE
  5
1EF
330
1F
100
AcDbEntity
  8
0
  6
Continuous
 62
     7
370
    15
100
AcDbLine
 10
181.4566758772
 20
535.8728828064
 30
0.0
 11
281.4566758772
 21
535.8728828064
 31
0.0
  0
LINE
  5
1F0
330
1F
100
AcDbEntity
  8
0
  6
Continuous
 62
     7
370
    15
100
AcDbLine
 10
426.4566758772
 20
724.8728828064
 30
0.0
 11
426.4566758772
 21
524.8728828064
 31
0.0
  0
LINE
  5
1F1
330
1F
100
AcDbEntity
  8
0
  6
Continuous
 62
     7
370
    15
100
AcDbLine
 10
439.4566758772
 20
624.8728828064
 30
0.0
 11
439.4566758772
 21
724.8728828064
 31
0.0
  0
LINE
  5
1F2
330
1F
100
AcDbEntity
  8
0
  6
Continuous
 62
     7
370
    15
100
AcDbLine
 10
439.4566758772
 20
524.8728828064
 30
0.0
 11
439.4566758772
 21
624.8728828064
 31
0.0
  0
SPLINE
  5
1F3
330
1F
100
AcDbEntity
  8
0
  6
Continuous
 62
     7
370
    15
100
AcDbSpline
210
0.0
220
0.0
230
1.0
 70
     8
 71
     3
 72
    22
 73
    18
 74
     0
 42
0.000000001
 43
0.00000001
 40
0.0
 40
0.0
 40
0.0
 40
0.0
 40
0.0651524582169677
 40
0.1307136974407983
 40
0.195875021044119
 40
0.2604544151477686
 40
0.3460790837999942
 40
0.4305651751377771
 40
0.5145300434705203
 40
0.5970365805914102
 40
0.6785929838313468
 40
0.7597601735480238
 40
0.8196515989802513
 40
0.8791566745481506
 40
0.9390893264342536
 40
0.9987402855363081
 40
1.0
 40
1.0
 40
1.0
 40
1.0
 10
200.9498233379122
 20
624.8728828064376
 30
0.0
 10
200.9074426406242
 20
622.6961371694273
 30
0.0
 10
200.8224153401317
 20
618.3289885093687
 30
0.0
 10
200.1490022836259
 20
611.8679872854149
 30
0.0
 10
199.1241413375702
 20
605.5836012584282
 30
0.0
 10
197.6289077608892
 20
598.8938335896406
 30
0.0
 10
195.6466554824956
 20
591.9686615585566
 30
0.0
 10
193.2263314165952
 20
585.0099607439449
 30
0.0
 10
190.7207428140515
 20
578.7358277350775
 30
0.0
 10
188.2763618742166
 20
573.2010496292717
 30
0.0
 10
186.028672889711
 20
568.4745904055402
 30
0.0
 10
184.262434607534
 20
564.9564351976384
 30
0.0
 10
182.9853673771715
 20
562.4928554493664
 30
0.0
 10
182.1148934325039
 20
560.8483000683123
 30
0.0
 10
181.6107948388996
 20
559.908393514431
 30
0.0
 10
181.4002801085892
 20
559.5181412514526
 30
0.0
 10
181.4591185125818
 20
559.627419340601
 30
0.0
 10
181.4603353697299
 20
559.629679358122
 30
0.0
  0
SPLINE
  5
1F4
330
1F
100
AcDbEntity
  8
0
  6
Continuous
 62
     7
370
    15
100
AcDbSpline
210
0.0
220
0.0
230
1.0
 70
     8
 71
     3
 72
    22
 73
    18
 74
     0
 42
0.000000001
 43
0.00000001
 40
0.0
 40
0.0
 40
0.0
 40
0.0
 40
0.0584214254637637
 40
0.1182014034985591
 40
0.1785946751984185
 40
0.2388896791819421
 40
0.3200808370193508
 40
0.4021785181522424
 40
0.4849814760043241
 40
0.5480081626126257
 40
0.6110576426558751
 40
0.6744927365795217
 40
0.7388887163646971
 40
0.8038047086912041
 40
0.8687508185392351
 40
0.9344574547816972
 40
1.0
 40
1.0
 40
1.0
 40
1.0
 10
181.4594530329235
 20
690.1177305228053
 30
0.0
 10
181.4914888721312
 20
690.0586096115433
 30
0.0
 10
181.5563055233261
 20
689.9389929703569
 30
0.0
 10
182.0990165610779
 20
688.9272669967179
 30
0.0
 10
182.9492884439079
 20
687.3217002137194
 30
0.0
 10
184.2316348306186
 20
684.8497868901383
 30
0.0
 10
185.9987039658083
 20
681.3325374399135
 30
0.0
 10
188.252054491171
 20
676.5981925719241
 30
0.0
 10
190.4980712193924
 20
671.5159405209346
 30
0.0
 10
192.5796642700628
 20
666.3685741270865
 30
0.0
 10
194.4247609282442
 20
661.3479355911246
 30
0.0
 10
196.174880537172
 20
655.969974384909
 30
0.0
 10
197.7634257501043
 20
650.2444111270399
 30
0.0
 10
199.1147732310339
 20
644.211196980154
 30
0.0
 10
200.1433802382616
 20
637.9193362722666
 30
0.0
 10
200.8210604234434
 20
631.4481515478229
 30
0.0
 10
200.9069381552553
 20
627.0628114994641
 30
0.0
 10
200.9498233379122
 20
624.8728828064376
 30
0.0
  0
SPLINE
  5
1F5
330
1F
100
AcDbEntity
  8
0
  6
Continuous
 62
     7
370
    15
100
AcDbSpline
210
0.0
220
0.0
230
1.0
 70
     8
 71
     3
 72
    22
 73
    18
 74
     0
 42
0.000000001
 43
0.00000001
 40
0.0
 40
0.0
 40
0.0
 40
0.0
 40
0.0651524582169598
 40
0.1307136974407834
 40
0.1958750210440962
 40
0.2604544151477394
 40
0.3460790837858215
 40
0.4305651751953252
 40
0.5145300434709525
 40
0.5970365806526463
 40
0.678592983837474
 40
0.7597601735480513
 40
0.8196515989802723
 40
0.8791566745481652
 40
0.9390893264342601
 40
0.9987402855363083
 40
1.0
 40
1.0
 40
1.0
 40
1.0
 10
361.9635284165188
 20
624.8728828064376
 30
0.0
 10
362.0059091138068
 20
627.049628443448
 30
0.0
 10
362.0909364142992
 20
631.4167771035067
 30
0.0
 10
362.7643494708061
 20
637.8777783274597
 30
0.0
 10
363.7892104168578
 20
644.1621643544491
 30
0.0
 10
365.2844439934569
 20
650.8519320227865
 30
0.0
 10
367.2666962722241
 20
657.7771040556593
 30
0.0
 10
369.687020338131
 20
664.7358048703362
 30
0.0
 10
372.1926089415674
 20
671.0099378805664
 30
0.0
 10
374.6369898809231
 20
676.5447159848558
 30
0.0
 10
376.8846788652803
 20
681.2711752082528
 30
0.0
 10
378.6509171469318
 20
684.7893304153417
 30
0.0
 10
379.9279843772605
 20
687.2529101635016
 30
0.0
 10
380.7984583219268
 20
688.8974655445649
 30
0.0
 10
381.3025569155319
 20
689.8373720984437
 30
0.0
 10
381.5130716458411
 20
690.2276243614226
 30
0.0
 10
381.4542332418493
 20
690.118346272274
 30
0.0
 10
381.4530163847011
 20
690.1160862547533
 30
0.0
  0
SPLINE
  5
1F6
330
1F
100
AcDbEntity
  8
0
  6
Continuous
 62
     7
370
    15
100
AcDbSpline
210
0.0
220
0.0
230
1.0
 70
     8
 71
     3
 72
    22
 73
    18
 74
     0
 42
0.000000001
 43
0.00000001
 40
0.0
 40
0.0
 40
0.0
 40
0.0
 40
0.0584214254601757
 40
0.1182014034985346
 40
0.1785946751984049
 40
0.2388896791819394
 40
0.320080836994304
 40
0.4021785181063496
 40
0.4849814760042327
 40
0.5480081626125425
 40
0.6110576426558038
 40
0.674492736579462
 40
0.7388887163646486
 40
0.8038047086911675
 40
0.8687508185392109
 40
0.9344574547816852
 40
1.0
 40
1.0
 40
1.0
 40
1.0
 10
381.4538987215077
 20
559.6280350900703
 30
0.0
 10
381.4218628823039
 20
559.687156001347
 30
0.0
 10
381.3570462311129
 20
559.8067726425701
 30
0.0
 10
380.8143351933695
 20
560.8184986161056
 30
0.0
 10
379.9640633105246
 20
562.4240653991687
 30
0.0
 10
378.6817169239653
 20
564.895978722393
 30
0.0
 10
376.9146477892393
 20
568.4132281719793
 30
0.0
 10
374.6612972639464
 20
573.1475730393795
 30
0.0
 10
372.4152805354963
 20
578.2298250908234
 30
0.0
 10
370.3336874843679
 20
583.3771914857863
 30
0.0
 10
368.4885908261869
 20
588.3978300217514
 30
0.0
 10
366.738471217259
 20
593.775791227966
 30
0.0
 10
365.1499260043268
 20
599.5013544858353
 30
0.0
 10
363.7985785233973
 20
605.5345686327212
 30
0.0
 10
362.7699715161693
 20
611.8264293406085
 30
0.0
 10
362.0922913309876
 20
618.2976140650522
 30
0.0
 10
362.0064135991759
 20
622.682954113411
 30
0.0
 10
361.9635284165188
 20
624.8728828064376
 30
0.0
  0
LINE
  5
1F7
330
1F
100
AcDbEntity
  8
0
  6
Continuous
 62
     7
370
    15
100
AcDbLine
 10
123.4566758772
 20
624.8728828064
 30
0.0
 11
123.4566758772
 21
724.8728828064
 31
0.0
  0
LINE
  5
1F8
330
1F
100
AcDbEntity
  8
0
  6
Continuous
 62
     7
370
    15
100
AcDbLine
 10
123.4566758772
 20
524.8728828064
 30
0.0
 11
123.4566758772
 21
624.8728828064
 31
0.0
  0
LINE
  5
1F9
330
1F
100
AcDbEntity
  8
0
  6
Continuous
 62
     7
370
    15
100
AcDbLine
 10
421.4566758772
 20
529.8728828064
 30
0.0
 11
421.4566758772
 21
719.8728828064
 31
0.0
  0
LINE
  5
1FA
330
1F
100
AcDbEntity
  8
0
  6
Continuous
 62
     7
370
    15
100
AcDbLine
 10
188.4566758772
 20
730.8728828064
 30
0.0
 11
196.4651614266
 21
730.8728828064
 31
0.0
  0
LINE
  5
1FB
330
1F
100
AcDbEntity
  8
0
  6
Continuous
 62
     7
370
    15
100
AcDbLine
 10
216.5415527163
 20
730.8728828064
 30
0.0
 11
272.4566758772
 21
730.8728828064
 31
0.0
  0
LINE
  5
1FC
330
1F
100
AcDbEntity
  8
0
  6
Continuous
 62
     7
370
    15
100
AcDbLine
 10
290.4566758772
 20
730.8728828064
 30
0.0
 11
346.3717990381
 21
730.8728828064
 31
0.0
  0
LINE
  5
1FD
330
1F
100
AcDbEntity
  8
0
  6
Continuous
 62
     7
370
    15
100
AcDbLine
 10
366.4481903278
 20
730.8728828064
 30
0.0
 11
374.4566758772
 21
730.8728828064
 31
0.0
  0
LINE
  5
1FE
330
1F
100
AcDbEntity
  8
0
  6
Continuous
 62
     7
370
    15
100
AcDbLine
 10
376.4566758772
 20
728.8728828064
 30
0.0
 11
366.4481903278
 21
728.8728828064
 31
0.0
  0
LINE
  5
1FF
330
1F
100
AcDbEntity
  8
0
  6
Continuous
 62
     7
370
    15
100
AcDbLine
 10
346.3717990381
 20
728.8728828064
 30
0.0
 11
290.4566758772
 21
728.8728828064
 31
0.0
  0
LINE
  5
200
330
1F
100
AcDbEntity
  8
0
  6
Continuous
 62
     7
370
    15
100
AcDbLine
 10
272.4566758772
 20
728.8728828064
 30
0.0
 11
216.5415527163
 21
728.8728828064
 31
0.0
  0
LINE
  5
201
330
1F
100
AcDbEntity
  8
0
  6
Continuous
 62
     7
370
    15
100
AcDbLine
 10
196.4651614266
 20
728.8728828064
 30
0.0
 11
186.4566758772
 21
728.8728828064
 31
0.0
  0
LINE
  5
202
330
1F
100
AcDbEntity
  8
0
  6
Continuous
 62
     7
370
    15
100
AcDbLine
 10
353.7202682665
 20
732.8728828064
 30
0.0
 11
353.7202682665
 21
727.8728828064
 31
0.0
  0
LINE
  5
203
330
1F
100
AcDbEntity
  8
0
  6
Continuous
 62
     7
370
    15
100
AcDbLine
 10
363.7584639113
 20
732.8728828064
 30
0.0
 11
363.7584639113
 21
727.8728828064
 31
0.0
  0
LINE
  5
204
330
1F
100
AcDbEntity
  8
0
  6
Continuous
 62
     7
370
    15
100
AcDbLine
 10
353.7202682665
 20
732.8728828064
 30
0.0
 11
363.7584639113
 21
732.8728828064
 31
0.0
  0
LINE
  5
205
330
1F
100
AcDbEntity
  8
0
  6
Continuous
 62
     7
370
    15
100
AcDbLine
 10
346.3717990381
 20
732.8728828064
 30
0.0
 11
346.3717990381
 21
727.8728828064
 31
0.0
  0
LINE
  5
206
330
1F
100
AcDbEntity
  8
0
  6
Continuous
 62
     7
370
    15
100
AcDbLine
 10
346.3717990381
 20
732.8728828064
 30
0.0
 11
353.7202682665
 21
732.8728828064
 31
0.0
  0
LINE
  5
207
330
1F
100
AcDbEntity
  8
0
  6
Continuous
 62
     7
370
    15
100
AcDbLine
 10
199.1548878431
 20
732.8728828064
 30
0.0
 11
199.1548878431
 21
727.8728828064
 31
0.0
  0
LINE
  5
208
330
1F
100
AcDbEntity
  8
0
  6
Continuous
 62
     7
370
    15
100
AcDbLine
 10
199.1548878431
 20
732.8728828064
 30
0.0
 11
209.1930834879
 21
732.8728828064
 31
0.0
  0
LINE
  5
209
330
1F
100
AcDbEntity
  8
0
  6
Continuous
 62
     7
370
    15
100
AcDbLine
 10
209.1930834879
 20
732.8728828064
 30
0.0
 11
209.1930834879
 21
727.8728828064
 31
0.0
  0
LINE
  5
20A
330
1F
100
AcDbEntity
  8
0
  6
Continuous
 62
     7
370
    15
100
AcDbLine
 10
209.1930834879
 20
732.8728828064
 30
0.0
 11
216.5415527163
 21
732.8728828064
 31
0.0
  0
LINE
  5
20B
330
1F
100
AcDbEntity
  8
0
  6
Continuous
 62
     7
370
    15
100
AcDbLine
 10
216.5415527163
 20
732.8728828064
 30
0.0
 11
216.5415527163
 21
727.8728828064
 31
0.0
  0
LINE
  5
20C
330
1F
100
AcDbEntity
  8
0
  6
Continuous
 62
     7
370
    15
100
AcDbLine
 10
366.4481903278
 20
732.8728828064
 30
0.0
 11
366.4481903278
 21
727.8728828064
 31
0.0
  0
LINE
  5
20D
330
1F
100
AcDbEntity
  8
0
  6
Continuous
 62
     7
370
    15
100
AcDbLine
 10
363.7584639113
 20
732.8728828064
 30
0.0
 11
366.4481903278
 21
732.8728828064
 31
0.0
  0
LINE
  5
20E
330
1F
100
AcDbEntity
  8
0
  6
Continuous
 62
     7
370
    15
100
AcDbLine
 10
196.4651614266
 20
732.8728828064
 30
0.0
 11
196.4651614266
 21
727.8728828064
 31
0.0
  0
LINE
  5
20F
330
1F
100
AcDbEntity
  8
0
  6
Continuous
 62
     7
370
    15
100
AcDbLine
 10
196.4651614266
 20
732.8728828064
 30
0.0
 11
199.1548878431
 21
732.8728828064
 31
0.0
  0
LINE
  5
210
330
1F
100
AcDbEntity
  8
0
  6
Continuous
 62
     7
370
    15
100
AcDbLine
 10
121.4566758772
 20
624.8728828064
 30
0.0
 11
121.4566758772
 21
689.8728828064
 31
0.0
  0
LINE
  5
211
330
1F
100
AcDbEntity
  8
0
  6
Continuous
 62
     7
370
    15
100
AcDbLine
 10
121.4566758772
 20
559.8728828064
 30
0.0
 11
121.4566758772
 21
624.8728828064
 31
0.0
  0
LINE
  5
212
330
1F
100
AcDbEntity
  8
0
  6
Continuous
 62
     7
370
    15
100
AcDbLine
 10
441.4566758772
 20
624.8728828064
 30
0.0
 11
441.4566758772
 21
689.8728828064
 31
0.0
  0
LINE
  5
213
330
1F
100
AcDbEntity
  8
0
  6
Continuous
 62
     7
370
    15
100
AcDbLine
 10
441.4566758772
 20
559.8728828064
 30
0.0
 11
441.4566758772
 21
624.8728828064
 31
0.0
  0
SPLINE
  5
214
330
1F
100
AcDbEntity
  8
0
  6
Continuous
 62
     7
370
    15
100
AcDbSpline
210
0.0
220
0.0
230
1.0
 70
     8
 71
     3
 72
    26
 73
    22
 74
     0
 42
0.000000001
 43
0.00000001
 40
0.0
 40
0.0
 40
0.0
 40
0.0
 40
0.0411610969351012
 40
0.0823922390912494
 40
0.1242163013314364
 40
0.1651868841161948
 40
0.2066206618254752
 40
0.249072328220643
 40
0.3119897597861411
 40
0.3746427905075608
 40
0.4375335912720656
 40
0.500954066453397
 40
0.5529612622708734
 40
0.6029004945067563
 40
0.652902268075067
 40
0.7028922341425374
 40
0.7526336354685841
 40
0.814911608259268
 40
0.8774332128450609
 40
0.9393260955042885
 40
1.0
 40
1.0
 40
1.0
 40
1.0
 10
192.899138083979
 20
624.8728828064376
 30
0.0
 10
192.8782552245602
 20
626.1071866529336
 30
0.0
 10
192.8364539686594
 20
628.5778948022352
 30
0.0
 10
192.5012984923342
 20
632.2735162289385
 30
0.0
 10
191.9792031305588
 20
635.9069967587565
 30
0.0
 10
191.2676513095999
 20
639.4665661622431
 30
0.0
 10
190.3917781251531
 20
642.9466335534707
 30
0.0
 10
189.1972128249305
 20
646.9052866685371
 30
0.0
 10
187.6365003791906
 20
651.22975459977
 30
0.0
 10
185.7117559781297
 20
655.779592768055
 30
0.0
 10
183.6829952464157
 20
660.0268740006499
 30
0.0
 10
181.7405049543462
 20
663.7230274361613
 30
0.0
 10
179.9683517740956
 20
666.8718423311291
 30
0.0
 10
178.3964153277863
 20
669.5272346857072
 30
0.0
 10
176.9304082688659
 20
671.9033667943629
 30
0.0
 10
175.5812033557363
 20
674.0164423840956
 30
0.0
 10
174.2778157321885
 20
676.0012284633234
 30
0.0
 10
173.0972288528513
 20
677.7528900810023
 30
0.0
 10
172.1631634876316
 20
679.1107561270323
 30
0.0
 10
171.5664219768847
 20
679.9664737827668
 30
0.0
 10
171.4951083866625
 20
680.068099768311
 30
0.0
 10
171.4598062133509
 20
680.1184074045336
 30
0.0
  0
SPLINE
  5
215
330
1F
100
AcDbEntity
  8
0
  6
Continuous
 62
     7
370
    15
100
AcDbSpline
210
0.0
220
0.0
230
1.0
 70
     8
 71
     3
 72
    30
 73
    26
 74
     0
 42
0.000000001
 43
0.00000001
 40
0.0
 40
0.0
 40
0.0
 40
0.0
 40
0.0013341235959512
 40
0.0632139857830595
 40
0.1253397112155832
 40
0.186930141837648
 40
0.2487795064490697
 40
0.2795849971166157
 40
0.3115366971568104
 40
0.3420658423405976
 40
0.3741806229282123
 40
0.4042236612737022
 40
0.4366895471048771
 40
0.4656886090183784
 40
0.4995667969767263
 40
0.544658344104809
 40
0.5863643324611574
 40
0.6257996115078196
 40
0.6689689253201474
 40
0.7105266408409849
 40
0.7516829225001915
 40
0.8140650955845429
 40
0.8763571391203163
 40
0.9385144890991481
 40
1.0
 40
1.0
 40
1.0
 40
1.0
 10
171.4607836401115
 20
569.6287554346168
 30
0.0
 10
171.4594165809133
 20
569.6268010124419
 30
0.0
 10
171.3946420270543
 20
569.5341957875936
 30
0.0
 10
171.6260435566176
 20
569.864402624465
 30
0.0
 10
172.1801953367504
 20
570.6597541374825
 30
0.0
 10
173.1369810144927
 20
572.0511514258657
 30
0.0
 10
174.1827167484309
 20
573.6040579879456
 30
0.0
 10
175.1622104369
 20
575.0908133951991
 30
0.0
 10
175.9554538522273
 20
576.3153095455868
 30
0.0
 10
176.8139902552702
 20
577.6648436986154
 30
0.0
 10
177.7004277165961
 20
579.0888715827322
 30
0.0
 10
178.6448374487118
 20
580.6411025201153
 30
0.0
 10
179.5882371803143
 20
582.2348207475484
 30
0.0
 10
180.5961122229957
 20
583.986093503357
 30
0.0
 10
181.7557398107602
 20
586.0719650082838
 30
0.0
 10
183.0670540624599
 20
588.5423444365603
 30
0.0
 10
184.4329490776576
 20
591.2803755053988
 30
0.0
 10
185.7556110172637
 20
594.1137340221902
 30
0.0
 10
187.0326449014469
 20
597.0801825838747
 30
0.0
 10
188.260112025663
 20
600.2246526104739
 30
0.0
 10
189.5709366017833
 20
603.997137222111
 30
0.0
 10
190.8841598402562
 20
608.5125826585622
 30
0.0
 10
192.0143064309252
 20
613.8382737899313
 30
0.0
 10
192.7582706957611
 20
619.318943824274
 30
0.0
 10
192.8523526925744
 20
623.0282883094077
 30
0.0
 10
192.899138083979
 20
624.8728828064376
 30
0.0
  0
SPLINE
  5
216
330
1F
100
AcDbEntity
  8
0
  6
Continuous
 62
     7
370
    15
100
AcDbSpline
210
0.0
220
0.0
230
1.0
 70
     8
 71
     3
 72
    26
 73
    22
 74
     0
 42
0.000000001
 43
0.00000001
 40
0.0
 40
0.0
 40
0.0
 40
0.0
 40
0.0411610969381258
 40
0.0823922391031525
 40
0.1242163013314452
 40
0.165186884179992
 40
0.2066206619002059
 40
0.249072328220668
 40
0.3119897597861633
 40
0.3746427905075806
 40
0.4375335912720831
 40
0.5009540664534095
 40
0.5529612617496752
 40
0.6029004940112082
 40
0.6529022681195165
 40
0.702892234206034
 40
0.7526336354685949
 40
0.8149116082592762
 40
0.8774332128450673
 40
0.9393260955042918
 40
1.0
 40
1.0
 40
1.0
 40
1.0
 10
370.0142136704522
 20
624.8728828064376
 30
0.0
 10
370.0350965298692
 20
623.6385789598511
 30
0.0
 10
370.0768977857694
 20
621.1678708101931
 30
0.0
 10
370.4120532621155
 20
617.4722493834877
 30
0.0
 10
370.9341486243284
 20
613.8387688519344
 30
0.0
 10
371.6457004452389
 20
610.2791994465927
 30
0.0
 10
372.5215736307683
 20
606.7991320557283
 30
0.0
 10
373.7161389300284
 20
602.840478942376
 30
0.0
 10
375.2768513752892
 20
598.5160110131168
 30
0.0
 10
377.2015957762979
 20
593.9661728448189
 30
0.0
 10
379.2303565079801
 20
589.7188916122186
 30
0.0
 10
381.172846794542
 20
586.022738187544
 30
0.0
 10
382.94499996908
 20
582.8739233006484
 30
0.0
 10
384.5169364170567
 20
580.2185309429791
 30
0.0
 10
385.9829434829137
 20
577.842398823954
 30
0.0
 10
387.3321483988936
 20
575.7293232272949
 30
0.0
 10
388.6355360229143
 20
573.7445371489488
 30
0.0
 10
389.8161229015085
 20
571.9928755318629
 30
0.0
 10
390.7501882668183
 20
570.6350094858456
 30
0.0
 10
391.3469297775418
 20
569.7792918301078
 30
0.0
 10
391.4182433677671
 20
569.6776658445641
 30
0.0
 10
391.4535455410802
 20
569.6273582083415
 30
0.0
  0
SPLINE
  5
217
330
1F
100
AcDbEntity
  8
0
  6
Continuous
 62
     7
370
    15
100
AcDbSpline
210
0.0
220
0.0
230
1.0
 70
     8
 71
     3
 72
    30
 73
    26
 74
     0
 42
0.000000001
 43
0.00000001
 40
0.0
 40
0.0
 40
0.0
 40
0.0
 40
0.0013341235959543
 40
0.0632139857830624
 40
0.1253397112155855
 40
0.1869301418376507
 40
0.2487795064490727
 40
0.2795849972434264
 40
0.3115366971568024
 40
0.342065842398503
 40
0.3741806229281884
 40
0.4042236615700359
 40
0.4366895471049068
 40
0.4656886093040559
 40
0.4995667969767567
 40
0.544658343790209
 40
0.586364332360208
 40
0.6257996115078789
 40
0.6689689252598544
 40
0.7105266406051137
 40
0.751682922500192
 40
0.8140650955845435
 40
0.8763571391203167
 40
0.9385144890991489
 40
1.0
 40
1.0
 40
1.0
 40
1.0
 10
391.4525681143195
 20
680.1170101782584
 30
0.0
 10
391.4539351735178
 20
680.1189646004333
 30
0.0
 10
391.518709727377
 20
680.2115698252817
 30
0.0
 10
391.287308197812
 20
679.8813629884103
 30
0.0
 10
390.7331564176853
 20
679.0860114753922
 30
0.0
 10
389.7763707399213
 20
677.6946141870114
 30
0.0
 10
388.730635005191
 20
676.141707623647
 30
0.0
 10
387.7511413163985
 20
674.654952216092
 30
0.0
 10
386.9578979006101
 20
673.4304560647128
 30
0.0
 10
386.0993614985092
 20
672.0809219134148
 30
0.0
 10
385.2129240343148
 20
670.6568940246653
 30
0.0
 10
384.2685143032044
 20
669.1046630876242
 30
0.0
 10
383.3251145680517
 20
667.5109448549043
 30
0.0
 10
382.3172395279133
 20
665.7596721042352
 30
0.0
 10
381.1576119441296
 20
663.6738006047755
 30
0.0
 10
379.8462976964573
 20
661.2034211850374
 30
0.0
 10
378.4804026811664
 20
658.4653901169104
 30
0.0
 10
377.1577407388689
 20
655.6320315944674
 30
0.0
 10
375.8807068559882
 20
652.6655830361213
 30
0.0
 10
374.6532397318167
 20
649.5211130099225
 30
0.0
 10
373.3424151544025
 20
645.7486283972135
 30
0.0
 10
372.0291919142103
 20
641.2331829543047
 30
0.0
 10
370.8990453234965
 20
635.9074918229459
 30
0.0
 10
370.1550810586724
 20
630.4268217886007
 30
0.0
 10
370.0609990618575
 20
626.7174773034674
 30
0.0
 10
370.0142136704522
 20
624.8728828064376
 30
0.0
  0
LINE
  5
218
330
1F
100
AcDbEntity
  8
0
  6
Continuous
 62
     7
370
    15
100
AcDbLine
 10
392.6528282999
 20
732.8728828064
 30
0.0
 11
392.6528282999
 21
727.8728828064
 31
0.0
  0
LINE
  5
219
330
1F
100
AcDbEntity
  8
0
  6
Continuous
 62
     7
370
    15
100
AcDbLine
 10
397.8489807226
 20
732.8728828064
 30
0.0
 11
397.8489807226
 21
727.8728828064
 31
0.0
  0
LINE
  5
21A
330
1F
100
AcDbEntity
  8
0
  6
Continuous
 62
     7
370
    15
100
AcDbLine
 10
392.6528282999
 20
732.8728828064
 30
0.0
 11
397.8489807226
 21
732.8728828064
 31
0.0
  0
LINE
  5
21B
330
1F
100
AcDbEntity
  8
0
  6
Continuous
 62
     7
370
    15
100
AcDbLine
 10
382.2605234545
 20
732.8728828064
 30
0.0
 11
382.2605234545
 21
727.8728828064
 31
0.0
  0
LINE
  5
21C
330
1F
100
AcDbEntity
  8
0
  6
Continuous
 62
     7
370
    15
100
AcDbLine
 10
382.2605234545
 20
732.8728828064
 30
0.0
 11
392.6528282999
 21
732.8728828064
 31
0.0
  0
LINE
  5
21D
330
1F
100
AcDbEntity
  8
0
  6
Continuous
 62
     7
370
    15
100
AcDbLine
 10
377.0643710318
 20
732.8728828064
 30
0.0
 11
377.0643710318
 21
727.8728828064
 31
0.0
  0
LINE
  5
21E
330
1F
100
AcDbEntity
  8
0
  6
Continuous
 62
     7
370
    15
100
AcDbLine
 10
377.0643710318
 20
732.8728828064
 30
0.0
 11
382.2605234545
 21
732.8728828064
 31
0.0
  0
LINE
  5
21F
330
1F
100
AcDbEntity
  8
0
  6
Continuous
 62
     7
370
    15
100
AcDbLine
 10
165.0643710318
 20
732.8728828064
 30
0.0
 11
165.0643710318
 21
727.8728828064
 31
0.0
  0
LINE
  5
220
330
1F
100
AcDbEntity
  8
0
  6
Continuous
 62
     7
370
    15
100
AcDbLine
 10
170.2605234545
 20
732.8728828064
 30
0.0
 11
170.2605234545
 21
727.8728828064
 31
0.0
  0
LINE
  5
221
330
1F
100
AcDbEntity
  8
0
  6
Continuous
 62
     7
370
    15
100
AcDbLine
 10
165.0643710318
 20
732.8728828064
 30
0.0
 11
170.2605234545
 21
732.8728828064
 31
0.0
  0
LINE
  5
222
330
1F
100
AcDbEntity
  8
0
  6
Continuous
 62
     7
370
    15
100
AcDbLine
 10
180.6528282999
 20
732.8728828064
 30
0.0
 11
180.6528282999
 21
727.8728828064
 31
0.0
  0
LINE
  5
223
330
1F
100
AcDbEntity
  8
0
  6
Continuous
 62
     7
370
    15
100
AcDbLine
 10
170.2605234545
 20
732.8728828064
 30
0.0
 11
180.6528282999
 21
732.8728828064
 31
0.0
  0
LINE
  5
224
330
1F
100
AcDbEntity
  8
0
  6
Continuous
 62
     7
370
    15
100
AcDbLine
 10
185.8489807226
 20
732.8728828064
 30
0.0
 11
185.8489807226
 21
727.8728828064
 31
0.0
  0
LINE
  5
225
330
1F
100
AcDbEntity
  8
0
  6
Continuous
 62
     7
370
    15
100
AcDbLine
 10
180.6528282999
 20
732.8728828064
 30
0.0
 11
185.8489807226
 21
732.8728828064
 31
0.0
  0
LINE
  5
226
330
1F
100
AcDbEntity
  8
0
  6
Continuous
 62
     8
370
    15
100
AcDbLine
 10
151.4566758772
 20
624.8728828064
 30
0.0
 11
151.4566758772
 21
569.6228828064
 31
0.0
  0
LINE
  5
227
330
1F
100
AcDbEntity
  8
0
  6
Continuous
 62
     8
370
    15
100
AcDbLine
 10
151.4566758772
 20
680.1228828064
 30
0.0
 11
151.4566758772
 21
624.8728828064
 31
0.0
  0
LINE
  5
228
330
1F
100
AcDbEntity
  8
0
  6
Continuous
 62
     8
370
    15
100
AcDbLine
 10
411.4566758772
 20
569.6228828064
 30
0.0
 11
411.4566758772
 21
680.1228828064
 31
0.0
  0
LINE
  5
229
330
1F
100
AcDbEntity
  8
0
  6
Continuous
 62
     7
370
    15
100
AcDbLine
 10
944.381939675
 20
725.8728828064
 30
0.0
 11
942.381939675
 21
727.8728828064
 31
0.0
  0
LINE
  5
22A
330
1F
100
AcDbEntity
  8
0
  6
Continuous
 62
     7
370
    15
100
AcDbLine
 10
706.381939675
 20
727.8728828064
 30
0.0
 11
704.381939675
 21
725.8728828064
 31
0.0
  0
LINE
  5
22B
330
1F
100
AcDbEntity
  8
0
  6
Continuous
 62
     7
370
    15
100
AcDbLine
 10
944.381939675
 20
715.8728828064
 30
0.0
 11
943.381939675
 21
716.8728828064
 31
0.0
  0
LINE
  5
22C
330
1F
100
AcDbEntity
  8
0
  6
Continuous
 62
     7
370
    15
100
AcDbLine
 10
705.381939675
 20
716.8728828064
 30
0.0
 11
704.381939675
 21
715.8728828064
 31
0.0
  0
LINE
  5
22D
330
1F
100
AcDbEntity
  8
0
  6
Continuous
 62
     7
370
    15
100
AcDbLine
 10
704.381939675
 20
717.8728828064
 30
0.0
 11
705.381939675
 21
716.8728828064
 31
0.0
  0
LINE
  5
22E
330
1F
100
AcDbEntity
  8
0
  6
Continuous
 62
     7
370
    15
100
AcDbLine
 10
943.381939675
 20
716.8728828064
 30
0.0
 11
944.381939675
 21
717.8728828064
 31
0.0
  0
LINE
  5
22F
330
1F
100
AcDbEntity
  8
0
  6
Continuous
 62
     7
370
    15
100
AcDbLine
 10
944.381939675
 20
717.8728828064
 30
0.0
 11
944.381939675
 21
725.8728828064
 31
0.0
  0
LINE
  5
230
330
1F
100
AcDbEntity
  8
0
  6
Continuous
 62
     7
370
    15
100
AcDbLine
 10
704.381939675
 20
725.8728828064
 30
0.0
 11
704.381939675
 21
717.8728828064
 31
0.0
  0
LINE
  5
231
330
1F
100
AcDbEntity
  8
0
  6
Continuous
 62
     7
370
    15
100
AcDbLine
 10
944.381939675
 20
707.8728828064
 30
0.0
 11
944.381939675
 21
715.8728828064
 31
0.0
  0
LINE
  5
232
330
1F
100
AcDbEntity
  8
0
  6
Continuous
 62
     7
370
    15
100
AcDbLine
 10
704.381939675
 20
715.8728828064
 30
0.0
 11
704.381939675
 21
707.8728828064
 31
0.0
  0
LINE
  5
233
330
1F
100
AcDbEntity
  8
0
  6
Continuous
 62
     7
370
    15
100
AcDbLine
 10
704.381939675
 20
707.8728828064
 30
0.0
 11
706.381939675
 21
705.8728828064
 31
0.0
  0
LINE
  5
234
330
1F
100
AcDbEntity
  8
0
  6
Continuous
 62
     7
370
    15
100
AcDbLine
 10
942.381939675
 20
705.8728828064
 30
0.0
 11
944.381939675
 21
707.8728828064
 31
0.0
  0
LINE
  5
235
330
1F
100
AcDbEntity
  8
0
  6
Continuous
 62
     7
370
    15
100
AcDbLine
 10
719.381939675
 20
705.8728828064
 30
0.0
 11
724.381939675
 21
700.8728828064
 31
0.0
  0
LINE
  5
236
330
1F
100
AcDbEntity
  8
0
  6
Continuous
 62
     7
370
    15
100
AcDbLine
 10
924.381939675
 20
700.8728828064
 30
0.0
 11
929.381939675
 21
705.8728828064
 31
0.0
  0
LINE
  5
237
330
1F
100
AcDbEntity
  8
0
  6
Continuous
 62
     7
370
    15
100
AcDbLine
 10
924.381939675
 20
535.8728828064
 30
0.0
 11
924.381939675
 21
700.8728828064
 31
0.0
  0
LINE
  5
238
330
1F
100
AcDbEntity
  8
0
  6
Continuous
 62
     7
370
    15
100
AcDbLine
 10
724.381939675
 20
700.8728828064
 30
0.0
 11
724.381939675
 21
535.8728828064
 31
0.0
  0
LINE
  5
239
330
1F
100
AcDbEntity
  8
0
  6
Continuous
 62
     7
370
    15
100
AcDbLine
 10
724.381939675
 20
535.8728828064
 30
0.0
 11
729.381939675
 21
530.8728828064
 31
0.0
  0
LINE
  5
23A
330
1F
100
AcDbEntity
  8
0
  6
Continuous
 62
     7
370
    15
100
AcDbLine
 10
919.381939675
 20
530.8728828064
 30
0.0
 11
924.381939675
 21
535.8728828064
 31
0.0
  0
LINE
  5
23B
330
1F
100
AcDbEntity
  8
0
  6
Continuous
 62
     7
370
    15
100
AcDbLine
 10
729.381939675
 20
728.8728828064
 30
0.0
 11
729.381939675
 21
727.8728828064
 31
0.0
  0
LINE
  5
23C
330
1F
100
AcDbEntity
  8
0
  6
Continuous
 62
     7
370
    15
100
AcDbLine
 10
919.381939675
 20
727.8728828064
 30
0.0
 11
919.381939675
 21
728.8728828064
 31
0.0
  0
LINE
  5
23D
330
1F
100
AcDbEntity
  8
0
  6
Continuous
 62
     7
370
    15
100
AcDbLine
 10
919.381939675
 20
728.8728828064
 30
0.0
 11
917.381939675
 21
730.8728828064
 31
0.0
  0
LINE
  5
23E
330
1F
100
AcDbEntity
  8
0
  6
Continuous
 62
     7
370
    15
100
AcDbLine
 10
731.381939675
 20
730.8728828064
 30
0.0
 11
729.381939675
 21
728.8728828064
 31
0.0
  0
CIRCLE
  5
23F
330
1F
100
AcDbEntity
  8
0
  6
Continuous
 62
     7
370
    15
100
AcDbCircle
 10
824.381939675
 20
624.8728828064
 30
0.0
 40
64.99999999999989
  0
CIRCLE
  5
240
330
1F
100
AcDbEntity
  8
0
  6
Continuous
 62
     7
370
    15
100
AcDbCircle
 10
824.381939675
 20
624.8728828064
 30
0.0
 40
47.25000000000011
  0
CIRCLE
  5
241
330
1F
100
AcDbEntity
  8
0
  6
Continuous
 62
     7
370
    15
100
AcDbCircle
 10
824.381939675
 20
624.8728828064
 30
0.0
 40
45.25000000000011
  0
CIRCLE
  5
242
330
1F
100
AcDbEntity
  8
0
  6
Continuous
 62
     7
370
    15
100
AcDbCircle
 10
750.4715770741
 20
594.2582082172
 30
0.0
 40
9.0
  0
CIRCLE
  5
243
330
1F
100
AcDbEntity
  8
0
  6
Continuous
 62
     7
370
    15
100
AcDbCircle
 10
898.2923022759
 20
594.2582082172
 30
0.0
 40
9.0
  0
CIRCLE
  5
244
330
1F
100
AcDbEntity
  8
0
  6
Continuous
 62
     7
370
    15
100
AcDbCircle
 10
898.2923022759
 20
655.4875573956
 30
0.0
 40
9.0
  0
CIRCLE
  5
245
330
1F
100
AcDbEntity
  8
0
  6
Continuous
 62
     7
370
    15
100
AcDbCircle
 10
750.4715770741
 20
655.4875573956
 30
0.0
 40
8.999999999999886
  0
CIRCLE
  5
246
330
1F
100
AcDbEntity
  8
0
  6
Continuous
 62
     7
370
    15
100
AcDbCircle
 10
854.9966142642
 20
698.7832454073
 30
0.0
 40
9.0
  0
CIRCLE
  5
247
330
1F
100
AcDbEntity
  8
0
  6
Continuous
 62
     7
370
    15
100
AcDbCircle
 10
854.9966142642
 20
550.9625202055
 30
0.0
 40
9.0
  0
CIRCLE
  5
248
330
1F
100
AcDbEntity
  8
0
  6
Continuous
 62
     7
370
    15
100
AcDbCircle
 10
793.7672650858
 20
550.9625202055
 30
0.0
 40
8.999999999999886
  0
CIRCLE
  5
249
330
1F
100
AcDbEntity
  8
0
  6
Continuous
 62
     7
370
    15
100
AcDbCircle
 10
793.7672650858
 20
698.7832454073
 30
0.0
 40
9.0
  0
CIRCLE
  5
24A
330
1F
100
AcDbEntity
  8
0
  6
Continuous
 62
     7
370
    15
100
AcDbCircle
 10
824.381939675
 20
624.8728828064
 30
0.0
 40
99.99999999999989
  0
LINE
  5
24B
330
1F
100
AcDbEntity
  8
0
  6
Continuous
 62
     7
370
    15
100
AcDbLine
 10
706.381939675
 20
727.8728828064
 30
0.0
 11
942.381939675
 21
727.8728828064
 31
0.0
  0
LINE
  5
24C
330
1F
100
AcDbEntity
  8
0
  6
Continuous
 62
     7
370
    15
100
AcDbLine
 10
944.381939675
 20
725.8728828064
 30
0.0
 11
704.381939675
 21
725.8728828064
 31
0.0
  0
LINE
  5
24D
330
1F
100
AcDbEntity
  8
0
  6
Continuous
 62
     7
370
    15
100
AcDbLine
 10
704.381939675
 20
715.8728828064
 30
0.0
 11
782.9211147918
 21
715.8728828064
 31
0.0
  0
LINE
  5
24E
330
1F
100
AcDbEntity
  8
0
  6
Continuous
 62
     7
370
    15
100
AcDbLine
 10
865.8427645583
 20
715.8728828064
 30
0.0
 11
944.381939675
 21
715.8728828064
 31
0.0
  0
LINE
  5
24F
330
1F
100
AcDbEntity
  8
0
  6
Continuous
 62
     7
370
    15
100
AcDbLine
 10
705.381939675
 20
716.8728828064
 30
0.0
 11
785.1901037905
 21
716.8728828064
 31
0.0
  0
LINE
  5
250
330
1F
100
AcDbEntity
  8
0
  6
Continuous
 62
     7
370
    15
100
AcDbLine
 10
863.5737755595
 20
716.8728828064
 30
0.0
 11
943.381939675
 21
716.8728828064
 31
0.0
  0
LINE
  5
251
330
1F
100
AcDbEntity
  8
0
  6
Continuous
 62
     7
370
    15
100
AcDbLine
 10
704.381939675
 20
717.8728828064
 30
0.0
 11
787.625987776
 21
717.8728828064
 31
0.0
  0
LINE
  5
252
330
1F
100
AcDbEntity
  8
0
  6
Continuous
 62
     7
370
    15
100
AcDbLine
 10
861.137891574
 20
717.8728828064
 30
0.0
 11
944.381939675
 21
717.8728828064
 31
0.0
  0
LINE
  5
253
330
1F
100
AcDbEntity
  8
0
  6
Continuous
 62
     7
370
    15
100
AcDbLine
 10
704.381939675
 20
707.8728828064
 30
0.0
 11
768.6056006055
 21
707.8728828064
 31
0.0
  0
LINE
  5
254
330
1F
100
AcDbEntity
  8
0
  6
Continuous
 62
     7
370
    15
100
AcDbLine
 10
880.1582787446
 20
707.8728828064
 30
0.0
 11
944.381939675
 21
707.8728828064
 31
0.0
  0
LINE
  5
255
330
1F
100
AcDbEntity
  8
0
  6
Continuous
 62
     7
370
    15
100
AcDbLine
 10
942.381939675
 20
705.8728828064
 30
0.0
 11
883.0249273206
 21
705.8728828064
 31
0.0
  0
LINE
  5
256
330
1F
100
AcDbEntity
  8
0
  6
Continuous
 62
     7
370
    15
100
AcDbLine
 10
860.5407139702
 20
705.8728828064
 30
0.0
 11
849.4525145583
 21
705.8728828064
 31
0.0
  0
LINE
  5
257
330
1F
100
AcDbEntity
  8
0
  6
Continuous
 62
     7
370
    15
100
AcDbLine
 10
799.3113647917
 20
705.8728828064
 30
0.0
 11
788.2231653799
 21
705.8728828064
 31
0.0
  0
LINE
  5
258
330
1F
100
AcDbEntity
  8
0
  6
Continuous
 62
     7
370
    15
100
AcDbLine
 10
765.7389520294
 20
705.8728828064
 30
0.0
 11
706.381939675
 21
705.8728828064
 31
0.0
  0
LINE
  5
259
330
1F
100
AcDbEntity
  8
0
  6
Continuous
 62
     7
370
    15
100
AcDbLine
 10
815.381939675
 20
732.8728828064
 30
0.0
 11
815.381939675
 21
727.8728828064
 31
0.0
  0
LINE
  5
25A
330
1F
100
AcDbEntity
  8
0
  6
Continuous
 62
     7
370
    15
100
AcDbLine
 10
824.381939675
 20
732.8728828064
 30
0.0
 11
824.381939675
 21
727.8728828064
 31
0.0
  0
LINE
  5
25B
330
1F
100
AcDbEntity
  8
0
  6
Continuous
 62
     7
370
    15
100
AcDbLine
 10
815.381939675
 20
732.8728828064
 30
0.0
 11
824.381939675
 21
732.8728828064
 31
0.0
  0
LINE
  5
25C
330
1F
100
AcDbEntity
  8
0
  6
Continuous
 62
     7
370
    15
100
AcDbLine
 10
833.381939675
 20
732.8728828064
 30
0.0
 11
833.381939675
 21
727.8728828064
 31
0.0
  0
LINE
  5
25D
330
1F
100
AcDbEntity
  8
0
  6
Continuous
 62
     7
370
    15
100
AcDbLine
 10
824.381939675
 20
732.8728828064
 30
0.0
 11
833.381939675
 21
732.8728828064
 31
0.0
  0
LINE
  5
25E
330
1F
100
AcDbEntity
  8
0
  6
Continuous
 62
     7
370
    15
100
AcDbLine
 10
924.381939675
 20
700.8728828064
 30
0.0
 11
889.3742469121
 21
700.8728828064
 31
0.0
  0
LINE
  5
25F
330
1F
100
AcDbEntity
  8
0
  6
Continuous
 62
     7
370
    15
100
AcDbLine
 10
863.7506656429
 20
700.8728828064
 30
0.0
 11
846.2425628856
 21
700.8728828064
 31
0.0
  0
LINE
  5
260
330
1F
100
AcDbEntity
  8
0
  6
Continuous
 62
     7
370
    15
100
AcDbLine
 10
802.5213164645
 20
700.8728828064
 30
0.0
 11
785.0132137071
 21
700.8728828064
 31
0.0
  0
LINE
  5
261
330
1F
100
AcDbEntity
  8
0
  6
Continuous
 62
     7
370
    15
100
AcDbLine
 10
759.3896324379
 20
700.8728828064
 30
0.0
 11
724.381939675
 21
700.8728828064
 31
0.0
  0
LINE
  5
262
330
1F
100
AcDbEntity
  8
0
  6
Continuous
 62
     7
370
    15
100
AcDbLine
 10
724.381939675
 20
535.8728828064
 30
0.0
 11
778.7858872143
 21
535.8728828064
 31
0.0
  0
LINE
  5
263
330
1F
100
AcDbEntity
  8
0
  6
Continuous
 62
     7
370
    15
100
AcDbLine
 10
869.9779921357
 20
535.8728828064
 30
0.0
 11
924.381939675
 21
535.8728828064
 31
0.0
  0
LINE
  5
264
330
1F
100
AcDbEntity
  8
0
  6
Continuous
 62
     7
370
    15
100
AcDbLine
 10
919.381939675
 20
530.8728828064
 30
0.0
 11
858.4993838935
 21
530.8728828064
 31
0.0
  0
LINE
  5
265
330
1F
100
AcDbEntity
  8
0
  6
Continuous
 62
     7
370
    15
100
AcDbLine
 10
790.2644954565
 20
530.8728828064
 30
0.0
 11
729.381939675
 21
530.8728828064
 31
0.0
  0
LINE
  5
266
330
1F
100
AcDbEntity
  8
0
  6
Continuous
 62
     7
370
    15
100
AcDbLine
 10
919.381939675
 20
728.8728828064
 30
0.0
 11
909.3734541256
 21
728.8728828064
 31
0.0
  0
LINE
  5
267
330
1F
100
AcDbEntity
  8
0
  6
Continuous
 62
     7
370
    15
100
AcDbLine
 10
889.2970628359
 20
728.8728828064
 30
0.0
 11
833.381939675
 21
728.8728828064
 31
0.0
  0
LINE
  5
268
330
1F
100
AcDbEntity
  8
0
  6
Continuous
 62
     7
370
    15
100
AcDbLine
 10
815.381939675
 20
728.8728828064
 30
0.0
 11
759.4668165141
 21
728.8728828064
 31
0.0
  0
LINE
  5
269
330
1F
100
AcDbEntity
  8
0
  6
Continuous
 62
     7
370
    15
100
AcDbLine
 10
739.3904252244
 20
728.8728828064
 30
0.0
 11
729.381939675
 21
728.8728828064
 31
0.0
  0
LINE
  5
26A
330
1F
100
AcDbEntity
  8
0
  6
Continuous
 62
     7
370
    15
100
AcDbLine
 10
731.381939675
 20
730.8728828064
 30
0.0
 11
739.3904252244
 21
730.8728828064
 31
0.0
  0
LINE
  5
26B
330
1F
100
AcDbEntity
  8
0
  6
Continuous
 62
     7
370
    15
100
AcDbLine
 10
759.4668165141
 20
730.8728828064
 30
0.0
 11
815.381939675
 21
730.8728828064
 31
0.0
  0
LINE
  5
26C
330
1F
100
AcDbEntity
  8
0
  6
Continuous
 62
     7
370
    15
100
AcDbLine
 10
833.381939675
 20
730.8728828064
 30
0.0
 11
889.2970628359
 21
730.8728828064
 31
0.0
  0
LINE
  5
26D
330
1F
100
AcDbEntity
  8
0
  6
Continuous
 62
     7
370
    15
100
AcDbLine
 10
909.3734541256
 20
730.8728828064
 30
0.0
 11
917.381939675
 21
730.8728828064
 31
0.0
  0
LINE
  5
26E
330
1F
100
AcDbEntity
  8
0
  6
Continuous
 62
     7
370
    15
100
AcDbLine
 10
889.2970628359
 20
732.8728828064
 30
0.0
 11
889.2970628359
 21
727.8728828064
 31
0.0
  0
LINE
  5
26F
330
1F
100
AcDbEntity
  8
0
  6
Continuous
 62
     7
370
    15
100
AcDbLine
 10
896.6455320643
 20
732.8728828064
 30
0.0
 11
896.6455320643
 21
727.8728828064
 31
0.0
  0
LINE
  5
270
330
1F
100
AcDbEntity
  8
0
  6
Continuous
 62
     7
370
    15
100
AcDbLine
 10
889.2970628359
 20
732.8728828064
 30
0.0
 11
896.6455320643
 21
732.8728828064
 31
0.0
  0
LINE
  5
271
330
1F
100
AcDbEntity
  8
0
  6
Continuous
 62
     7
370
    15
100
AcDbLine
 10
906.6837277091
 20
732.8728828064
 30
0.0
 11
906.6837277091
 21
727.8728828064
 31
0.0
  0
LINE
  5
272
330
1F
100
AcDbEntity
  8
0
  6
Continuous
 62
     7
370
    15
100
AcDbLine
 10
896.6455320643
 20
732.8728828064
 30
0.0
 11
906.6837277091
 21
732.8728828064
 31
0.0
  0
LINE
  5
273
330
1F
100
AcDbEntity
  8
0
  6
Continuous
 62
     7
370
    15
100
AcDbLine
 10
742.0801516409
 20
732.8728828064
 30
0.0
 11
742.0801516409
 21
727.8728828064
 31
0.0
  0
LINE
  5
274
330
1F
100
AcDbEntity
  8
0
  6
Continuous
 62
     7
370
    15
100
AcDbLine
 10
742.0801516409
 20
732.8728828064
 30
0.0
 11
752.1183472857
 21
732.8728828064
 31
0.0
  0
LINE
  5
275
330
1F
100
AcDbEntity
  8
0
  6
Continuous
 62
     7
370
    15
100
AcDbLine
 10
752.1183472857
 20
732.8728828064
 30
0.0
 11
752.1183472857
 21
727.8728828064
 31
0.0
  0
LINE
  5
276
330
1F
100
AcDbEntity
  8
0
  6
Continuous
 62
     7
370
    15
100
AcDbLine
 10
759.4668165141
 20
732.8728828064
 30
0.0
 11
759.4668165141
 21
727.8728828064
 31
0.0
  0
LINE
  5
277
330
1F
100
AcDbEntity
  8
0
  6
Continuous
 62
     7
370
    15
100
AcDbLine
 10
752.1183472857
 20
732.8728828064
 30
0.0
 11
759.4668165141
 21
732.8728828064
 31
0.0
  0
LINE
  5
278
330
1F
100
AcDbEntity
  8
0
  6
Continuous
 62
     7
370
    15
100
AcDbLine
 10
909.3734541256
 20
732.8728828064
 30
0.0
 11
909.3734541256
 21
727.8728828064
 31
0.0
  0
LINE
  5
279
330
1F
100
AcDbEntity
  8
0
  6
Continuous
 62
     7
370
    15
100
AcDbLine
 10
906.6837277091
 20
732.8728828064
 30
0.0
 11
909.3734541256
 21
732.8728828064
 31
0.0
  0
LINE
  5
27A
330
1F
100
AcDbEntity
  8
0
  6
Continuous
 62
     7
370
    15
100
AcDbLine
 10
739.3904252244
 20
732.8728828064
 30
0.0
 11
739.3904252244
 21
727.8728828064
 31
0.0
  0
LINE
  5
27B
330
1F
100
AcDbEntity
  8
0
  6
Continuous
 62
     7
370
    15
100
AcDbLine
 10
739.3904252244
 20
732.8728828064
 30
0.0
 11
742.0801516409
 21
732.8728828064
 31
0.0
  0
LINE
  5
27C
330
1F
100
AcDbEntity
  8
0
  6
Continuous
 62
     7
370
    15
100
AcDbLine
 10
925.1857872523
 20
732.8728828064
 30
0.0
 11
925.1857872523
 21
727.8728828064
 31
0.0
  0
LINE
  5
27D
330
1F
100
AcDbEntity
  8
0
  6
Continuous
 62
     7
370
    15
100
AcDbLine
 10
935.5780920977
 20
732.8728828064
 30
0.0
 11
935.5780920977
 21
727.8728828064
 31
0.0
  0
LINE
  5
27E
330
1F
100
AcDbEntity
  8
0
  6
Continuous
 62
     7
370
    15
100
AcDbLine
 10
925.1857872523
 20
732.8728828064
 30
0.0
 11
935.5780920977
 21
732.8728828064
 31
0.0
  0
LINE
  5
27F
330
1F
100
AcDbEntity
  8
0
  6
Continuous
 62
     7
370
    15
100
AcDbLine
 10
940.7742445204
 20
732.8728828064
 30
0.0
 11
940.7742445204
 21
727.8728828064
 31
0.0
  0
LINE
  5
280
330
1F
100
AcDbEntity
  8
0
  6
Continuous
 62
     7
370
    15
100
AcDbLine
 10
935.5780920977
 20
732.8728828064
 30
0.0
 11
940.7742445204
 21
732.8728828064
 31
0.0
  0
LINE
  5
281
330
1F
100
AcDbEntity
  8
0
  6
Continuous
 62
     7
370
    15
100
AcDbLine
 10
919.9896348296
 20
732.8728828064
 30
0.0
 11
919.9896348296
 21
727.8728828064
 31
0.0
  0
LINE
  5
282
330
1F
100
AcDbEntity
  8
0
  6
Continuous
 62
     7
370
    15
100
AcDbLine
 10
919.9896348296
 20
732.8728828064
 30
0.0
 11
925.1857872523
 21
732.8728828064
 31
0.0
  0
LINE
  5
283
330
1F
100
AcDbEntity
  8
0
  6
Continuous
 62
     7
370
    15
100
AcDbLine
 10
713.1857872523
 20
732.8728828064
 30
0.0
 11
713.1857872523
 21
727.8728828064
 31
0.0
  0
LINE
  5
284
330
1F
100
AcDbEntity
  8
0
  6
Continuous
 62
     7
370
    15
100
AcDbLine
 10
723.5780920977
 20
732.8728828064
 30
0.0
 11
723.5780920977
 21
727.8728828064
 31
0.0
  0
LINE
  5
285
330
1F
100
AcDbEntity
  8
0
  6
Continuous
 62
     7
370
    15
100
AcDbLine
 10
713.1857872523
 20
732.8728828064
 30
0.0
 11
723.5780920977
 21
732.8728828064
 31
0.0
  0
LINE
  5
286
330
1F
100
AcDbEntity
  8
0
  6
Continuous
 62
     7
370
    15
100
AcDbLine
 10
707.9896348296
 20
732.8728828064
 30
0.0
 11
707.9896348296
 21
727.8728828064
 31
0.0
  0
LINE
  5
287
330
1F
100
AcDbEntity
  8
0
  6
Continuous
 62
     7
370
    15
100
AcDbLine
 10
707.9896348296
 20
732.8728828064
 30
0.0
 11
713.1857872523
 21
732.8728828064
 31
0.0
  0
LINE
  5
288
330
1F
100
AcDbEntity
  8
0
  6
Continuous
 62
     7
370
    15
100
AcDbLine
 10
728.7742445204
 20
732.8728828064
 30
0.0
 11
728.7742445204
 21
727.8728828064
 31
0.0
  0
LINE
  5
289
330
1F
100
AcDbEntity
  8
0
  6
Continuous
 62
     7
370
    15
100
AcDbLine
 10
723.5780920977
 20
732.8728828064
 30
0.0
 11
728.7742445204
 21
732.8728828064
 31
0.0
  0
LINE
  5
28A
330
1F
100
AcDbEntity
  8
0
  6
Continuous
 62
     7
370
    15
100
AcDbLine
 10
136.4566758772
 20
151.7367439794
 30
0.0
 11
141.4566758772
 21
156.7367439794
 31
0.0
  0
LINE
  5
28B
330
1F
100
AcDbEntity
  8
0
  6
Continuous
 62
     7
370
    15
100
AcDbLine
 10
141.4566758772
 20
346.7367439794
 30
0.0
 11
136.4566758772
 21
351.7367439794
 31
0.0
  0
LINE
  5
28C
330
1F
100
AcDbEntity
  8
0
  6
Continuous
 62
     7
370
    15
100
AcDbLine
 10
426.4566758772
 20
351.7367439794
 30
0.0
 11
421.4566758772
 21
346.7367439794
 31
0.0
  0
LINE
  5
28D
330
1F
100
AcDbEntity
  8
0
  6
Continuous
 62
     7
370
    15
100
AcDbLine
 10
421.4566758772
 20
156.7367439794
 30
0.0
 11
426.4566758772
 21
151.7367439794
 31
0.0
  0
LINE
  5
28E
330
1F
100
AcDbEntity
  8
0
  6
Continuous
 62
     7
370
    15
100
AcDbLine
 10
439.4566758772
 20
351.7367439794
 30
0.0
 11
426.4566758772
 21
351.7367439794
 31
0.0
  0
LINE
  5
28F
330
1F
100
AcDbEntity
  8
0
  6
Continuous
 62
     7
370
    15
100
AcDbLine
 10
426.4566758772
 20
151.7367439794
 30
0.0
 11
439.4566758772
 21
151.7367439794
 31
0.0
  0
LINE
  5
290
330
1F
100
AcDbEntity
  8
0
  6
Continuous
 62
     7
370
    15
100
AcDbLine
 10
123.4566758772
 20
151.7367439794
 30
0.0
 11
136.4566758772
 21
151.7367439794
 31
0.0
  0
LINE
  5
291
330
1F
100
AcDbEntity
  8
0
  6
Continuous
 62
     7
370
    15
100
AcDbLine
 10
136.4566758772
 20
351.7367439794
 30
0.0
 11
123.4566758772
 21
351.7367439794
 31
0.0
  0
ARC
  5
292
330
1F
100
AcDbEntity
  8
0
  6
Continuous
 62
     7
370
    15
100
AcDbCircle
 10
411.4566758772
 20
316.9867439794
 30
0.0
 40
10.0
100
AcDbArc
 50
270.0
 51
0.0
  0
ARC
  5
293
330
1F
100
AcDbEntity
  8
0
  6
Continuous
 62
     7
370
    15
100
AcDbCircle
 10
411.4566758772
 20
186.4867439794
 30
0.0
 40
10.0
100
AcDbArc
 50
0.0
 51
90.0
  0
ARC
  5
294
330
1F
100
AcDbEntity
  8
0
  6
Continuous
 62
     7
370
    15
100
AcDbCircle
 10
151.4566758772
 20
186.4867439794
 30
0.0
 40
10.0
100
AcDbArc
 50
90.0
 51
180.0
  0
ARC
  5
295
330
1F
100
AcDbEntity
  8
0
  6
Continuous
 62
     7
370
    15
100
AcDbCircle
 10
151.4566758772
 20
316.9867439794
 30
0.0
 40
10.0
100
AcDbArc
 50
180.0
 51
270.0
  0
LINE
  5
296
330
1F
100
AcDbEntity
  8
0
  6
Continuous
 62
     7
370
    15
100
AcDbLine
 10
441.4566758772
 20
316.7367439794
 30
0.0
 11
439.4566758772
 21
316.7367439794
 31
0.0
  0
LINE
  5
297
330
1F
100
AcDbEntity
  8
0
  6
Continuous
 62
     7
370
    15
100
AcDbLine
 10
439.4566758772
 20
186.7367439794
 30
0.0
 11
441.4566758772
 21
186.7367439794
 31
0.0
  0
LINE
  5
298
330
1F
100
AcDbEntity
  8
0
  6
Continuous
 62
     7
370
    15
100
AcDbLine
 10
121.4566758772
 20
186.7367439794
 30
0.0
 11
123.4566758772
 21
186.7367439794
 31
0.0
  0
LINE
  5
299
330
1F
100
AcDbEntity
  8
0
  6
Continuous
 62
     7
370
    15
100
AcDbLine
 10
123.4566758772
 20
316.7367439794
 30
0.0
 11
121.4566758772
 21
316.7367439794
 31
0.0
  0
LINE
  5
29A
330
1F
100
AcDbEntity
  8
0
  6
Continuous
 62
     7
370
    15
100
AcDbLine
 10
387.9810275533
 20
196.4867439794
 30
0.0
 11
411.4566758772
 21
196.4867439794
 31
0.0
  0
LINE
  5
29B
330
1F
100
AcDbEntity
  8
0
  6
Continuous
 62
     7
370
    15
100
AcDbLine
 10
411.4566758772
 20
306.9867439794
 30
0.0
 11
387.9810275533
 21
306.9867439794
 31
0.0
  0
LINE
  5
29C
330
1F
100
AcDbEntity
  8
0
  6
Continuous
 62
     7
370
    15
100
AcDbLine
 10
151.4566758772
 20
196.4867439794
 30
0.0
 11
174.9323242012
 21
196.4867439794
 31
0.0
  0
LINE
  5
29D
330
1F
100
AcDbEntity
  8
0
  6
Continuous
 62
     7
370
    15
100
AcDbLine
 10
174.9323242012
 20
306.9867439794
 30
0.0
 11
151.4566758772
 21
306.9867439794
 31
0.0
  0
LINE
  5
29E
330
1F
100
AcDbEntity
  8
0
  6
Continuous
 62
     7
370
    15
100
AcDbLine
 10
290.4566758772
 20
352.5405915567
 30
0.0
 11
290.4566758772
 21
362.9328964021
 31
0.0
  0
LINE
  5
29F
330
1F
100
AcDbEntity
  8
0
  6
Continuous
 62
     7
370
    15
100
AcDbLine
 10
281.4566758772
 20
347.344439134
 30
0.0
 11
290.4566758772
 21
352.5405915567
 31
0.0
  0
LINE
  5
2A0
330
1F
100
AcDbEntity
  8
0
  6
Continuous
 62
     7
370
    15
100
AcDbLine
 10
272.4566758772
 20
352.5405915567
 30
0.0
 11
281.4566758772
 21
347.344439134
 31
0.0
  0
LINE
  5
2A1
330
1F
100
AcDbEntity
  8
0
  6
Continuous
 62
     7
370
    15
100
AcDbLine
 10
272.4566758772
 20
362.9328964021
 30
0.0
 11
272.4566758772
 21
352.5405915567
 31
0.0
  0
LINE
  5
2A2
330
1F
100
AcDbEntity
  8
0
  6
Continuous
 62
     7
370
    15
100
AcDbLine
 10
281.4566758772
 20
368.1290488248
 30
0.0
 11
272.4566758772
 21
362.9328964021
 31
0.0
  0
LINE
  5
2A3
330
1F
100
AcDbEntity
  8
0
  6
Continuous
 62
     7
370
    15
100
AcDbLine
 10
290.4566758772
 20
362.9328964021
 30
0.0
 11
281.4566758772
 21
368.1290488248
 31
0.0
  0
LINE
  5
2A4
330
1F
100
AcDbEntity
  8
0
  6
Continuous
 62
     7
370
    15
100
AcDbLine
 10
359.0997210995
 20
316.6518671404
 30
0.0
 11
366.4481903278
 21
324.0003363687
 31
0.0
  0
LINE
  5
2A5
330
1F
100
AcDbEntity
  8
0
  6
Continuous
 62
     7
370
    15
100
AcDbLine
 10
349.0615254546
 20
319.3415935569
 30
0.0
 11
359.0997210995
 21
316.6518671404
 31
0.0
  0
LINE
  5
2A6
330
1F
100
AcDbEntity
  8
0
  6
Continuous
 62
     7
370
    15
100
AcDbLine
 10
346.3717990381
 20
329.3797892017
 30
0.0
 11
349.0615254546
 21
319.3415935569
 31
0.0
  0
LINE
  5
2A7
330
1F
100
AcDbEntity
  8
0
  6
Continuous
 62
     7
370
    15
100
AcDbLine
 10
353.7202682665
 20
336.7282584301
 30
0.0
 11
346.3717990381
 21
329.3797892017
 31
0.0
  0
LINE
  5
2A8
330
1F
100
AcDbEntity
  8
0
  6
Continuous
 62
     7
370
    15
100
AcDbLine
 10
363.7584639113
 20
334.0385320136
 30
0.0
 11
353.7202682665
 21
336.7282584301
 31
0.0
  0
LINE
  5
2A9
330
1F
100
AcDbEntity
  8
0
  6
Continuous
 62
     7
370
    15
100
AcDbLine
 10
366.4481903278
 20
324.0003363687
 30
0.0
 11
363.7584639113
 21
334.0385320136
 31
0.0
  0
LINE
  5
2AA
330
1F
100
AcDbEntity
  8
0
  6
Continuous
 62
     7
370
    15
100
AcDbLine
 10
216.5415527163
 20
329.3797892017
 30
0.0
 11
209.1930834879
 21
336.7282584301
 31
0.0
  0
LINE
  5
2AB
330
1F
100
AcDbEntity
  8
0
  6
Continuous
 62
     7
370
    15
100
AcDbLine
 10
213.8518262998
 20
319.3415935569
 30
0.0
 11
216.5415527163
 21
329.3797892017
 31
0.0
  0
LINE
  5
2AC
330
1F
100
AcDbEntity
  8
0
  6
Continuous
 62
     7
370
    15
100
AcDbLine
 10
203.8136306549
 20
316.6518671404
 30
0.0
 11
213.8518262998
 21
319.3415935569
 31
0.0
  0
LINE
  5
2AD
330
1F
100
AcDbEntity
  8
0
  6
Continuous
 62
     7
370
    15
100
AcDbLine
 10
196.4651614266
 20
324.0003363687
 30
0.0
 11
203.8136306549
 21
316.6518671404
 31
0.0
  0
LINE
  5
2AE
330
1F
100
AcDbEntity
  8
0
  6
Continuous
 62
     7
370
    15
100
AcDbLine
 10
199.1548878431
 20
334.0385320136
 30
0.0
 11
196.4651614266
 21
324.0003363687
 31
0.0
  0
LINE
  5
2AF
330
1F
100
AcDbEntity
  8
0
  6
Continuous
 62
     7
370
    15
100
AcDbLine
 10
209.1930834879
 20
336.7282584301
 30
0.0
 11
199.1548878431
 21
334.0385320136
 31
0.0
  0
LINE
  5
2B0
330
1F
100
AcDbEntity
  8
0
  6
Continuous
 62
     7
370
    15
100
AcDbLine
 10
382.2605234545
 20
242.7367439794
 30
0.0
 11
392.6528282999
 21
242.7367439794
 31
0.0
  0
LINE
  5
2B1
330
1F
100
AcDbEntity
  8
0
  6
Continuous
 62
     7
370
    15
100
AcDbLine
 10
377.0643710318
 20
251.7367439794
 30
0.0
 11
382.2605234545
 21
242.7367439794
 31
0.0
  0
LINE
  5
2B2
330
1F
100
AcDbEntity
  8
0
  6
Continuous
 62
     7
370
    15
100
AcDbLine
 10
382.2605234545
 20
260.7367439794
 30
0.0
 11
377.0643710318
 21
251.7367439794
 31
0.0
  0
LINE
  5
2B3
330
1F
100
AcDbEntity
  8
0
  6
Continuous
 62
     7
370
    15
100
AcDbLine
 10
397.8489807226
 20
251.7367439794
 30
0.0
 11
392.6528282999
 21
260.7367439794
 31
0.0
  0
LINE
  5
2B4
330
1F
100
AcDbEntity
  8
0
  6
Continuous
 62
     7
370
    15
100
AcDbLine
 10
392.6528282999
 20
242.7367439794
 30
0.0
 11
397.8489807226
 21
251.7367439794
 31
0.0
  0
LINE
  5
2B5
330
1F
100
AcDbEntity
  8
0
  6
Continuous
 62
     7
370
    15
100
AcDbLine
 10
392.6528282999
 20
260.7367439794
 30
0.0
 11
382.2605234545
 21
260.7367439794
 31
0.0
  0
LINE
  5
2B6
330
1F
100
AcDbEntity
  8
0
  6
Continuous
 62
     7
370
    15
100
AcDbLine
 10
180.6528282999
 20
260.7367439794
 30
0.0
 11
170.2605234545
 21
260.7367439794
 31
0.0
  0
LINE
  5
2B7
330
1F
100
AcDbEntity
  8
0
  6
Continuous
 62
     7
370
    15
100
AcDbLine
 10
180.6528282999
 20
242.7367439794
 30
0.0
 11
185.8489807226
 21
251.7367439794
 31
0.0
  0
LINE
  5
2B8
330
1F
100
AcDbEntity
  8
0
  6
Continuous
 62
     7
370
    15
100
AcDbLine
 10
170.2605234545
 20
242.7367439794
 30
0.0
 11
180.6528282999
 21
242.7367439794
 31
0.0
  0
LINE
  5
2B9
330
1F
100
AcDbEntity
  8
0
  6
Continuous
 62
     7
370
    15
100
AcDbLine
 10
165.0643710318
 20
251.7367439794
 30
0.0
 11
170.2605234545
 21
242.7367439794
 31
0.0
  0
LINE
  5
2BA
330
1F
100
AcDbEntity
  8
0
  6
Continuous
 62
     7
370
    15
100
AcDbLine
 10
185.8489807226
 20
251.7367439794
 30
0.0
 11
180.6528282999
 21
260.7367439794
 31
0.0
  0
LINE
  5
2BB
330
1F
100
AcDbEntity
  8
0
  6
Continuous
 62
     7
370
    15
100
AcDbLine
 10
170.2605234545
 20
260.7367439794
 30
0.0
 11
165.0643710318
 21
251.7367439794
 31
0.0
  0
LINE
  5
2BC
330
1F
100
AcDbEntity
  8
0
  6
Continuous
 62
     7
370
    15
100
AcDbLine
 10
203.8136306549
 20
186.8216208185
 30
0.0
 11
196.4651614266
 21
179.4731515902
 31
0.0
  0
LINE
  5
2BD
330
1F
100
AcDbEntity
  8
0
  6
Continuous
 62
     7
370
    15
100
AcDbLine
 10
216.5415527163
 20
174.0936987572
 30
0.0
 11
213.8518262998
 21
184.131894402
 31
0.0
  0
LINE
  5
2BE
330
1F
100
AcDbEntity
  8
0
  6
Continuous
 62
     7
370
    15
100
AcDbLine
 10
209.1930834879
 20
166.7452295288
 30
0.0
 11
216.5415527163
 21
174.0936987572
 31
0.0
  0
LINE
  5
2BF
330
1F
100
AcDbEntity
  8
0
  6
Continuous
 62
     7
370
    15
100
AcDbLine
 10
199.1548878431
 20
169.4349559453
 30
0.0
 11
209.1930834879
 21
166.7452295288
 31
0.0
  0
LINE
  5
2C0
330
1F
100
AcDbEntity
  8
0
  6
Continuous
 62
     7
370
    15
100
AcDbLine
 10
196.4651614266
 20
179.4731515902
 30
0.0
 11
199.1548878431
 21
169.4349559453
 31
0.0
  0
LINE
  5
2C1
330
1F
100
AcDbEntity
  8
0
  6
Continuous
 62
     7
370
    15
100
AcDbLine
 10
213.8518262998
 20
184.131894402
 30
0.0
 11
203.8136306549
 21
186.8216208185
 31
0.0
  0
LINE
  5
2C2
330
1F
100
AcDbEntity
  8
0
  6
Continuous
 62
     7
370
    15
100
AcDbLine
 10
346.3717990381
 20
174.0936987572
 30
0.0
 11
353.7202682665
 21
166.7452295288
 31
0.0
  0
LINE
  5
2C3
330
1F
100
AcDbEntity
  8
0
  6
Continuous
 62
     7
370
    15
100
AcDbLine
 10
349.0615254546
 20
184.131894402
 30
0.0
 11
346.3717990381
 21
174.0936987572
 31
0.0
  0
LINE
  5
2C4
330
1F
100
AcDbEntity
  8
0
  6
Continuous
 62
     7
370
    15
100
AcDbLine
 10
363.7584639113
 20
169.4349559453
 30
0.0
 11
366.4481903278
 21
179.4731515902
 31
0.0
  0
LINE
  5
2C5
330
1F
100
AcDbEntity
  8
0
  6
Continuous
 62
     7
370
    15
100
AcDbLine
 10
353.7202682665
 20
166.7452295288
 30
0.0
 11
363.7584639113
 21
169.4349559453
 31
0.0
  0
LINE
  5
2C6
330
1F
100
AcDbEntity
  8
0
  6
Continuous
 62
     7
370
    15
100
AcDbLine
 10
366.4481903278
 20
179.4731515902
 30
0.0
 11
359.0997210995
 21
186.8216208185
 31
0.0
  0
LINE
  5
2C7
330
1F
100
AcDbEntity
  8
0
  6
Continuous
 62
     7
370
    15
100
AcDbLine
 10
359.0997210995
 20
186.8216208185
 30
0.0
 11
349.0615254546
 21
184.131894402
 31
0.0
  0
LINE
  5
2C8
330
1F
100
AcDbEntity
  8
0
  6
Continuous
 62
     7
370
    15
100
AcDbLine
 10
272.4566758772
 20
150.9328964021
 30
0.0
 11
272.4566758772
 21
140.5405915567
 31
0.0
  0
LINE
  5
2C9
330
1F
100
AcDbEntity
  8
0
  6
Continuous
 62
     7
370
    15
100
AcDbLine
 10
281.4566758772
 20
156.1290488248
 30
0.0
 11
272.4566758772
 21
150.9328964021
 31
0.0
  0
LINE
  5
2CA
330
1F
100
AcDbEntity
  8
0
  6
Continuous
 62
     7
370
    15
100
AcDbLine
 10
290.4566758772
 20
150.9328964021
 30
0.0
 11
281.4566758772
 21
156.1290488248
 31
0.0
  0
LINE
  5
2CB
330
1F
100
AcDbEntity
  8
0
  6
Continuous
 62
     7
370
    15
100
AcDbLine
 10
290.4566758772
 20
140.5405915567
 30
0.0
 11
290.4566758772
 21
150.9328964021
 31
0.0
  0
LINE
  5
2CC
330
1F
100
AcDbEntity
  8
0
  6
Continuous
 62
     7
370
    15
100
AcDbLine
 10
281.4566758772
 20
135.344439134
 30
0.0
 11
290.4566758772
 21
140.5405915567
 31
0.0
  0
LINE
  5
2CD
330
1F
100
AcDbEntity
  8
0
  6
Continuous
 62
     7
370
    15
100
AcDbLine
 10
272.4566758772
 20
140.5405915567
 30
0.0
 11
281.4566758772
 21
135.344439134
 31
0.0
  0
CIRCLE
  5
2CE
330
1F
100
AcDbEntity
  8
0
  6
Continuous
 62
     7
370
    15
100
AcDbCircle
 10
281.4566758772
 20
251.7367439794
 30
0.0
 40
93.00000000000009
  0
CIRCLE
  5
2CF
330
1F
100
AcDbEntity
  8
0
  6
Continuous
 62
     7
370
    15
100
AcDbCircle
 10
281.4566758772
 20
251.7367439794
 30
0.0
 40
95.00000000000003
  0
CIRCLE
  5
2D0
330
1F
100
AcDbEntity
  8
0
  6
Continuous
 62
     7
370
    15
100
AcDbCircle
 10
281.4566758772
 20
251.7367439794
 30
0.0
 40
118.0
  0
CIRCLE
  5
2D1
330
1F
100
AcDbEntity
  8
0
  6
Continuous
 62
     7
370
    15
100
AcDbCircle
 10
281.4566758772
 20
251.7367439794
 30
0.0
 40
120.0
  0
LINE
  5
2D2
330
1F
100
AcDbEntity
  8
0
  6
Continuous
 62
     7
370
    15
100
AcDbLine
 10
136.4566758772
 20
151.7367439794
 30
0.0
 11
136.4566758772
 21
351.7367439794
 31
0.0
  0
LINE
  5
2D3
330
1F
100
AcDbEntity
  8
0
  6
Continuous
 62
     7
370
    15
100
AcDbLine
 10
141.4566758772
 20
346.7367439794
 30
0.0
 11
141.4566758772
 21
156.7367439794
 31
0.0
  0
LINE
  5
2D4
330
1F
100
AcDbEntity
  8
0
  6
Continuous
 62
     7
370
    15
100
AcDbLine
 10
421.4566758772
 20
156.7367439794
 30
0.0
 11
421.4566758772
 21
346.7367439794
 31
0.0
  0
LINE
  5
2D5
330
1F
100
AcDbEntity
  8
0
  6
Continuous
 62
     7
370
    15
100
AcDbLine
 10
426.4566758772
 20
351.7367439794
 30
0.0
 11
426.4566758772
 21
151.7367439794
 31
0.0
  0
LINE
  5
2D6
330
1F
100
AcDbEntity
  8
0
  6
Continuous
 62
     7
370
    15
100
AcDbLine
 10
439.4566758772
 20
151.7367439794
 30
0.0
 11
439.4566758772
 21
351.7367439794
 31
0.0
  0
LINE
  5
2D7
330
1F
100
AcDbEntity
  8
0
  6
Continuous
 62
     7
370
    15
100
AcDbLine
 10
123.4566758772
 20
151.7367439794
 30
0.0
 11
123.4566758772
 21
351.7367439794
 31
0.0
  0
LINE
  5
2D8
330
1F
100
AcDbEntity
  8
0
  6
Continuous
 62
     7
370
    15
100
AcDbLine
 10
441.4566758772
 20
186.7367439794
 30
0.0
 11
441.4566758772
 21
316.7367439794
 31
0.0
  0
LINE
  5
2D9
330
1F
100
AcDbEntity
  8
0
  6
Continuous
 62
     7
370
    15
100
AcDbLine
 10
121.4566758772
 20
186.7367439794
 30
0.0
 11
121.4566758772
 21
316.7367439794
 31
0.0
  0
LINE
  5
2DA
330
1F
100
AcDbEntity
  8
0
  6
Continuous
 62
     8
370
    15
100
AcDbLine
 10
411.4566758772
 20
196.4867439794
 30
0.0
 11
411.4566758772
 21
306.9867439794
 31
0.0
  0
LINE
  5
2DB
330
1F
100
AcDbEntity
  8
0
  6
Continuous
 62
     8
370
    15
100
AcDbLine
 10
151.4566758772
 20
306.9867439794
 30
0.0
 11
151.4566758772
 21
196.4867439794
 31
0.0
  0
LINE
  5
2DC
330
1F
100
AcDbEntity
  8
0
  6
Continuous
 62
     7
370
    15
100
AcDbLine
 10
998.4315007734
 20
246.6792509901
 30
0.0
 11
989.2391126179
 21
251.985903717
 31
0.0
  0
LINE
  5
2DD
330
1F
100
AcDbEntity
  8
0
  6
Continuous
 62
     7
370
    15
100
AcDbLine
 10
889.2472393543
 20
78.7761312408
 30
0.0
 11
898.4396275098
 21
73.469478514
 31
0.0
  0
LINE
  5
2DE
330
1F
100
AcDbEntity
  8
0
  6
Continuous
 62
     7
370
    15
100
AcDbLine
 10
939.2316835123
 20
247.0284631251
 30
0.0
 11
935.6967242301
 21
244.9871111223
 31
0.0
  0
LINE
  5
2DF
330
1F
100
AcDbEntity
  8
0
  6
Continuous
 62
     7
370
    15
100
AcDbLine
 10
868.5324978675
 20
128.6426524469
 30
0.0
 11
868.5324978675
 21
124.5606118878
 31
0.0
  0
LINE
  5
2E0
330
1F
100
AcDbEntity
  8
0
  6
Continuous
 62
     7
370
    15
100
AcDbLine
 10
921.5792940639
 20
356.017753586
 30
0.0
 11
920.7709605585
 21
356.4845462706
 31
0.0
  0
LINE
  5
2E1
330
1F
100
AcDbEntity
  8
0
  6
Continuous
 62
     7
370
    15
100
AcDbLine
 10
752.6544248697
 20
356.4845462706
 30
0.0
 11
751.8460913643
 21
356.017753586
 31
0.0
  0
LINE
  5
2E2
330
1F
100
AcDbEntity
  8
0
  6
Continuous
 62
     7
370
    15
100
AcDbLine
 10
956.7126927141
 20
300.5089010914
 30
0.0
 11
956.7126927141
 21
307.0412275865
 31
0.0
  0
LINE
  5
2E3
330
1F
100
AcDbEntity
  8
0
  6
Continuous
 62
     7
370
    15
100
AcDbLine
 10
716.7126927141
 20
307.0412275865
 30
0.0
 11
716.7126927141
 21
300.5089010914
 31
0.0
  0
LINE
  5
2E4
330
1F
100
AcDbEntity
  8
0
  6
Continuous
 62
     7
370
    15
100
AcDbLine
 10
751.8460913643
 20
251.5323750919
 30
0.0
 11
752.5533130423
 21
251.1239719967
 31
0.0
  0
LINE
  5
2E5
330
1F
100
AcDbEntity
  8
0
  6
Continuous
 62
     7
370
    15
100
AcDbLine
 10
920.8720723859
 20
251.1239719967
 30
0.0
 11
921.5792940639
 21
251.5323750919
 31
0.0
  0
LINE
  5
2E6
330
1F
100
AcDbEntity
  8
0
  6
Continuous
 62
     7
370
    15
100
AcDbLine
 10
956.7126927141
 20
292.3434929726
 30
0.0
 11
956.7126927141
 21
298.8758194677
 31
0.0
  0
LINE
  5
2E7
330
1F
100
AcDbEntity
  8
0
  6
Continuous
 62
     7
370
    15
100
AcDbLine
 10
716.7126927141
 20
298.8758194677
 30
0.0
 11
716.7126927141
 21
292.3434929726
 31
0.0
  0
LINE
  5
2E8
330
1F
100
AcDbEntity
  8
0
  6
Continuous
 62
     7
370
    15
100
AcDbLine
 10
751.8460913643
 20
243.3669669731
 30
0.0
 11
753.2605347202
 21
242.5501607826
 31
0.0
  0
LINE
  5
2E9
330
1F
100
AcDbEntity
  8
0
  6
Continuous
 62
     7
370
    15
100
AcDbLine
 10
920.164850708
 20
242.5501607826
 30
0.0
 11
921.5792940639
 21
243.3669669731
 31
0.0
  0
LINE
  5
2EA
330
1F
100
AcDbEntity
  8
0
  6
Continuous
 62
     7
370
    15
100
AcDbLine
 10
903.898752116
 20
348.2639331051
 30
0.0
 11
902.4843087602
 21
349.0807392956
 31
0.0
  0
LINE
  5
2EB
330
1F
100
AcDbEntity
  8
0
  6
Continuous
 62
     7
370
    15
100
AcDbLine
 10
770.941076668
 20
349.0807392956
 30
0.0
 11
769.5266333122
 21
348.2639331051
 31
0.0
  0
LINE
  5
2EC
330
1F
100
AcDbEntity
  8
0
  6
Continuous
 62
     7
370
    15
100
AcDbLine
 10
741.7126927141
 20
309.4908500222
 30
0.0
 11
741.7126927141
 21
308.6743092103
 31
0.0
  0
LINE
  5
2ED
330
1F
100
AcDbEntity
  8
0
  6
Continuous
 62
     7
370
    15
100
AcDbLine
 10
931.7126927141
 20
308.6743092103
 30
0.0
 11
931.7126927141
 21
309.4908500222
 31
0.0
  0
LINE
  5
2EE
330
1F
100
AcDbEntity
  8
0
  6
Continuous
 62
     7
370
    15
100
AcDbLine
 10
982.3471365146
 20
215.551132695
 30
0.0
 11
980.9329229522
 21
216.3675408068
 31
0.0
  0
LINE
  5
2EF
330
1F
100
AcDbEntity
  8
0
  6
Continuous
 62
     7
370
    15
100
AcDbLine
 10
915.9382053309
 20
103.7811886973
 30
0.0
 11
917.3524188933
 21
102.9647805855
 31
0.0
  0
LINE
  5
2F0
330
1F
100
AcDbEntity
  8
0
  6
Continuous
 62
     7
370
    15
100
AcDbLine
 10
936.7126927141
 20
245.5738079225
 30
0.0
 11
936.7126927141
 21
254.0505582312
 31
0.0
  0
LINE
  5
2F1
330
1F
100
AcDbEntity
  8
0
  6
Continuous
 62
     7
370
    15
100
AcDbLine
 10
736.7126927141
 20
254.0505582312
 30
0.0
 11
736.7126927141
 21
151.8984733282
 31
0.0
  0
LINE
  5
2F2
330
1F
100
AcDbEntity
  8
0
  6
Continuous
 62
     7
370
    15
100
AcDbLine
 10
765.9905249226
 20
111.084701662
 30
0.0
 11
769.5266333122
 21
109.0426861858
 31
0.0
  0
LINE
  5
2F3
330
1F
100
AcDbEntity
  8
0
  6
Continuous
 62
     7
370
    15
100
AcDbLine
 10
734.1937019159
 20
202.112748047
 30
0.0
 11
736.7126927141
 21
203.5674032496
 31
0.0
  0
LINE
  5
2F4
330
1F
100
AcDbEntity
  8
0
  6
Continuous
 62
     7
370
    15
100
AcDbLine
 10
674.9938846548
 20
202.461960182
 30
0.0
 11
684.1862728102
 21
197.1553074551
 31
0.0
  0
LINE
  5
2F5
330
1F
100
AcDbEntity
  8
0
  6
Continuous
 62
     7
370
    15
100
AcDbLine
 10
784.1781460739
 20
370.3650799313
 30
0.0
 11
774.9857579184
 21
375.6717326581
 31
0.0
  0
LINE
  5
2F6
330
1F
100
AcDbEntity
  8
0
  6
Continuous
 62
     7
370
    15
100
AcDbLine
 10
736.4686721392
 20
220.0507036458
 30
0.0
 11
736.7126927141
 21
219.4355026927
 31
0.0
  0
LINE
  5
2F7
330
1F
100
AcDbEntity
  8
0
  6
Continuous
 62
     7
370
    15
100
AcDbLine
 10
717.1660561708
 20
229.787933208
 30
0.0
 11
736.7126927141
 21
218.5039001189
 31
0.0
  0
LWPOLYLINE
  5
2F8
330
1F
100
AcDbEntity
  8
0
  6
Continuous
 62
     7
370
    15
100
AcDbPolyline
 90
      114
 70
   128
 43
0.0
 10
877.7248860229
 20
119.2539591609
 10
877.8341673498
 20
123.8549520854
 10
878.1616735482
 20
128.5678971387
 10
878.7063923152
 20
133.3782268778
 10
879.4666399562
 20
138.2710728493
 10
880.4400665895
 20
143.2313115465
 10
881.6236634091
 20
148.2436111559
 10
883.013771985
 20
153.2924789467
 10
884.6060955712
 20
158.3623091579
 10
886.3957123869
 20
163.4374312348
 10
888.377090829
 20
168.5021582659
 10
890.5441065703
 20
173.5408354703
 10
892.8900614894
 20
178.5378885854
 10
895.4077043739
 20
183.4778720064
 10
898.0892533341
 20
188.3455165278
 10
900.9264198558
 20
193.1257765391
 10
903.9104344198
 20
197.8038765307
 10
907.0320736082
 20
202.3653567636
 10
910.281688613
 20
206.7961179637
 10
913.6492350606
 20
211.0824649022
 10
917.1243040579
 20
215.2111487263
 10
920.6961543657
 20
219.1694079109
 10
924.3537455994
 20
222.9450077037
 10
928.0857723542
 20
226.5262779421
 10
931.8806991492
 20
229.902149125
 10
935.7267960832
 20
233.0621866281
 10
939.612175091
 20
235.9966229566
 10
943.5248266886
 20
238.6963879358
 10
947.4526570943
 20
241.1531367471
 10
951.3835256093
 20
243.3592757205
 10
955.3052821444
 20
245.307985807
 10
959.2058047748
 20
246.9932436554
 10
963.0730372087
 20
248.4098402302
 10
966.8950260521
 20
249.5533969126
 10
970.6599577567
 20
250.4203790344
 10
974.3561951342
 20
251.0081068036
 10
977.9723133267
 20
251.3147635873
 10
981.4971351202
 20
251.339401527
 10
984.9197654925
 20
251.0819444682
 10
988.2296252893
 20
250.5431881959
 10
991.4164839235
 20
249.7247979749
 10
994.4704909978
 20
248.6293034025
 10
997.3822067514
 20
247.2600905896
 10
1000.1426312377
 20
245.6213916946
 10
1002.7432321428
 20
243.7182718417
 10
1005.1759711583
 20
241.5566134655
 10
1007.4333288275
 20
239.1430981281
 10
1009.508327787
 20
236.4851858671
 10
1011.394554334
 20
233.5910921369
 10
1013.0861782504
 20
230.4697624154
 10
1014.5779708235
 20
227.130844554
 10
1015.865321008
 20
223.5846589563
 10
1016.9442496783
 20
219.8421666789
 10
1017.8114219277
 20
215.9149355509
 10
1018.4641573765
 20
211.8151044186
 10
1018.9004384567
 20
207.5553456252
 10
1019.1189166486
 20
203.1488258409
 10
1019.1189166486
 20
198.6091653659
 10
1018.9004384567
 20
193.9503960305
 10
1018.4641573765
 20
189.1869178238
 10
1017.8114219277
 20
184.3334543839
 10
1016.9442496783
 20
179.4050074882
 10
1015.865321008
 20
174.4168106837
 10
1014.5779708235
 20
169.3842822006
 10
1013.0861782504
 20
164.3229772963
 10
1011.394554334
 20
159.248540174
 10
1009.508327787
 20
154.1766556283
 10
1007.4333288275
 20
149.1230005634
 10
1005.1759711583
 20
144.1031955376
 10
1002.7432321428
 20
139.1327564806
 10
1000.1426312377
 20
134.2270467347
 10
997.3822067514
 20
129.4012295675
 10
994.4704909978
 20
124.6702213033
 10
991.4164839235
 20
120.0486452177
 10
988.2296252893
 20
115.5507863373
 10
984.9197654925
 20
111.1905472862
 10
981.4971351202
 20
106.9814053136
 10
977.9723133267
 20
102.9363706359
 10
974.3561951342
 20
99.0679462236
 10
970.6599577567
 20
95.3880891548
 10
966.8950260521
 20
91.9081736569
 10
963.0730372087
 20
88.6389559492
 10
959.2058047748
 20
85.5905409963
 10
955.3052821444
 20
82.7723512742
 10
951.3835256093
 20
80.1930976457
 10
947.4526570943
 20
77.860752436
 10
943.5248266886
 20
75.7825247905
 10
939.612175091
 20
73.9648383918
 10
935.7267960832
 20
72.4133116043
 10
931.8806991492
 20
71.1327401085
 10
928.0857723542
 20
70.1270820774
 10
924.3537455994
 20
69.3994459423
 10
920.6961543657
 20
68.952080785
 10
917.1243040579
 20
68.7863693853
 10
913.6492350606
 20
68.9028239479
 10
910.281688613
 20
69.3010845182
 10
907.0320736082
 20
69.9799200958
 10
903.9104344198
 20
70.9372324387
 10
900.9264198558
 20
72.1700625493
 10
898.0892533341
 20
73.6745998204
 10
895.4077043739
 20
75.4461938136
 10
892.8900614894
 20
77.4793686333
 10
890.5441065703
 20
79.7678398526
 10
888.377090829
 20
82.3045339383
 10
886.3957123869
 20
85.0816101142
 10
884.6060955712
 20
88.090484597
 10
883.013771985
 20
91.3218571281
 10
881.6236634091
 20
94.7657397203
 10
880.4400665895
 20
98.4114875298
 10
879.4666399562
 20
102.2478317589
 10
878.7063923152
 20
106.2629144877
 10
878.1616735482
 20
110.4443253254
 10
877.8341673498
 20
114.7791397709
 10
877.7248860229
 20
119.2539591609
  0
LWPOLYLINE
  5
2F9
330
1F
100
AcDbEntity
  8
0
  6
Continuous
 62
     7
370
    15
100
AcDbPolyline
 90
       58
 70
   128
 43
0.0
 10
989.2391126179
 20
251.985903717
 10
986.7523202719
 20
253.2853196817
 10
983.7683057079
 20
254.5181497923
 10
980.6466665196
 20
255.4754621352
 10
977.3970515147
 20
256.1542977127
 10
974.0295050671
 20
256.5525582831
 10
970.5544360698
 20
256.6690128456
 10
966.982585762
 20
256.503301446
 10
963.3249945283
 20
256.0559362886
 10
959.5929677735
 20
255.3283001536
 10
955.7980409785
 20
254.3226421225
 10
951.9519440445
 20
253.0420706266
 10
948.0665650368
 20
251.4905438392
 10
944.1539134391
 20
249.6728574405
 10
940.2260830334
 20
247.594629795
 10
936.2952145184
 20
245.2622845853
 10
932.3734579833
 20
242.6830309568
 10
928.4729353529
 20
239.8648412347
 10
924.605702919
 20
236.8164262818
 10
920.7837140756
 20
233.5472085741
 10
917.0187823711
 20
230.0672930762
 10
913.3225449936
 20
226.3874360074
 10
909.706426801
 20
222.5190115951
 10
906.1816050075
 20
218.4739769174
 10
902.7589746352
 20
214.2648349447
 10
899.4491148385
 20
209.9045958937
 10
896.2622562042
 20
205.4067370133
 10
893.2082491299
 20
200.7851609276
 10
890.2965333763
 20
196.0541526635
 10
887.53610889
 20
191.2283354963
 10
884.9355079849
 20
186.3226257503
 10
882.5027689694
 20
181.3521866934
 10
880.2454113003
 20
176.3323816676
 10
878.1704123407
 20
171.2787266027
 10
876.2841857937
 20
166.2068420569
 10
874.5925618774
 20
161.1324049347
 10
873.1007693042
 20
156.0711000304
 10
871.8134191197
 20
151.0385715473
 10
870.7344904494
 20
146.0503747427
 10
869.8673182
 20
141.121927847
 10
869.2145827512
 20
136.2684644072
 10
868.778301671
 20
131.5049862005
 10
868.5598234791
 20
126.8462168651
 10
868.5598234791
 20
122.3065563901
 10
868.778301671
 20
117.9000366058
 10
869.2145827512
 20
113.6402778124
 10
869.8673182
 20
109.5404466801
 10
870.7344904494
 20
105.6132155521
 10
871.8134191197
 20
101.8707232747
 10
873.1007693042
 20
98.324537677
 10
874.5925618774
 20
94.9856198156
 10
876.2841857937
 20
91.8642900941
 10
878.1704123407
 20
88.9701963639
 10
880.2454113003
 20
86.3122841029
 10
882.5027689694
 20
83.8987687654
 10
884.9355079849
 20
81.7371103892
 10
887.53610889
 20
79.8339905364
 10
889.2472393543
 20
78.7761312408
  0
LWPOLYLINE
  5
2FA
330
1F
100
AcDbEntity
  8
0
  6
Continuous
 62
     7
370
    15
100
AcDbPolyline
 90
       34
 70
   128
 43
0.0
 10
1007.0620437673
 20
168.9205797981
 10
1006.9470387009
 20
167.463406504
 10
1006.6061800845
 20
165.926117226
 10
1006.0517874365
 20
164.3642736041
 10
1005.3038979517
 20
162.834324736
 10
1004.3895423047
 20
161.3915669602
 10
1003.3417676909
 20
160.0881453016
 10
1002.1984434148
 20
158.9711688152
 10
1001.0008921947
 20
158.0810079413
 10
999.7923966518
 20
157.4498354132
 10
998.6166349637
 20
157.1004634506
 10
997.5161022213
 20
157.0455192665
 10
996.5305745453
 20
157.2869886868
 10
995.6956714736
 20
157.8161443777
 10
995.0415685787
 20
158.6138612736
 10
994.5919068433
 20
159.6513078076
 10
994.3629382142
 20
160.8909879589
 10
994.3629382142
 20
162.2880964568
 10
994.5919068433
 20
163.7921381602
 10
995.0415685787
 20
165.348753083
 10
995.6956714736
 20
166.9016811064
 10
996.5305745453
 20
168.3947953653
 10
997.5161022213
 20
169.7741308202
 10
998.6166349637
 20
170.989834694
 10
999.7923966518
 20
171.9979682811
 10
1001.0008921947
 20
172.7620950071
 10
1002.1984434148
 20
173.2545973412
 10
1003.3417676909
 20
173.4576749657
 10
1004.3895423047
 20
173.3639881263
 10
1005.3038979517
 20
172.9769229094
 10
1006.0517874365
 20
172.3104688605
 10
1006.6061800845
 20
171.3887133653
 10
1006.9470387009
 20
170.244971069
 10
1007.0620437673
 20
168.9205797981
  0
LWPOLYLINE
  5
2FB
330
1F
100
AcDbEntity
  8
0
  6
Continuous
 62
     7
370
    15
100
AcDbPolyline
 90
       34
 70
   128
 43
0.0
 10
902.5370065772
 20
108.579560223
 10
902.4220015108
 20
107.1223869289
 10
902.0811428944
 20
105.5850976509
 10
901.5267502464
 20
104.023254029
 10
900.7788607616
 20
102.4933051609
 10
899.8645051146
 20
101.0505473851
 10
898.8167305008
 20
99.7471257265
 10
897.6734062247
 20
98.63014924
 10
896.4758550046
 20
97.7399883661
 10
895.2673594617
 20
97.108815838
 10
894.0915977736
 20
96.7594438754
 10
892.9910650312
 20
96.7044996913
 10
892.0055373552
 20
96.9459691117
 10
891.1706342835
 20
97.4751248025
 10
890.5165313886
 20
98.2728416985
 10
890.0668696532
 20
99.3102882325
 10
889.8379010241
 20
100.5499683838
 10
889.8379010241
 20
101.9470768817
 10
890.0668696532
 20
103.4511185851
 10
890.5165313886
 20
105.0077335079
 10
891.1706342835
 20
106.5606615312
 10
892.0055373552
 20
108.0537757902
 10
892.9910650312
 20
109.4331112451
 10
894.0915977736
 20
110.6488151189
 10
895.2673594617
 20
111.656948706
 10
896.4758550046
 20
112.421075432
 10
897.6734062247
 20
112.913577766
 10
898.8167305008
 20
113.1166553906
 10
899.8645051146
 20
113.0229685512
 10
900.7788607616
 20
112.6359033343
 10
901.5267502464
 20
111.9694492854
 10
902.0811428944
 20
111.0476937902
 10
902.4220015108
 20
109.9039514938
 10
902.5370065772
 20
108.579560223
  0
LWPOLYLINE
  5
2FC
330
1F
100
AcDbEntity
  8
0
  6
Continuous
 62
     7
370
    15
100
AcDbPolyline
 90
       34
 70
   128
 43
0.0
 10
902.5370065772
 20
158.5758227124
 10
902.4220015108
 20
157.1186494182
 10
902.0811428944
 20
155.5813601403
 10
901.5267502464
 20
154.0195165183
 10
900.7788607616
 20
152.4895676503
 10
899.8645051146
 20
151.0468098744
 10
898.8167305008
 20
149.7433882159
 10
897.6734062247
 20
148.6264117294
 10
896.4758550046
 20
147.7362508555
 10
895.2673594617
 20
147.1050783274
 10
894.0915977736
 20
146.7557063648
 10
892.9910650312
 20
146.7007621807
 10
892.0055373552
 20
146.9422316011
 10
891.1706342835
 20
147.4713872919
 10
890.5165313886
 20
148.2691041879
 10
890.0668696532
 20
149.3065507219
 10
889.8379010241
 20
150.5462308732
 10
889.8379010241
 20
151.9433393711
 10
890.0668696532
 20
153.4473810744
 10
890.5165313886
 20
155.0039959973
 10
891.1706342835
 20
156.5569240206
 10
892.0055373552
 20
158.0500382795
 10
892.9910650312
 20
159.4293737345
 10
894.0915977736
 20
160.6450776082
 10
895.2673594617
 20
161.6532111954
 10
896.4758550046
 20
162.4173379214
 10
897.6734062247
 20
162.9098402554
 10
898.8167305008
 20
163.11291788
 10
899.8645051146
 20
163.0192310406
 10
900.7788607616
 20
162.6321658237
 10
901.5267502464
 20
161.9657117748
 10
902.0811428944
 20
161.0439562795
 10
902.4220015108
 20
159.9002139832
 10
902.5370065772
 20
158.5758227124
  0
LWPOLYLINE
  5
2FD
330
1F
100
AcDbEntity
  8
0
  6
Continuous
 62
     7
370
    15
100
AcDbPolyline
 90
       34
 70
   128
 43
0.0
 10
1007.0620437673
 20
218.9168422875
 10
1006.9470387009
 20
217.4596689934
 10
1006.6061800845
 20
215.9223797154
 10
1006.0517874365
 20
214.3605360935
 10
1005.3038979517
 20
212.8305872254
 10
1004.3895423047
 20
211.3878294496
 10
1003.3417676909
 20
210.084407791
 10
1002.1984434148
 20
208.9674313046
 10
1001.0008921947
 20
208.0772704306
 10
999.7923966518
 20
207.4460979025
 10
998.6166349637
 20
207.0967259399
 10
997.5161022213
 20
207.0417817558
 10
996.5305745453
 20
207.2832511762
 10
995.6956714736
 20
207.8124068671
 10
995.0415685787
 20
208.610123763
 10
994.5919068433
 20
209.647570297
 10
994.3629382142
 20
210.8872504483
 10
994.3629382142
 20
212.2843589462
 10
994.5919068433
 20
213.7884006496
 10
995.0415685787
 20
215.3450155724
 10
995.6956714736
 20
216.8979435957
 10
996.5305745453
 20
218.3910578547
 10
997.5161022213
 20
219.7703933096
 10
998.6166349637
 20
220.9860971834
 10
999.7923966518
 20
221.9942307705
 10
1001.0008921947
 20
222.7583574965
 10
1002.1984434148
 20
223.2508598305
 10
1003.3417676909
 20
223.4539374551
 10
1004.3895423047
 20
223.3602506157
 10
1005.3038979517
 20
222.9731853988
 10
1006.0517874365
 20
222.3067313499
 10
1006.6061800845
 20
221.3849758547
 10
1006.9470387009
 20
220.2412335583
 10
1007.0620437673
 20
218.9168422875
  0
LWPOLYLINE
  5
2FE
330
1F
100
AcDbEntity
  8
0
  6
Continuous
 62
     7
370
    15
100
AcDbPolyline
 90
       34
 70
   128
 43
0.0
 10
933.1516811664
 20
211.6019944025
 10
933.0366761
 20
210.1448211083
 10
932.6958174836
 20
208.6075318303
 10
932.1414248356
 20
207.0456882084
 10
931.3935353508
 20
205.5157393403
 10
930.4791797038
 20
204.0729815645
 10
929.43140509
 20
202.769559906
 10
928.2880808139
 20
201.6525834195
 10
927.0905295938
 20
200.7624225456
 10
925.8820340509
 20
200.1312500175
 10
924.7062723628
 20
199.7818780549
 10
923.6057396204
 20
199.7269338708
 10
922.6202119444
 20
199.9684032911
 10
921.7853088727
 20
200.497558982
 10
921.1312059778
 20
201.2952758779
 10
920.6815442424
 20
202.3327224119
 10
920.4525756133
 20
203.5724025632
 10
920.4525756133
 20
204.9695110612
 10
920.6815442424
 20
206.4735527645
 10
921.1312059778
 20
208.0301676874
 10
921.7853088727
 20
209.5830957107
 10
922.6202119444
 20
211.0762099696
 10
923.6057396204
 20
212.4555454245
 10
924.7062723628
 20
213.6712492983
 10
925.8820340509
 20
214.6793828854
 10
927.0905295938
 20
215.4435096114
 10
928.2880808139
 20
215.9360119455
 10
929.43140509
 20
216.13908957
 10
930.4791797038
 20
216.0454027306
 10
931.3935353508
 20
215.6583375138
 10
932.1414248356
 20
214.9918834648
 10
932.6958174836
 20
214.0701279696
 10
933.0366761
 20
212.9263856733
 10
933.1516811664
 20
211.6019944025
  0
LWPOLYLINE
  5
2FF
330
1F
100
AcDbEntity
  8
0
  6
Continuous
 62
     7
370
    15
100
AcDbPolyline
 90
       34
 70
   128
 43
0.0
 10
933.1516811664
 20
90.9003394326
 10
933.0366761
 20
89.4431661385
 10
932.6958174836
 20
87.9058768605
 10
932.1414248356
 20
86.3440332386
 10
931.3935353508
 20
84.8140843705
 10
930.4791797038
 20
83.3713265947
 10
929.43140509
 20
82.0679049361
 10
928.2880808139
 20
80.9509284497
 10
927.0905295938
 20
80.0607675758
 10
925.8820340509
 20
79.4295950477
 10
924.7062723628
 20
79.0802230851
 10
923.6057396204
 20
79.025278901
 10
922.6202119444
 20
79.2667483213
 10
921.7853088727
 20
79.7959040122
 10
921.1312059778
 20
80.5936209081
 10
920.6815442424
 20
81.6310674421
 10
920.4525756133
 20
82.8707475934
 10
920.4525756133
 20
84.2678560913
 10
920.6815442424
 20
85.7718977947
 10
921.1312059778
 20
87.3285127175
 10
921.7853088727
 20
88.8814407409
 10
922.6202119444
 20
90.3745549998
 10
923.6057396204
 20
91.7538904547
 10
924.7062723628
 20
92.9695943285
 10
925.8820340509
 20
93.9777279156
 10
927.0905295938
 20
94.7418546416
 10
928.2880808139
 20
95.2343569757
 10
929.43140509
 20
95.4374346002
 10
930.4791797038
 20
95.3437477608
 10
931.3935353508
 20
94.9566825439
 10
932.1414248356
 20
94.290228495
 10
932.6958174836
 20
93.3684729998
 10
933.0366761
 20
92.2247307035
 10
933.1516811664
 20
90.9003394326
  0
LWPOLYLINE
  5
300
330
1F
100
AcDbEntity
  8
0
  6
Continuous
 62
     7
370
    15
100
AcDbPolyline
 90
       34
 70
   128
 43
0.0
 10
976.4473691781
 20
115.8944081081
 10
976.3323641117
 20
114.4372348139
 10
975.9915054953
 20
112.899945536
 10
975.4371128473
 20
111.338101914
 10
974.6892233625
 20
109.808153046
 10
973.7748677155
 20
108.3653952701
 10
972.7270931017
 20
107.0619736116
 10
971.5837688256
 20
105.9449971251
 10
970.3862176055
 20
105.0548362512
 10
969.1777220626
 20
104.4236637231
 10
968.0019603745
 20
104.0742917605
 10
966.9014276321
 20
104.0193475764
 10
965.9158999561
 20
104.2608169968
 10
965.0809968844
 20
104.7899726876
 10
964.4268939895
 20
105.5876895836
 10
963.9772322541
 20
106.6251361176
 10
963.748263625
 20
107.8648162688
 10
963.748263625
 20
109.2619247668
 10
963.9772322541
 20
110.7659664701
 10
964.4268939895
 20
112.322581393
 10
965.0809968844
 20
113.8755094163
 10
965.9158999561
 20
115.3686236752
 10
966.9014276321
 20
116.7479591301
 10
968.0019603745
 20
117.9636630039
 10
969.1777220626
 20
118.9717965911
 10
970.3862176055
 20
119.735923317
 10
971.5837688256
 20
120.2284256511
 10
972.7270931017
 20
120.4315032757
 10
973.7748677155
 20
120.3378164363
 10
974.6892233625
 20
119.9507512194
 10
975.4371128473
 20
119.2842971704
 10
975.9915054953
 20
118.3625416752
 10
976.3323641117
 20
117.2187993789
 10
976.4473691781
 20
115.8944081081
  0
LWPOLYLINE
  5
301
330
1F
100
AcDbEntity
  8
0
  6
Continuous
 62
     7
370
    15
100
AcDbPolyline
 90
       34
 70
   128
 43
0.0
 10
976.4473691781
 20
236.5960630779
 10
976.3323641117
 20
235.1388897838
 10
975.9915054953
 20
233.6016005058
 10
975.4371128473
 20
232.0397568838
 10
974.6892233625
 20
230.5098080158
 10
973.7748677155
 20
229.0670502399
 10
972.7270931017
 20
227.7636285814
 10
971.5837688256
 20
226.6466520949
 10
970.3862176055
 20
225.756491221
 10
969.1777220626
 20
225.1253186929
 10
968.0019603745
 20
224.7759467303
 10
966.9014276321
 20
224.7210025462
 10
965.9158999561
 20
224.9624719666
 10
965.0809968844
 20
225.4916276574
 10
964.4268939895
 20
226.2893445534
 10
963.9772322541
 20
227.3267910874
 10
963.748263625
 20
228.5664712387
 10
963.748263625
 20
229.9635797366
 10
963.9772322541
 20
231.4676214399
 10
964.4268939895
 20
233.0242363628
 10
965.0809968844
 20
234.5771643861
 10
965.9158999561
 20
236.070278645
 10
966.9014276321
 20
237.4496141
 10
968.0019603745
 20
238.6653179737
 10
969.1777220626
 20
239.6734515609
 10
970.3862176055
 20
240.4375782869
 10
971.5837688256
 20
240.9300806209
 10
972.7270931017
 20
241.1331582455
 10
973.7748677155
 20
241.0394714061
 10
974.6892233625
 20
240.6524061892
 10
975.4371128473
 20
239.9859521403
 10
975.9915054953
 20
239.064196645
 10
976.3323641117
 20
237.9204543487
 10
976.4473691781
 20
236.5960630779
  0
LWPOLYLINE
  5
302
330
1F
100
AcDbEntity
  8
0
  6
Continuous
 62
     7
370
    15
100
AcDbPolyline
 90
       36
 70
   128
 43
0.0
 10
902.4736233644
 20
133.5411011178
 10
902.5831381538
 20
137.2660381892
 10
902.9111606341
 20
141.0996673236
 10
903.4561276288
 20
145.0237195322
 10
904.215442122
 20
149.0194949193
 10
905.1854856344
 20
153.0679517955
 10
906.3616354668
 20
157.1497974202
 10
907.7382867298
 20
161.2455799401
 10
909.308879053
 20
165.3357810862
 10
911.0659278489
 20
169.4009091874
 10
913.0010599797
 20
173.4215920571
 10
915.1050536597
 20
177.3786693104
 10
917.3678824007
 20
181.2532836722
 10
919.7787627934
 20
185.0269708405
 10
922.3262058947
 20
188.6817474774
 10
924.9980719783
 20
192.2001969079
 10
927.7816283853
 20
195.5655521181
 10
930.663610202
 20
198.761775658
 10
933.6302834725
 20
201.7736360667
 10
936.6675106477
 20
204.5867804579
 10
939.7608179569
 20
207.1878029174
 10
942.8954643822
 20
209.5643083887
 10
946.0565119058
 20
211.704971741
 10
949.2288966966
 20
213.5995917385
 10
952.3975008966
 20
215.2391396542
 10
955.5472246637
 20
216.6158022955
 10
958.6630581297
 20
217.7230192382
 10
961.7301529294
 20
218.5555140891
 10
964.7338929591
 20
219.1093196313
 10
967.6599640298
 20
219.3817967291
 10
970.4944220803
 20
219.3716469051
 10
973.2237596271
 20
219.0789185279
 10
975.834970134
 20
218.5050065813
 10
978.3156099937
 20
217.6526460172
 10
980.6538578277
 20
216.525898722
 10
980.9329229522
 20
216.3675408068
  0
LWPOLYLINE
  5
303
330
1F
100
AcDbEntity
  8
0
  6
Continuous
 62
     7
370
    15
100
AcDbPolyline
 90
       13
 70
   128
 43
0.0
 10
915.9382053309
 20
103.7811886973
 10
915.1050536597
 20
104.2874719162
 10
913.0010599797
 20
105.815329774
 10
911.0659278489
 20
107.6017566429
 10
909.308879053
 20
109.6382393854
 10
907.7382867297
 20
111.9150732337
 10
906.3616354668
 20
114.4214080377
 10
905.1854856344
 20
117.1452999707
 10
904.215442122
 20
120.0737684472
 10
903.4561276288
 20
123.1928579812
 10
902.9111606341
 20
126.4877046908
 10
902.5831381538
 20
129.9426071308
 10
902.4736233644
 20
133.5411011178
  0
LWPOLYLINE
  5
304
330
1F
100
AcDbEntity
  8
0
  6
Continuous
 62
     7
370
    15
100
AcDbPolyline
 90
       29
 70
   128
 43
0.0
 10
868.5324978675
 20
128.6426524469
 10
868.6420535464
 20
133.1343552714
 10
868.9703632355
 20
137.7378973895
 10
869.5163560566
 20
142.4382630035
 10
870.2782510947
 20
147.2201204978
 10
871.2535632066
 20
152.0678724472
 10
872.4391111268
 20
156.9657064925
 10
873.8310278445
 20
161.897646917
 10
875.4247732166
 20
166.8476067561
 10
877.215148777
 20
171.7994402698
 10
879.1963146928
 20
176.7369956063
 10
881.3618088125
 20
181.6441674865
 10
883.7045677445
 20
186.5049497356
 10
886.2169498959
 20
191.3034874923
 10
888.8907603985
 20
196.0241289237
 10
891.7172778382
 20
200.6514762788
 10
894.6872827025
 20
205.1704361122
 10
897.7910874529
 20
209.5662685163
 10
901.0185681235
 20
213.8246351995
 10
904.3591973432
 20
217.9316462546
 10
907.8020786737
 20
221.8739054654
 10
911.3359821518
 20
225.6385540017
 10
914.9493809189
 20
229.2133123624
 10
918.6304888192
 20
232.5865204289
 10
922.367298844
 20
235.7471754974
 10
926.1476222956
 20
238.6849681682
 10
929.9591285446
 20
241.3903159721
 10
933.78938525
 20
243.854394627
 10
935.6967242301
 20
244.9871111223
  0
LWPOLYLINE
  5
305
330
1F
100
AcDbEntity
  8
0
  6
Continuous
 62
     7
370
    15
100
AcDbPolyline
 90
       14
 70
   128
 43
0.0
 10
911.2926111504
 20
361.4632721336
 10
911.2064792865
 20
361.5037865668
 10
906.4365852659
 20
363.6307010595
 10
901.4847895706
 20
365.6142406006
 10
896.3640108702
 20
367.449230362
 10
891.0876086916
 20
369.130883065
 10
885.6693485656
 20
370.6548114697
 10
880.1233661144
 20
372.0170398208
 10
874.4641301727
 20
373.2140142201
 10
868.7064050412
 20
374.242611898
 10
862.8652119672
 20
375.1001493608
 10
856.9557899565
 20
375.784389391
 10
850.9935560165
 20
376.2935468845
 10
845.7126927141
 20
376.5958333558
  0
LWPOLYLINE
  5
306
330
1F
100
AcDbEntity
  8
0
  6
Continuous
 62
     7
370
    15
100
AcDbPolyline
 90
       14
 70
   128
 43
0.0
 10
827.7126927141
 20
376.5958333558
 10
826.9288095561
 20
376.5597007359
 10
820.9371684865
 20
376.1827519851
 10
814.9866839584
 20
375.6296814151
 10
809.0928801064
 20
374.9019319239
 10
803.271133192
 20
374.0014021268
 10
797.5366314881
 20
372.9304414032
 10
791.9043356548
 20
371.6918437674
 10
786.388939709
 20
370.2888405791
 10
781.0048326888
 20
368.7250921136
 10
775.7660611148
 20
367.004678012
 10
770.6862923439
 20
365.1320866383
 10
765.7787789128
 20
363.1122033695
 10
762.1327742778
 20
361.4632721336
  0
LWPOLYLINE
  5
307
330
1F
100
AcDbEntity
  8
0
  6
Continuous
 62
     7
370
    15
100
AcDbPolyline
 90
       94
 70
   128
 43
0.0
 10
752.6527916834
 20
356.4810276244
 10
752.2153559554
 20
356.2233365257
 10
748.1199079725
 20
353.6706128223
 10
744.2555884496
 20
351.0004989004
 10
740.6324789551
 20
348.2199607823
 10
737.260031768
 20
345.3362525745
 10
734.1470452179
 20
342.3568975425
 10
731.3016407314
 20
339.2896684834
 10
728.7312416438
 20
336.1425674475
 10
726.442553833
 20
332.9238048622
 10
724.441548224
 20
329.6417781115
 10
722.733445212
 20
326.3050496285
 10
721.3227010428
 20
322.9223245567
 10
720.2129961868
 20
319.5024280398
 10
719.4072257372
 20
316.0542821971
 10
718.9074918573
 20
312.5868828476
 10
718.7150982956
 20
309.1092760402
 10
718.8305469849
 20
305.630534454
 10
719.2535367329
 20
302.1597337286
 10
719.9829640075
 20
298.7059287867
 10
721.0169258163
 20
295.2781302113
 10
722.3527246709
 20
291.8852807373
 10
723.9868756247
 20
288.5362319216
 10
725.9151153645
 20
285.2397210503
 10
728.1324133328
 20
282.0043483437
 10
730.6329848526
 20
278.8385545199
 10
733.4103062181
 20
275.7505987735
 10
736.4571317151
 20
272.7485372285
 10
739.7655125237
 20
269.8402019205
 10
743.3268174561
 20
267.0331803645
 10
747.1317554745
 20
264.3347957592
 10
751.1703999298
 20
261.7520878818
 10
755.43221446
 20
259.2917947223
 10
759.9060804775
 20
256.9603349047
 10
764.5803261766
 20
254.7637909415
 10
769.442756984
 20
252.707893365
 10
774.480687373
 20
250.7980057773
 10
779.6809739584
 20
249.039110857
 10
785.0300497862
 20
247.4357973602
 10
790.5139597284
 20
245.9922481487
 10
796.11839689
 20
244.7122292775
 10
801.8287399345
 20
243.5990801698
 10
807.6300912287
 20
242.6557049045
 10
813.5073157096
 20
241.8845646399
 10
819.4450803696
 20
241.2876711929
 10
825.4278942586
 20
240.8665817904
 10
831.4401488982
 20
240.6223950066
 10
837.4661590027
 20
240.5557478968
 10
843.4902033997
 20
240.6668143359
 10
849.4965660451
 20
240.9553045641
 10
855.4695770247
 20
241.4204659434
 10
861.3936534347
 20
242.0610849208
 10
867.2533400362
 20
242.8754901946
 10
873.0333495759
 20
243.8615570744
 10
878.718602669
 20
245.0167130242
 10
884.2942671391
 20
246.3379443743
 10
889.7457967144
 20
247.8218041827
 10
895.0589689765
 20
249.4644212286
 10
900.2199224658
 20
251.2615101119
 10
905.2151928438
 20
253.2083824326
 10
910.0317480205
 20
255.2999590234
 10
914.6570221533
 20
257.5307831995
 10
919.0789484302
 20
259.8950349955
 10
923.2859905504
 20
262.3865463485
 10
927.2671728213
 20
264.9988171896
 10
931.012108793
 20
267.7250324026
 10
934.5110283551
 20
270.5580796033
 10
937.754803226
 20
273.490567695
 10
940.7349707674
 20
276.5148461511
 10
943.4437560625
 20
279.6230249744
 10
945.8740921997
 20
282.8069952812
 10
948.0196387095
 20
286.0584504566
 10
949.874798106
 20
289.3689078252
 10
951.4347304903
 20
292.7297307818
 10
952.6953661768
 20
296.1321513229
 10
953.6534163109
 20
299.567292922
 10
954.3063814493
 20
303.0261936867
 10
954.6525580804
 20
306.4998297399
 10
954.691043069
 20
309.9791387618
 10
954.4217360122
 20
313.4550436324
 10
953.8453395011
 20
316.9184761127
 10
952.9633572887
 20
320.3604005029
 10
951.7780903657
 20
323.7718372152
 10
950.2926309582
 20
327.1438862007
 10
948.5108544602
 20
330.4677501687
 10
946.4374093231
 20
333.7347575376
 10
944.0777049287
 20
336.9363850582
 10
941.4378974761
 20
340.0642800498
 10
938.5248739217
 20
343.1102821915
 10
935.3462340112
 20
346.0664448116
 10
931.9102704533
 20
348.9250556192
 10
928.2259472847
 20
351.6786568253
 10
924.3028764837
 20
354.3200645986
 10
920.7725937448
 20
356.4810276244
  0
LWPOLYLINE
  5
308
330
1F
100
AcDbEntity
  8
0
  6
Continuous
 62
     7
370
    15
100
AcDbPolyline
 90
       94
 70
   128
 43
0.0
 10
921.5655064565
 20
356.0257142959
 10
925.7543229682
 20
353.4818195206
 10
929.7145708921
 20
350.818712412
 10
933.4360843286
 20
348.0432291276
 10
936.909310206
 20
345.1624942933
 10
940.1253328033
 20
342.1839027142
 10
943.0758966367
 20
339.115100392
 10
945.7534276511
 20
335.9639648983
 10
948.1510526628
 20
332.7385851527
 10
950.2626170027
 20
329.4472406589
 10
952.0827003156
 20
326.0983802508
 10
953.6066304735
 20
322.7006004052
 10
954.8304955698
 20
319.2626231741
 10
955.7511539602
 20
315.7932737958
 10
956.3662423278
 20
312.3014580404
 10
956.6741817497
 20
308.7961393489
 10
956.6741817497
 20
305.2863158241
 10
956.3662423278
 20
301.7809971326
 10
955.7511539602
 20
298.2891813772
 10
954.8304955698
 20
294.819831999
 10
953.6066304735
 20
291.3818547679
 10
952.0827003156
 20
287.9840749222
 10
950.2626170027
 20
284.6352145142
 10
948.1510526628
 20
281.3438700203
 10
945.7534276511
 20
278.1184902748
 10
943.0758966367
 20
274.9673547811
 10
940.1253328033
 20
271.8985524589
 10
936.909310206
 20
268.9199608797
 10
933.4360843286
 20
266.0392260454
 10
929.7145708921
 20
263.2637427611
 10
925.7543229682
 20
260.6006356524
 10
921.5655064565
 20
258.0567408772
 10
917.1588739889
 20
255.6385885768
 10
912.5457373277
 20
253.3523861135
 10
907.7379383285
 20
251.2040021362
 10
902.7478185426
 20
249.1989515159
 10
897.5881875357
 20
247.3423811887
 10
892.2722900067
 20
245.6390569439
 10
886.8137717883
 20
244.0933511906
 10
881.2266448185
 20
242.7092317332
 10
875.525251172
 20
241.4902515865
 10
869.7242262446
 20
240.439539855
 10
863.8384611841
 20
239.5597937007
 10
857.883064665
 20
238.8532714194
 10
851.8733241048
 20
238.3217866436
 10
845.8246664211
 20
237.9667036871
 10
839.7526184317
 20
237.7889340428
 10
833.6727669965
 20
237.7889340428
 10
827.6007190071
 20
237.9667036871
 10
821.5520613234
 20
238.3217866436
 10
815.5423207632
 20
238.8532714194
 10
809.586924244
 20
239.5597937007
 10
803.7011591836
 20
240.439539855
 10
797.9001342562
 20
241.4902515865
 10
792.1987406097
 20
242.7092317332
 10
786.6116136399
 20
244.0933511906
 10
781.1530954215
 20
245.6390569439
 10
775.8371978925
 20
247.3423811887
 10
770.6775668856
 20
249.1989515159
 10
765.6874470997
 20
251.2040021362
 10
760.8796481005
 20
253.3523861135
 10
756.2665114393
 20
255.6385885768
 10
751.8598789717
 20
258.0567408772
 10
747.67106246
 20
260.6006356524
 10
743.7108145361
 20
263.2637427611
 10
739.9893010996
 20
266.0392260454
 10
736.5160752222
 20
268.9199608797
 10
733.3000526249
 20
271.8985524589
 10
730.3494887915
 20
274.9673547811
 10
727.6719577771
 20
278.1184902748
 10
725.2743327654
 20
281.3438700203
 10
723.1627684255
 20
284.6352145142
 10
721.3426851126
 20
287.9840749222
 10
719.8187549547
 20
291.3818547679
 10
718.5948898584
 20
294.819831999
 10
717.674231468
 20
298.2891813772
 10
717.0591431004
 20
301.7809971326
 10
716.7512036785
 20
305.2863158241
 10
716.7512036785
 20
308.7961393489
 10
717.0591431004
 20
312.3014580404
 10
717.674231468
 20
315.7932737958
 10
718.5948898584
 20
319.2626231741
 10
719.8187549547
 20
322.7006004052
 10
721.3426851126
 20
326.0983802508
 10
723.1627684255
 20
329.4472406589
 10
725.2743327654
 20
332.7385851527
 10
727.6719577771
 20
335.9639648983
 10
730.3494887915
 20
339.115100392
 10
733.3000526249
 20
342.1839027142
 10
736.5160752222
 20
345.1624942933
 10
739.9893010996
 20
348.0432291276
 10
743.7108145361
 20
350.818712412
 10
747.67106246
 20
353.4818195206
 10
751.8460913643
 20
356.017753586
  0
LWPOLYLINE
  5
309
330
1F
100
AcDbEntity
  8
0
  6
Continuous
 62
     7
370
    15
100
AcDbPolyline
 90
       48
 70
   128
 43
0.0
 10
751.8598789717
 20
251.5244143821
 10
756.2665114393
 20
249.1062620817
 10
760.8796481005
 20
246.8200596184
 10
765.6874470997
 20
244.6716756412
 10
770.6775668856
 20
242.6666250208
 10
775.8371978925
 20
240.8100546936
 10
781.1530954215
 20
239.1067304489
 10
786.6116136399
 20
237.5610246955
 10
792.1987406097
 20
236.1769052381
 10
797.9001342562
 20
234.9579250914
 10
803.7011591836
 20
233.9072133599
 10
809.586924244
 20
233.0274672056
 10
815.5423207632
 20
232.3209449243
 10
821.5520613234
 20
231.7894601485
 10
827.6007190071
 20
231.434377192
 10
833.6727669965
 20
231.2566075477
 10
839.7526184317
 20
231.2566075477
 10
845.8246664211
 20
231.434377192
 10
851.8733241048
 20
231.7894601485
 10
857.883064665
 20
232.3209449243
 10
863.8384611841
 20
233.0274672056
 10
869.7242262446
 20
233.9072133599
 10
875.525251172
 20
234.9579250914
 10
881.2266448185
 20
236.1769052381
 10
886.8137717883
 20
237.5610246955
 10
892.2722900067
 20
239.1067304489
 10
897.5881875357
 20
240.8100546936
 10
902.7478185426
 20
242.6666250208
 10
907.7379383285
 20
244.6716756412
 10
912.5457373277
 20
246.8200596184
 10
917.1588739889
 20
249.1062620817
 10
921.5655064565
 20
251.5244143821
 10
925.7543229682
 20
254.0683091573
 10
929.7145708921
 20
256.731416266
 10
933.4360843286
 20
259.5068995504
 10
936.909310206
 20
262.3876343846
 10
940.1253328033
 20
265.3662259638
 10
943.0758966367
 20
268.435028286
 10
945.7534276511
 20
271.5861637797
 10
948.1510526628
 20
274.8115435252
 10
950.2626170027
 20
278.1028880191
 10
952.0827003156
 20
281.4517484272
 10
953.6066304735
 20
284.8495282728
 10
954.8304955698
 20
288.2875055039
 10
955.7511539602
 20
291.7568548821
 10
956.3662423278
 20
295.2486706375
 10
956.6741817497
 20
298.753989329
 10
956.7126927141
 20
300.5089010914
  0
LWPOLYLINE
  5
30A
330
1F
100
AcDbEntity
  8
0
  6
Continuous
 62
     7
370
    15
100
AcDbPolyline
 90
       17
 70
   128
 43
0.0
 10
716.7126927141
 20
300.5089010914
 10
716.7512036785
 20
298.753989329
 10
717.0591431004
 20
295.2486706375
 10
717.674231468
 20
291.7568548821
 10
718.5948898584
 20
288.2875055039
 10
719.8187549547
 20
284.8495282728
 10
721.3426851126
 20
281.4517484272
 10
723.1627684255
 20
278.1028880191
 10
725.2743327654
 20
274.8115435252
 10
727.6719577771
 20
271.5861637797
 10
730.3494887915
 20
268.435028286
 10
733.3000526249
 20
265.3662259638
 10
736.5160752222
 20
262.3876343846
 10
739.9893010996
 20
259.5068995504
 10
743.7108145361
 20
256.731416266
 10
747.67106246
 20
254.0683091573
 10
751.8598789717
 20
251.5244143821
  0
LINE
  5
30B
330
1F
100
AcDbEntity
  8
0
  6
Continuous
 62
     7
370
    15
100
AcDbLine
 10
720.3203878687
 20
308.6743092103
 30
0.0
 11
725.5165402914
 21
303.4787198015
 31
0.0
  0
LINE
  5
30C
330
1F
100
AcDbEntity
  8
0
  6
Continuous
 62
     7
370
    15
100
AcDbLine
 10
725.5165402914
 20
303.4787198015
 30
0.0
 11
735.9088451368
 21
303.4787198015
 31
0.0
  0
LINE
  5
30D
330
1F
100
AcDbEntity
  8
0
  6
Continuous
 62
     7
370
    15
100
AcDbLine
 10
735.9088451368
 20
303.4787198015
 30
0.0
 11
741.1049975595
 21
308.6743092103
 31
0.0
  0
LINE
  5
30E
330
1F
100
AcDbEntity
  8
0
  6
Continuous
 62
     7
370
    15
100
AcDbLine
 10
836.7126927141
 20
241.4824618417
 30
0.0
 11
845.7126927141
 21
244.4821367855
 31
0.0
  0
LINE
  5
30F
330
1F
100
AcDbEntity
  8
0
  6
Continuous
 62
     7
370
    15
100
AcDbLine
 10
827.7126927141
 20
244.4821367855
 30
0.0
 11
836.7126927141
 21
241.4824618417
 31
0.0
  0
LINE
  5
310
330
1F
100
AcDbEntity
  8
0
  6
Continuous
 62
     7
370
    15
100
AcDbLine
 10
932.3203878687
 20
308.6743092103
 30
0.0
 11
937.5165402914
 21
303.4787198015
 31
0.0
  0
LINE
  5
311
330
1F
100
AcDbEntity
  8
0
  6
Continuous
 62
     7
370
    15
100
AcDbLine
 10
937.5165402914
 20
303.4787198015
 30
0.0
 11
947.9088451368
 21
303.4787198015
 31
0.0
  0
LINE
  5
312
330
1F
100
AcDbEntity
  8
0
  6
Continuous
 62
     7
370
    15
100
AcDbLine
 10
947.9088451368
 20
303.4787198015
 30
0.0
 11
953.1049975595
 21
308.6743092103
 31
0.0
  0
LINE
  5
313
330
1F
100
AcDbEntity
  8
0
  6
Continuous
 62
     7
370
    15
100
AcDbLine
 10
827.7126927141
 20
366.8671317476
 30
0.0
 11
833.9507414232
 21
364.7880074798
 31
0.0
  0
LINE
  5
314
330
1F
100
AcDbEntity
  8
0
  6
Continuous
 62
     7
370
    15
100
AcDbLine
 10
839.474644005
 20
364.7880074798
 30
0.0
 11
845.7126927141
 21
366.8671317476
 31
0.0
  0
LWPOLYLINE
  5
315
330
1F
100
AcDbEntity
  8
0
  6
Continuous
 62
     7
370
    15
100
AcDbPolyline
 90
       14
 70
   128
 43
0.0
 10
771.3641826911
 20
268.8683550577
 10
773.482053283
 20
267.7443000525
 10
777.6328032678
 20
265.7271813888
 10
781.976259572
 20
263.8501473294
 10
786.4982547441
 20
262.1193203693
 10
791.1840389757
 20
260.5403461062
 10
796.0183282125
 20
259.1183748259
 10
800.9853540079
 20
257.8580447034
 10
806.0689149562
 20
256.7634666734
 10
811.2524295381
 20
255.8382110219
 10
816.5189902066
 20
255.0852957406
 10
821.8514185353
 20
254.5071766827
 10
827.2323212514
 20
254.1057395523
 10
827.7126927141
 20
254.0786381275
  0
LWPOLYLINE
  5
316
330
1F
100
AcDbEntity
  8
0
  6
Continuous
 62
     7
370
    15
100
AcDbPolyline
 90
       14
 70
   128
 43
0.0
 10
845.7126927141
 20
254.0786381275
 10
848.8884809086
 20
254.2842774725
 10
854.2473318089
 20
254.7742553831
 10
859.548988361
 20
255.4400440661
 10
864.7761576633
 20
256.2794718572
 10
869.911789776
 20
257.2898007173
 10
874.9391333346
 20
258.4677351637
 10
879.8417901894
 20
259.8094330191
 10
884.6037688926
 20
261.310517944
 10
889.2095368597
 20
262.9660937113
 10
893.6440710327
 20
264.770760177
 10
897.8929068829
 20
266.7186308942
 10
901.942185591
 20
268.8033523135
 10
902.061202737
 20
268.8683550577
  0
LWPOLYLINE
  5
317
330
1F
100
AcDbEntity
  8
0
  6
Continuous
 62
     7
370
    15
100
AcDbPolyline
 90
       14
 70
   128
 43
0.0
 10
911.4741781849
 20
274.8365797965
 10
912.7641106019
 20
275.8085240749
 10
915.8902233321
 20
278.3685261618
 10
918.7580754145
 20
281.0273794139
 10
921.358312512
 20
283.7764112045
 10
923.6824531914
 20
286.6066547633
 10
925.7229165891
 20
289.5088784241
 10
927.4730471374
 20
292.4736157366
 10
928.9271362744
 20
295.4911963438
 10
930.0804410634
 20
298.551777525
 10
930.929199664
 20
301.6453763006
 10
931.4706436021
 20
304.7619019944
 10
931.7030068
 20
307.8911891474
 10
931.7126927141
 20
308.6743092103
  0
LWPOLYLINE
  5
318
330
1F
100
AcDbEntity
  8
0
  6
Continuous
 62
     7
370
    15
100
AcDbPolyline
 90
       13
 70
   128
 43
0.0
 10
741.7126927141
 20
308.6743092103
 10
741.7998540909
 20
306.3255877454
 10
742.1869155053
 20
303.2014072589
 10
742.8823003576
 20
300.0950782409
 10
743.8837404468
 20
297.0167328912
 10
745.1879692837
 20
293.9764121323
 10
746.7907327448
 20
290.9840328588
 10
748.6868029488
 20
288.0493555897
 10
750.8699953088
 20
285.1819526324
 10
753.3331887052
 20
282.3911768593
 10
756.068348713
 20
279.6861312009
 10
759.0665538089
 20
277.075638954
 10
761.9512072433
 20
274.8365797965
  0
LINE
  5
319
330
1F
100
AcDbEntity
  8
0
  6
Continuous
 62
     7
370
    15
100
AcDbLine
 10
751.7211782635
 20
350.3911931278
 30
0.0
 11
759.0696474918
 21
346.1490121396
 31
0.0
  0
LINE
  5
31A
330
1F
100
AcDbEntity
  8
0
  6
Continuous
 62
     7
370
    15
100
AcDbLine
 10
759.0696474918
 20
346.1490121396
 30
0.0
 11
768.3775047575
 21
347.5887866503
 31
0.0
  0
LINE
  5
31B
330
1F
100
AcDbEntity
  8
0
  6
Continuous
 62
     7
370
    15
100
AcDbLine
 10
769.3107179003
 20
348.1388451467
 30
0.0
 11
771.7975695532
 21
353.496685146
 31
0.0
  0
LINE
  5
31C
330
1F
100
AcDbEntity
  8
0
  6
Continuous
 62
     7
370
    15
100
AcDbLine
 10
901.627815875
 20
353.496685146
 30
0.0
 11
904.1146675279
 21
348.1388451467
 31
0.0
  0
LINE
  5
31D
330
1F
100
AcDbEntity
  8
0
  6
Continuous
 62
     7
370
    15
100
AcDbLine
 10
905.0478806707
 20
347.5887866503
 30
0.0
 11
914.3557379364
 21
346.1490121396
 31
0.0
  0
LINE
  5
31E
330
1F
100
AcDbEntity
  8
0
  6
Continuous
 62
     7
370
    15
100
AcDbLine
 10
914.3557379364
 20
346.1490121396
 30
0.0
 11
921.7042071647
 21
350.3911931278
 31
0.0
  0
LINE
  5
31F
330
1F
100
AcDbEntity
  8
0
  6
Continuous
 62
     7
370
    15
100
AcDbLine
 10
919.0144807482
 20
261.1624982955
 30
0.0
 11
921.7042071647
 21
266.9574252928
 31
0.0
  0
LINE
  5
320
330
1F
100
AcDbEntity
  8
0
  6
Continuous
 62
     7
370
    15
100
AcDbLine
 10
901.627815875
 20
263.8519332746
 30
0.0
 11
908.9762851034
 21
259.6097522864
 31
0.0
  0
LINE
  5
321
330
1F
100
AcDbEntity
  8
0
  6
Continuous
 62
     7
370
    15
100
AcDbLine
 10
908.9762851034
 20
259.6097522864
 30
0.0
 11
919.0144807482
 21
261.1624982955
 31
0.0
  0
LINE
  5
322
330
1F
100
AcDbEntity
  8
0
  6
Continuous
 62
     7
370
    15
100
AcDbLine
 10
754.41090468
 20
261.1624982955
 30
0.0
 11
764.4491003248
 21
259.6097522864
 31
0.0
  0
LINE
  5
323
330
1F
100
AcDbEntity
  8
0
  6
Continuous
 62
     7
370
    15
100
AcDbLine
 10
764.4491003248
 20
259.6097522864
 30
0.0
 11
771.7975695532
 21
263.8519332746
 31
0.0
  0
LINE
  5
324
330
1F
100
AcDbEntity
  8
0
  6
Continuous
 62
     7
370
    15
100
AcDbLine
 10
751.7211782635
 20
266.9574252928
 30
0.0
 11
754.41090468
 21
261.1624982955
 31
0.0
  0
LWPOLYLINE
  5
325
330
1F
100
AcDbEntity
  8
0
  6
Continuous
 62
     7
370
    15
100
AcDbPolyline
 90
       32
 70
   128
 43
0.0
 10
752.5669857529
 20
251.1160776261
 10
756.9732787961
 20
248.6991087715
 10
761.5876028656
 20
246.4151754878
 10
766.3979197169
 20
244.2702362961
 10
771.3916797825
 20
242.2698870978
 10
776.5558549126
 20
240.4193465757
 10
781.8769723639
 20
238.7234425786
 10
787.3411499486
 20
237.1865995264
 10
792.9341322511
 20
235.8128268673
 10
798.6413278194
 20
234.6057086171
 10
804.4478472317
 20
233.5683940097
 10
810.3385419419
 20
232.7035892803
 10
816.2980438001
 20
232.0135506058
 10
822.3108051465
 20
231.5000782183
 10
828.3611393731
 20
231.1645117085
 10
834.4332618488
 20
231.0077265313
 10
840.5113310994
 20
231.0301317212
 10
846.5794901361
 20
231.2316688257
 10
852.621907825
 20
231.6118120575
 10
858.6228201881
 20
232.1695696662
 10
864.5665715303
 20
232.903486526
 10
870.437655283
 20
233.8116479316
 10
876.220754459
 20
234.8916845935
 10
881.9007816129
 20
236.1407788194
 10
887.4629182023
 20
237.5556718652
 10
892.8926532481
 20
239.1326724364
 10
898.1758211913
 20
240.8676663185
 10
903.2986388501
 20
242.7561271106
 10
908.2477413782
 20
244.7931280343
 10
913.010217132
 20
246.9733547865
 10
917.5736413561
 20
249.2911194047
 10
920.8720723859
 20
251.1239719967
  0
LWPOLYLINE
  5
326
330
1F
100
AcDbEntity
  8
0
  6
Continuous
 62
     7
370
    15
100
AcDbPolyline
 90
       48
 70
   128
 43
0.0
 10
751.8598789717
 20
249.8913327583
 10
756.2665114393
 20
247.4731804579
 10
760.8796481005
 20
245.1869779946
 10
765.6874470997
 20
243.0385940174
 10
770.6775668856
 20
241.0335433971
 10
775.8371978925
 20
239.1769730698
 10
781.1530954215
 20
237.4736488251
 10
786.6116136399
 20
235.9279430718
 10
792.1987406097
 20
234.5438236143
 10
797.9001342562
 20
233.3248434676
 10
803.7011591836
 20
232.2741317361
 10
809.586924244
 20
231.3943855818
 10
815.5423207632
 20
230.6878633005
 10
821.5520613234
 20
230.1563785247
 10
827.6007190071
 20
229.8012955682
 10
833.6727669965
 20
229.6235259239
 10
839.7526184317
 20
229.6235259239
 10
845.8246664211
 20
229.8012955682
 10
851.8733241048
 20
230.1563785247
 10
857.883064665
 20
230.6878633005
 10
863.8384611841
 20
231.3943855818
 10
869.7242262446
 20
232.2741317361
 10
875.525251172
 20
233.3248434676
 10
881.2266448185
 20
234.5438236143
 10
886.8137717883
 20
235.9279430718
 10
892.2722900067
 20
237.4736488251
 10
897.5881875357
 20
239.1769730698
 10
902.7478185426
 20
241.0335433971
 10
907.7379383285
 20
243.0385940174
 10
912.5457373277
 20
245.1869779946
 10
917.1588739889
 20
247.4731804579
 10
921.5655064565
 20
249.8913327583
 10
925.7543229682
 20
252.4352275335
 10
929.7145708921
 20
255.0983346422
 10
933.4360843286
 20
257.8738179266
 10
936.909310206
 20
260.7545527609
 10
940.1253328033
 20
263.73314434
 10
943.0758966367
 20
266.8019466622
 10
945.7534276511
 20
269.9530821559
 10
948.1510526628
 20
273.1784619014
 10
950.2626170027
 20
276.4698063953
 10
952.0827003156
 20
279.8186668034
 10
953.6066304735
 20
283.216446649
 10
954.8304955698
 20
286.6544238801
 10
955.7511539602
 20
290.1237732584
 10
956.3662423278
 20
293.6155890137
 10
956.6741817497
 20
297.1209077052
 10
956.704356382
 20
299.6923602791
  0
LWPOLYLINE
  5
327
330
1F
100
AcDbEntity
  8
0
  6
Continuous
 62
     7
370
    15
100
AcDbPolyline
 90
       17
 70
   128
 43
0.0
 10
716.7210290462
 20
299.6923602791
 10
716.7512036785
 20
297.1209077052
 10
717.0591431004
 20
293.6155890137
 10
717.674231468
 20
290.1237732584
 10
718.5948898584
 20
286.6544238801
 10
719.8187549547
 20
283.216446649
 10
721.3426851126
 20
279.8186668034
 10
723.1627684255
 20
276.4698063953
 10
725.2743327654
 20
273.1784619014
 10
727.6719577771
 20
269.9530821559
 10
730.3494887915
 20
266.8019466622
 10
733.3000526249
 20
263.73314434
 10
736.5160752222
 20
260.7545527609
 10
739.9893010996
 20
257.8738179266
 10
743.7108145361
 20
255.0983346422
 10
747.67106246
 20
252.4352275335
 10
751.8598789717
 20
249.8913327583
  0
LWPOLYLINE
  5
328
330
1F
100
AcDbEntity
  8
0
  6
Continuous
 62
     7
370
    15
100
AcDbPolyline
 90
       48
 70
   128
 43
0.0
 10
751.8598789717
 20
243.3590062632
 10
756.2665114393
 20
240.9408539628
 10
760.8796481005
 20
238.6546514995
 10
765.6874470997
 20
236.5062675223
 10
770.6775668856
 20
234.501216902
 10
775.8371978925
 20
232.6446465747
 10
781.1530954215
 20
230.94132233
 10
786.6116136399
 20
229.3956165767
 10
792.1987406097
 20
228.0114971192
 10
797.9001342562
 20
226.7925169725
 10
803.7011591836
 20
225.741805241
 10
809.586924244
 20
224.8620590868
 10
815.5423207632
 20
224.1555368054
 10
821.5520613234
 20
223.6240520296
 10
827.6007190071
 20
223.2689690732
 10
833.6727669965
 20
223.0911994289
 10
839.7526184317
 20
223.0911994289
 10
845.8246664211
 20
223.2689690732
 10
851.8733241048
 20
223.6240520296
 10
857.883064665
 20
224.1555368054
 10
863.8384611841
 20
224.8620590868
 10
869.7242262446
 20
225.741805241
 10
875.525251172
 20
226.7925169725
 10
881.2266448185
 20
228.0114971192
 10
886.8137717883
 20
229.3956165767
 10
892.2722900067
 20
230.94132233
 10
897.5881875357
 20
232.6446465747
 10
902.7478185426
 20
234.501216902
 10
907.7379383285
 20
236.5062675223
 10
912.5457373277
 20
238.6546514995
 10
917.1588739889
 20
240.9408539628
 10
921.5655064565
 20
243.3590062632
 10
925.7543229682
 20
245.9029010385
 10
929.7145708921
 20
248.5660081471
 10
933.4360843286
 20
251.3414914315
 10
936.909310206
 20
254.2222262658
 10
940.1253328033
 20
257.2008178449
 10
943.0758966367
 20
260.2696201671
 10
945.7534276511
 20
263.4207556608
 10
948.1510526628
 20
266.6461354064
 10
950.2626170027
 20
269.9374799002
 10
952.0827003156
 20
273.2863403083
 10
953.6066304735
 20
276.6841201539
 10
954.8304955698
 20
280.122097385
 10
955.7511539602
 20
283.5914467633
 10
956.3662423278
 20
287.0832625187
 10
956.6741817497
 20
290.5885812102
 10
956.7126927141
 20
292.3434929726
  0
LWPOLYLINE
  5
329
330
1F
100
AcDbEntity
  8
0
  6
Continuous
 62
     7
370
    15
100
AcDbPolyline
 90
       17
 70
   128
 43
0.0
 10
716.7126927141
 20
292.3434929726
 10
716.7512036785
 20
290.5885812102
 10
717.0591431004
 20
287.0832625187
 10
717.674231468
 20
283.5914467633
 10
718.5948898584
 20
280.122097385
 10
719.8187549547
 20
276.6841201539
 10
721.3426851126
 20
273.2863403083
 10
723.1627684255
 20
269.9374799002
 10
725.2743327654
 20
266.6461354064
 10
727.6719577771
 20
263.4207556608
 10
730.3494887915
 20
260.2696201671
 10
733.3000526249
 20
257.2008178449
 10
736.5160752222
 20
254.2222262658
 10
739.9893010996
 20
251.3414914315
 10
743.7108145361
 20
248.5660081471
 10
747.67106246
 20
245.9029010385
 10
751.8598789717
 20
243.3590062632
  0
LWPOLYLINE
  5
32A
330
1F
100
AcDbEntity
  8
0
  6
Continuous
 62
     7
370
    15
100
AcDbPolyline
 90
       32
 70
   128
 43
0.0
 10
920.164850708
 20
242.5501607826
 10
916.894137586
 20
240.7327103132
 10
912.3690614646
 20
238.4344227086
 10
907.6466065154
 20
236.2725171896
 10
902.7390930843
 20
234.2526339208
 10
897.6593243134
 20
232.3800425471
 10
892.4205527394
 20
230.6596284455
 10
887.0364457192
 20
229.09587998
 10
881.5210497734
 20
227.6928767917
 10
875.8887539401
 20
226.4542791559
 10
870.1542522362
 20
225.3833184323
 10
864.3325053218
 20
224.4827886352
 10
858.4387014698
 20
223.755039144
 10
852.4882169417
 20
223.201968574
 10
846.4965758721
 20
222.8250198232
 10
840.4794097684
 20
222.6251763078
 10
834.45241673
 20
222.6029593968
 10
828.4313204936
 20
222.7584270515
 10
822.4318294117
 20
223.0911736746
 10
816.4695954717
 20
223.6003311681
 10
810.560173461
 20
224.2845711983
 10
804.718980387
 20
225.1421086611
 10
798.9612552554
 20
226.170706339
 10
793.3020193138
 20
227.3676807383
 10
787.7560368626
 20
228.7299090894
 10
782.3377767366
 20
230.2538374941
 10
777.061374558
 20
231.9354901971
 10
771.9405958576
 20
233.7704799585
 10
766.9888001623
 20
235.7540194996
 10
762.2189061416
 20
237.8809339923
 10
757.6433579046
 20
240.1456745593
 10
753.2740925341
 20
242.5423327513
  0
LWPOLYLINE
  5
32B
330
1F
100
AcDbEntity
  8
0
  6
Continuous
 62
     7
370
    15
100
AcDbPolyline
 90
       70
 70
   128
 43
0.0
 10
902.4736233644
 20
349.0869088457
 10
898.5757800924
 20
351.2109766778
 10
894.4724338653
 20
353.2018793777
 10
890.1772155869
 20
355.0530033669
 10
885.7043935401
 20
356.7581993976
 10
881.0688259901
 20
358.31180298
 10
876.285911826
 20
359.7086531994
 10
871.3715394078
 20
360.9441098597
 10
866.3420337864
 20
362.0140688982
 10
861.2141024736
 20
362.9149760185
 10
856.0047799416
 20
363.6438384979
 10
850.7313710359
 20
364.1982351284
 10
845.4113934907
 20
364.5763242602
 10
840.0625197363
 20
364.7768499192
 10
834.7025181934
 20
364.7991459794
 10
829.3491942481
 20
364.6431383754
 10
824.0203311042
 20
364.3093453489
 10
818.7336307091
 20
363.7988757267
 10
813.5066549499
 20
363.1134252376
 10
808.3567673145
 20
362.2552708791
 10
803.3010752116
 20
361.2272633538
 10
798.3563731419
 20
360.0328175992
 10
793.5390869086
 20
358.675901444
 10
788.8652190519
 20
357.1610224273
 10
784.350295691
 20
355.4932128247
 10
780.009314947
 20
353.6780129321
 10
775.8566971216
 20
351.721452661
 10
771.9062367936
 20
349.6300315078
 10
768.1710569947
 20
347.4106969632
 10
764.6635656168
 20
345.0708214335
 10
761.3954141934
 20
342.6181777497
 10
758.377459195
 20
340.0609133477
 10
755.6197259644
 20
337.4075232025
 10
753.1313754142
 20
334.6668216094
 10
750.9206735946
 20
331.8479129035
 10
748.9949642348
 20
328.9601612159
 10
747.3606443476
 20
326.0131593675
 10
746.0231429793
 20
323.0166970019
 10
744.986903175
 20
319.9807280657
 10
744.255367219
 20
316.9153377426
 10
743.8309652003
 20
313.8307089508
 10
743.7151069396
 20
310.7370885171
 10
743.9081773066
 20
307.6447531373
 10
744.4095349407
 20
304.5639752386
 10
745.2175143824
 20
301.5049888554
 10
746.3294316052
 20
298.4779556328
 10
747.741592932
 20
295.4929310708
 10
749.4493073048
 20
292.5598311207
 10
751.4469018682
 20
289.6883992457
 10
753.727740814
 20
286.8881740536
 10
756.2842474246
 20
284.1684576109
 10
759.107929242
 20
281.5382845422
 10
762.1894062793
 20
279.0063920179
 10
765.5184421796
 20
276.5811907303
 10
769.0839782206
 20
274.2707369542
 10
772.8741700499
 20
272.0827057847
 10
776.8764270315
 20
270.0243656413
 10
781.0774540703
 20
268.1025541229
 10
785.4632957768
 20
266.3236552942
 10
790.019382826
 20
264.6935784781
 10
794.7305803549
 20
263.217738626
 10
799.5812382391
 20
261.9010383294
 10
804.5552430809
 20
260.7478515342
 10
809.6360717365
 20
259.762009011
 10
814.8068462039
 20
258.9467856296
 10
820.0503896905
 20
258.30488948
 10
825.3492836721
 20
257.8384528767
 10
830.6859257557
 20
257.5490252751
 10
836.0425881531
 20
257.4375681247
 10
836.3309345848
 20
257.4366267545
  0
LWPOLYLINE
  5
32C
330
1F
100
AcDbEntity
  8
0
  6
Continuous
 62
     7
370
    15
100
AcDbPolyline
 90
       42
 70
   128
 43
0.0
 10
837.0944508434
 20
257.4366267545
 10
841.4014765704
 20
257.5044516749
 10
846.7447893193
 20
257.7494537453
 10
852.0547764522
 20
258.1717604637
 10
857.3137987258
 20
258.7699689695
 10
862.5043861969
 20
259.5420920743
 10
867.6092962561
 20
260.4855648628
 10
872.6115709055
 20
261.5972532133
 10
877.4945930917
 20
262.8734642088
 10
882.2421419061
 20
264.3099584048
 10
886.8384464691
 20
265.901963912
 10
891.2682383189
 20
267.6441922482
 10
895.5168021327
 20
269.5308559062
 10
899.5700246087
 20
271.5556875789
 10
903.4144413495
 20
273.7119609792
 10
907.0372815892
 20
275.9925131837
 10
910.4265106169
 20
278.3897684273
 10
913.5708697546
 20
280.8957632692
 10
916.4599137575
 20
283.5021730464
 10
919.084045512
 20
286.200339528
 10
921.4345479162
 20
288.9812996761
 10
923.5036128375
 20
291.8358154208
 10
925.2843670504
 20
294.7544043479
 10
926.7708950684
 20
297.7273711985
 10
927.958258795
 20
300.7448400756
 10
928.8425139272
 20
303.7967872512
 10
929.4207230585
 20
306.8730744636
 10
929.6909654363
 20
309.963482596
 10
929.6523433425
 20
313.0577456235
 10
929.3049850758
 20
316.1455847154
 10
928.6500445256
 20
319.2167423808
 10
927.6896973384
 20
322.2610165429
 10
926.427133691
 20
325.2682944289
 10
924.8665476929
 20
328.2285861642
 10
923.0131234538
 20
331.1320579573
 10
920.8730178627
 20
333.9690647669
 10
918.4533401351
 20
336.7301823418
 10
915.7621281971
 20
339.406238527
 10
912.808321984
 20
341.9883437329
 10
909.6017337432
 20
344.4679204658
 10
906.1530154382
 20
346.8367318211
 10
902.4736233644
 20
349.0869088457
  0
LWPOLYLINE
  5
32D
330
1F
100
AcDbEntity
  8
0
  6
Continuous
 62
     7
370
    15
100
AcDbPolyline
 90
       27
 70
   128
 43
0.0
 10
903.8878369268
 20
348.2702353338
 10
907.6132303505
 20
345.9931211931
 10
911.1073609573
 20
343.5969442309
 10
914.3588316193
 20
341.0895202785
 10
917.3570367151
 20
338.4790280315
 10
920.092196723
 20
335.7739823732
 10
922.5553901194
 20
332.9832066001
 10
924.7385824794
 20
330.1158036428
 10
926.6346526834
 20
327.1811263737
 10
928.2374161445
 20
324.1887471001
 10
929.5416449814
 20
321.1484263413
 10
930.5430850706
 20
318.0700809915
 10
931.2384699229
 20
314.9637519736
 10
931.6255313373
 20
311.839571487
 10
931.7030068
 20
308.7077299592
 10
931.4706436021
 20
305.5784428063
 10
930.929199664
 20
302.4619171125
 10
930.0804410634
 20
299.3683183369
 10
928.9271362744
 20
296.3077371557
 10
927.4730471374
 20
293.2901565485
 10
925.7229165891
 20
290.325419236
 10
923.6824531914
 20
287.4231955752
 10
921.358312512
 20
284.5929520164
 10
918.7580754145
 20
281.8439202258
 10
915.8902233321
 20
279.1850669737
 10
912.7641106019
 20
276.6250648868
 10
910.0249913383
 20
274.6124141026
  0
LWPOLYLINE
  5
32E
330
1F
100
AcDbEntity
  8
0
  6
Continuous
 62
     7
370
    15
100
AcDbPolyline
 90
       14
 70
   128
 43
0.0
 10
902.5704952149
 20
269.9656089313
 10
901.942185591
 20
269.6198931253
 10
897.8929068829
 20
267.5351717061
 10
893.6440710327
 20
265.5873009889
 10
889.2095368597
 20
263.7826345232
 10
884.6037688926
 20
262.1270587558
 10
879.8417901894
 20
260.625973831
 10
874.9391333346
 20
259.2842759756
 10
869.911789776
 20
258.1063415292
 10
864.7761576633
 20
257.0960126691
 10
859.548988361
 20
256.256584878
 10
854.2473318089
 20
255.590796195
 10
848.8884809086
 20
255.1008182844
 10
844.8543060104
 20
254.850288631
  0
LWPOLYLINE
  5
32F
330
1F
100
AcDbEntity
  8
0
  6
Continuous
 62
     7
370
    15
100
AcDbPolyline
 90
       14
 70
   128
 43
0.0
 10
828.5710794178
 20
254.850288631
 10
827.2323212514
 20
254.9222803642
 10
821.8514185353
 20
255.3237174946
 10
816.5189902066
 20
255.9018365525
 10
811.2524295381
 20
256.6547518338
 10
806.0689149562
 20
257.5800074852
 10
800.9853540079
 20
258.6745855153
 10
796.0183282125
 20
259.9349156378
 10
791.1840389757
 20
261.3568869181
 10
786.4982547441
 20
262.9358611812
 10
781.976259572
 20
264.6666881413
 10
777.6328032678
 20
266.5437222007
 10
773.482053283
 20
268.5608408644
 10
770.8548902133
 20
269.9656089313
  0
LWPOLYLINE
  5
330
330
1F
100
AcDbEntity
  8
0
  6
Continuous
 62
     7
370
    15
100
AcDbPolyline
 90
       28
 70
   128
 43
0.0
 10
763.4003940899
 20
274.6124141026
 10
762.3180244709
 20
275.3847558134
 10
759.0665538089
 20
277.8921797659
 10
756.068348713
 20
280.5026720128
 10
753.3331887052
 20
283.2077176712
 10
750.8699953088
 20
285.9984934443
 10
748.6868029488
 20
288.8658964016
 10
746.7907327448
 20
291.8005736707
 10
745.1879692837
 20
294.7929529442
 10
743.8837404468
 20
297.8332737031
 10
742.8823003576
 20
300.9116190528
 10
742.1869155053
 20
304.0179480708
 10
741.7998540909
 20
307.1421285573
 10
741.7223786282
 20
310.2739700851
 10
741.9547418261
 20
313.403257238
 10
742.4961857642
 20
316.5197829318
 10
743.3449443648
 20
319.6133817074
 10
744.4982491538
 20
322.6739628887
 10
745.9523382908
 20
325.6915434959
 10
747.7024688391
 20
328.6562808084
 10
749.7429322368
 20
331.5585044692
 10
752.0670729162
 20
334.388748028
 10
754.6673100136
 20
337.1377798186
 10
757.5351620961
 20
339.7966330707
 10
760.6612748263
 20
342.3566351576
 10
764.0354514741
 20
344.8094358846
 10
767.6466861767
 20
347.1470347256
 10
769.5266333122
 20
348.2639331051
  0
LWPOLYLINE
  5
331
330
1F
100
AcDbEntity
  8
0
  6
Continuous
 62
     7
370
    15
100
AcDbPolyline
 90
       92
 70
   128
 43
0.0
 10
903.8878369268
 20
132.724693006
 10
903.9973517162
 20
136.4496300774
 10
904.3253741965
 20
140.2832592118
 10
904.8703411912
 20
144.2073114204
 10
905.6296556844
 20
148.2030868075
 10
906.5996991968
 20
152.2515436837
 10
907.7758490292
 20
156.3333893084
 10
909.1525002921
 20
160.4291718282
 10
910.7230926154
 20
164.5193729743
 10
912.4801414112
 20
168.5845010756
 10
914.4152735421
 20
172.6051839453
 10
916.519267222
 20
176.5622611986
 10
918.7820959631
 20
180.4368755604
 10
921.1929763558
 20
184.2105627287
 10
923.7404194571
 20
187.8653393656
 10
926.4122855406
 20
191.3837887961
 10
929.1958419477
 20
194.7491440063
 10
932.0778237644
 20
197.9453675462
 10
935.0444970349
 20
200.9572279549
 10
938.0817242101
 20
203.7703723461
 10
941.1750315193
 20
206.3713948056
 10
944.3096779446
 20
208.7479002769
 10
947.4707254681
 20
210.8885636291
 10
950.643110259
 20
212.7831836267
 10
953.811714459
 20
214.4227315423
 10
956.9614382261
 20
215.7993941837
 10
960.0772716921
 20
216.9066111263
 10
963.1443664917
 20
217.7391059773
 10
966.1481065215
 20
218.2929115195
 10
969.0741775922
 20
218.5653886173
 10
971.9086356427
 20
218.5552387933
 10
974.6379731895
 20
218.262510416
 10
977.2491836964
 20
217.6885984695
 10
979.7298235561
 20
216.8362379054
 10
982.06807139
 20
215.7094906101
 10
984.2527843824
 20
214.3137260476
 10
986.2735513809
 20
212.6555956716
 10
988.1207425106
 20
210.7430012284
 10
989.7855550644
 20
208.5850571017
 10
991.2600554525
 20
206.1920468777
 10
992.537217009
 20
203.5753743402
 10
993.6109534774
 20
200.7475091252
 10
994.4761480145
 20
197.7219272984
 10
995.1286775744
 20
194.5130471351
 10
995.5654325565
 20
191.1361604104
 10
995.7843316244
 20
187.6073595276
 10
995.7843316244
 20
183.9434608297
 10
995.5654325565
 20
180.1619244626
 10
995.1286775744
 20
176.2807711693
 10
994.4761480145
 20
172.3184964126
 10
993.6109534774
 20
168.2939822361
 10
992.537217009
 20
164.2264072827
 10
991.2600554525
 20
160.1351553993
 10
989.7855550644
 20
156.0397232644
 10
988.1207425106
 20
151.9596274771
 10
986.2735513809
 20
147.9143115519
 10
984.2527843824
 20
143.9230532614
 10
982.06807139
 20
140.004872769
 10
979.7298235561
 20
136.1784419891
 10
977.2491836964
 20
132.4619956068
 10
974.6379731895
 20
128.8732441816
 10
971.9086356427
 20
125.4292897485
 10
969.0741775922
 20
122.1465443185
 10
966.1481065215
 20
119.0406516688
 10
963.1443664917
 20
116.126412792
 10
960.0772716921
 20
113.4177153637
 10
956.9614382261
 20
110.9274675607
 10
953.811714459
 20
108.6675365476
 10
950.643110259
 20
106.6486919251
 10
947.4707254681
 20
104.8805544071
 10
944.3096779446
 20
103.371549974
 10
941.1750315193
 20
102.1288697192
 10
938.0817242101
 20
101.1584355801
 10
935.0444970349
 20
100.4648721171
 10
932.0778237644
 20
100.0514844762
 10
929.1958419477
 20
99.9202426376
 10
926.4122855406
 20
100.0717720285
 10
923.7404194571
 20
100.5053505422
 10
921.1929763558
 20
101.2189119799
 10
918.7820959631
 20
102.2090558961
 10
916.519267222
 20
103.4710638044
 10
914.4152735421
 20
104.9989216622
 10
912.4801414112
 20
106.7853485311
 10
910.7230926154
 20
108.8218312736
 10
909.1525002921
 20
111.0986651219
 10
907.7758490292
 20
113.6049999259
 10
906.5996991968
 20
116.3288918589
 10
905.6296556844
 20
119.2573603354
 10
904.8703411912
 20
122.3764498694
 10
904.3253741965
 20
125.671296579
 10
903.9973517162
 20
129.126199019
 10
903.8878369268
 20
132.724693006
  0
LWPOLYLINE
  5
332
330
1F
100
AcDbEntity
  8
0
  6
Continuous
 62
     7
370
    15
100
AcDbPolyline
 90
       78
 70
   128
 43
0.0
 10
983.260573115
 20
178.5455982821
 10
983.1494014495
 20
175.336665473
 10
982.816626282
 20
172.0207315094
 10
982.2644621763
 20
168.6198633848
 10
981.4965836936
 20
165.1566933154
 10
980.5181009383
 20
161.6542681267
 10
979.3355255518
 20
158.1358958804
 10
977.9567273782
 20
154.6249907633
 10
976.3908820918
 20
151.1449172697
 10
974.6484101348
 20
147.7188347146
 10
972.7409073703
 20
144.3695431121
 10
970.6810679147
 20
141.1193314452
 10
968.4825996597
 20
137.9898293363
 10
966.1601330488
 20
135.0018631056
 10
963.729123714
 20
132.1753171755
 10
961.2057496215
 20
129.5290017426
 10
958.6068034095
 20
127.0805275997
 10
955.9495806362
 20
124.8461889381
 10
953.2517646809
 20
122.840854913
 10
950.5313090634
 20
121.0778706915
 10
947.8063179672
 20
119.5689686428
 10
945.0949257584
 20
118.3241902609
 10
942.4151763049
 20
117.3518193407
 10
939.784902897
 20
116.6583268502
 10
937.2216095703
 20
116.2483278676
 10
934.7423546191
 20
116.1245508683
 10
932.363637076
 20
116.2878195679
 10
930.1012869137
 20
116.7370474401
 10
927.9703596994
 20
117.4692449477
 10
925.985036402
 20
118.4795394368
 10
924.1585290206
 20
119.7612075645
 10
922.5029926604
 20
121.3057200409
 10
921.0294446428
 20
123.10279839
 10
919.7476911867
 20
125.1404833522
 10
918.6662621499
 20
127.4052144701
 10
917.7923542642
 20
129.8819203318
 10
917.1317832423
 20
132.5541188685
 10
916.6889450755
 20
135.4040270397
 10
916.4667867787
 20
138.4126791768
 10
916.4667867787
 20
141.5600531961
 10
916.6889450755
 20
144.825203843
 10
917.1317832423
 20
148.1864020784
 10
917.7923542642
 20
151.6212796828
 10
918.6662621499
 20
155.1069781124
 10
919.7476911867
 20
158.6203006192
 10
921.0294446428
 20
162.1378666216
 10
922.5029926604
 20
165.6362672983
 10
924.1585290206
 20
169.0922213699
 10
925.985036402
 20
172.4827300322
 10
927.9703596994
 20
175.7852300096
 10
930.1012869137
 20
178.9777437095
 10
932.363637076
 20
182.0390254799
 10
934.7423546191
 20
184.9487029959
 10
937.2216095703
 20
187.6874128335
 10
939.784902897
 20
190.2369293307
 10
942.4151763049
 20
192.5802858758
 10
945.0949257584
 20
194.7018878177
 10
947.8063179672
 20
196.5876162454
 10
950.5313090634
 20
198.2249219474
 10
953.2517646809
 20
199.6029089244
 10
955.9495806362
 20
200.7124069003
 10
958.6068034095
 20
201.5460323493
 10
961.2057496215
 20
202.0982376315
 10
963.729123714
 20
202.3653479118
 10
966.1601330488
 20
202.3455856155
 10
968.4825996597
 20
202.0390822573
 10
970.6810679147
 20
201.4478775664
 10
972.7409073703
 20
200.5759059127
 10
974.6484101348
 20
199.4289701235
 10
976.3908820918
 20
198.0147028674
 10
977.9567273782
 20
196.3425158595
 10
979.3355255518
 20
194.4235372286
 10
980.5181009383
 20
192.2705374607
 10
981.4965836936
 20
189.8978444142
 10
982.2644621763
 20
187.3212479697
 10
982.816626282
 20
184.5578949516
 10
983.1494014495
 20
181.6261750182
 10
983.260573115
 20
178.5455982821
  0
LINE
  5
333
330
1F
100
AcDbEntity
  8
0
  6
Continuous
 62
     7
370
    15
100
AcDbLine
 10
827.7126927141
 20
254.5641907324
 30
0.0
 11
827.7126927141
 21
248.5648408449
 31
0.0
  0
LINE
  5
334
330
1F
100
AcDbEntity
  8
0
  6
Continuous
 62
     7
370
    15
100
AcDbLine
 10
836.7126927141
 20
257.5638656762
 30
0.0
 11
827.7126927141
 21
254.5641907324
 31
0.0
  0
LINE
  5
335
330
1F
100
AcDbEntity
  8
0
  6
Continuous
 62
     7
370
    15
100
AcDbLine
 10
845.7126927141
 20
254.5641907324
 30
0.0
 11
836.7126927141
 21
257.5638656762
 31
0.0
  0
LINE
  5
336
330
1F
100
AcDbEntity
  8
0
  6
Continuous
 62
     7
370
    15
100
AcDbLine
 10
845.7126927141
 20
248.5648408449
 30
0.0
 11
845.7126927141
 21
254.5641907324
 31
0.0
  0
LINE
  5
337
330
1F
100
AcDbEntity
  8
0
  6
Continuous
 62
     7
370
    15
100
AcDbLine
 10
836.7126927141
 20
245.5651659011
 30
0.0
 11
845.7126927141
 21
248.5648408449
 31
0.0
  0
LINE
  5
338
330
1F
100
AcDbEntity
  8
0
  6
Continuous
 62
     7
370
    15
100
AcDbLine
 10
827.7126927141
 20
248.5648408449
 30
0.0
 11
836.7126927141
 21
245.5651659011
 31
0.0
  0
SPLINE
  5
339
330
1F
100
AcDbEntity
  8
0
  6
Continuous
 62
     7
370
    15
100
AcDbSpline
210
0.0
220
0.0
230
1.0
 70
     8
 71
     3
 72
    21
 73
    17
 74
     0
 42
0.000000001
 43
0.00000001
 40
0.0
 40
0.0
 40
0.0
 40
0.0
 40
0.0692779533980585
 40
0.1389905720768838
 40
0.2082779522232099
 40
0.2769465547230375
 40
0.3679930319546384
 40
0.4578288365218421
 40
0.5471104137741158
 40
0.6348413174780787
 40
0.7215619240948986
 40
0.8078686719922019
 40
0.871552460656321
 40
0.9348254355364511
 40
0.9985530611397802
 40
1.0
 40
1.0
 40
1.0
 40
1.0
 10
851.6953454653313
 20
167.4934594433868
 30
0.0
 10
851.7658287513361
 20
169.2769502870987
 30
0.0
 10
851.9072375511511
 20
172.8551219925629
 30
0.0
 10
853.0369071776305
 20
178.2331576273715
 30
0.0
 10
854.7883443093222
 20
183.5389938759106
 30
0.0
 10
857.4125110141256
 20
189.2956396073489
 30
0.0
 10
861.034825794987
 20
195.423120909677
 30
0.0
 10
865.749858704383
 20
201.8511241460747
 30
0.0
 10
871.0515744676328
 20
207.9893095831424
 30
0.0
 10
876.8008719371869
 20
213.8318225684905
 30
0.0
 10
882.8651316083752
 20
219.3578620558128
 30
0.0
 10
888.5930604545377
 20
224.0922210061842
 30
0.0
 10
893.8222692517676
 20
228.0885418048427
 30
0.0
 10
898.4518696360063
 20
231.3637847768344
 30
0.0
 10
901.5643622087264
 20
233.4755597720588
 30
0.0
 10
903.0527692850984
 20
234.3784316559124
 30
0.0
 10
903.0858133730237
 20
234.3984762918114
 30
0.0
  0
SPLINE
  5
33A
330
1F
100
AcDbEntity
  8
0
  6
Continuous
 62
     7
370
    15
100
AcDbSpline
210
0.0
220
0.0
230
1.0
 70
     8
 71
     3
 72
    12
 73
     8
 74
     0
 42
0.000000001
 43
0.00000001
 40
0.0
 40
0.0
 40
0.0
 40
0.0
 40
0.034878625256173
 40
0.3345606580447615
 40
0.6364311371598396
 40
0.9422533098000978
 40
1.0
 40
1.0
 40
1.0
 40
1.0
 10
921.2804493831841
 20
243.1943915325788
 30
0.0
 10
921.4431879677561
 20
243.243667143997
 30
0.0
 10
923.0041992617458
 20
243.716325709538
 30
0.0
 10
925.4245622012056
 20
243.9528975393849
 30
0.0
 10
928.3361997422018
 20
243.599565634896
 30
0.0
 10
930.1028307627057
 20
242.8864952947692
 30
0.0
 10
930.7872564300907
 20
242.0573937408085
 30
0.0
 10
930.8959657311858
 20
241.9257051517285
 30
0.0
  0
SPLINE
  5
33B
330
1F
100
AcDbEntity
  8
0
  6
Continuous
 62
     7
370
    15
100
AcDbSpline
210
0.0
220
0.0
230
1.0
 70
     8
 71
     3
 72
    15
 73
    11
 74
     0
 42
0.000000001
 43
0.00000001
 40
0.0
 40
0.0
 40
0.0
 40
0.0
 40
0.0534515179242333
 40
0.1854879502093077
 40
0.3183319241421844
 40
0.4531881579842991
 40
0.5891333873368275
 40
0.7251416879484468
 40
0.8627426613578495
 40
1.0
 40
1.0
 40
1.0
 40
1.0
 10
868.7977934463598
 20
134.5326380926431
 30
0.0
 10
868.2472755352011
 20
134.9298133682563
 30
0.0
 10
866.3368632053009
 20
136.3080946707958
 30
0.0
 10
863.4100357587398
 20
139.1567824014606
 30
0.0
 10
860.0637653788806
 20
143.0310787126755
 30
0.0
 10
857.177599821218
 20
147.3408300275179
 30
0.0
 10
854.8042925743737
 20
151.9993229876222
 30
0.0
 10
853.0464660820314
 20
156.9621560655606
 30
0.0
 10
851.9094676138568
 20
162.1429562141059
 30
0.0
 10
851.7666600009512
 20
165.7114455052819
 30
0.0
 10
851.6953454653313
 20
167.4934594433868
 30
0.0
  0
LWPOLYLINE
  5
33C
330
1F
100
AcDbEntity
  8
0
  6
Continuous
 62
     7
370
    15
100
AcDbPolyline
 90
       22
 70
   128
 43
0.0
 10
766.0020145954
 20
111.0780677371
 10
770.0410250546
 20
108.8725701644
 10
774.2861138178
 20
106.8000631926
 10
778.7241595588
 20
104.8669528221
 10
783.3414445325
 20
103.0792141862
 10
788.1236969759
 20
101.4423730826
 10
793.0561352205
 20
99.9614888933
 10
798.1235133825
 20
98.6411389466
 10
803.3101684863
 20
97.4854043683
 10
808.6000688783
 20
96.497857468
 10
813.9768637795
 20
95.6815506963
 10
819.4239338251
 20
95.0390072109
 10
824.9244424335
 20
94.5722130767
 10
830.4613878481
 20
94.2826111278
 10
836.0176556877
 20
94.1710965071
 10
841.5760718469
 20
94.2380138999
 10
847.11945558
 20
94.4831564684
 10
852.6306726054
 20
94.905766491
 10
858.0926880672
 20
95.5045377043
 10
863.4886191886
 20
96.2776193408
 10
868.8017874557
 20
97.2226218495
 10
873.1741105
 20
98.1438264988
  0
LWPOLYLINE
  5
33D
330
1F
100
AcDbEntity
  8
0
  6
Continuous
 62
     7
370
    15
100
AcDbPolyline
 90
       16
 70
   128
 43
0.0
 10
736.7126927141
 20
151.8984733282
 10
736.7151081256
 20
151.4972369934
 10
736.9082780448
 20
148.2896718446
 10
737.4099376903
 20
145.0932612943
 10
738.2185364607
 20
141.9178852644
 10
739.3315750236
 20
138.7733586602
 10
740.7456130406
 20
135.6694010334
 10
742.4562798012
 20
132.6156065389
 10
744.4582877325
 20
129.6214142806
 10
746.7454487427
 20
126.6960791352
 10
749.3106933482
 20
123.848643146
 10
752.146092525
 20
121.0879075743
 10
755.2428822166
 20
118.4224056958
 10
758.5914904237
 20
115.8603764238
 10
762.18156679
 20
113.4097388442
 10
766.0020145954
 20
111.0780677371
  0
LINE
  5
33E
330
1F
100
AcDbEntity
  8
0
  6
Continuous
 62
     7
370
    15
100
AcDbLine
 10
836.7126927141
 20
245.5651659011
 30
0.0
 11
836.7126927141
 21
241.4824618417
 31
0.0
  0
LINE
  5
33F
330
1F
100
AcDbEntity
  8
0
  6
Continuous
 62
     7
370
    15
100
AcDbLine
 10
845.7126927141
 20
248.5648408449
 30
0.0
 11
845.7126927141
 21
244.4821367855
 31
0.0
  0
LINE
  5
340
330
1F
100
AcDbEntity
  8
0
  6
Continuous
 62
     7
370
    15
100
AcDbLine
 10
827.7126927141
 20
248.5648408449
 30
0.0
 11
827.7126927141
 21
244.4821367855
 31
0.0
  0
LWPOLYLINE
  5
341
330
1F
100
AcDbEntity
  8
0
  6
Continuous
 62
     7
370
    15
100
AcDbPolyline
 90
       20
 70
   128
 43
0.0
 10
980.4321459903
 20
178.5455982821
 10
980.3228614412
 20
181.5336902671
 10
979.9957543183
 20
184.3751932993
 10
979.4530590948
 20
187.0506970319
 10
978.6984829295
 20
189.5419250614
 10
977.7371803427
 20
191.8318597742
 10
976.5757180058
 20
193.9048585944
 10
975.2220298843
 20
195.746760838
 10
973.6853630406
 20
197.3449844449
 10
971.9762144675
 20
198.6886119275
 10
970.1062593827
 20
199.7684649475
 10
968.0882714757
 20
200.5771670139
 10
965.9360356499
 20
201.1091938715
 10
963.6642538586
 20
201.3609112375
 10
961.2884446747
 20
201.3305996269
 10
958.8248372842
 20
201.0184660989
 10
956.2902606235
 20
200.426642842
 10
953.7020284213
 20
199.559172609
 10
951.077820928
 20
198.4219811013
 10
949.1297119535
 20
197.414863596
  0
LWPOLYLINE
  5
342
330
1F
100
AcDbEntity
  8
0
  6
Continuous
 62
     7
370
    15
100
AcDbPolyline
 90
       39
 70
   128
 43
0.0
 10
916.4466259929
 20
140.7999638232
 10
916.5482668419
 20
138.6150392371
 10
916.8753739649
 20
135.7735362048
 10
917.4180691883
 20
133.0980324722
 10
918.1726453536
 20
130.6068044427
 10
919.1339479404
 20
128.3168697299
 10
920.2954102773
 20
126.2438709097
 10
921.6490983989
 20
124.4019686662
 10
923.1857652426
 20
122.8037450592
 10
924.8949138157
 20
121.4601175767
 10
926.7648689004
 20
120.3802645567
 10
928.7828568075
 20
119.5715624903
 10
930.9350926332
 20
119.0395356326
 10
933.2068744246
 20
118.7878182667
 10
935.5826836084
 20
118.8181298772
 10
938.0462909989
 20
119.1302634052
 10
940.5808676596
 20
119.7220866622
 10
943.1690998618
 20
120.5895568951
 10
945.7933073552
 20
121.7267484029
 10
948.4355641416
 20
123.1258930142
 10
951.077820928
 20
124.7774331528
 10
953.7020284213
 20
126.6700871248
 10
956.2902606235
 20
128.7909261846
 10
958.8248372842
 20
131.1254628507
 10
961.2884446747
 20
133.6577498706
 10
963.6642538586
 20
136.3704891562
 10
965.9360356499
 20
139.2451499476
 10
968.0882714757
 20
142.2620953966
 10
970.1062593827
 20
145.4007167068
 10
971.9762144675
 20
148.6395739119
 10
973.6853630406
 20
151.9565423333
 10
975.2220298843
 20
155.3289637131
 10
976.5757180058
 20
158.7338009938
 10
977.7371803427
 20
162.1477956842
 10
978.6984829295
 20
165.547626739
 10
979.4530590948
 20
168.9100698646
 10
979.9957543183
 20
172.212156165
 10
980.3228614412
 20
175.4313290424
 10
980.4321459903
 20
178.5455982821
  0
SPLINE
  5
343
330
1F
100
AcDbEntity
  8
0
  6
Continuous
 62
     7
370
    15
100
AcDbSpline
210
0.0
220
0.0
230
1.0
 70
     8
 71
     3
 72
    15
 73
    11
 74
     0
 42
0.000000001
 43
0.00000001
 40
0.0
 40
0.0
 40
0.0
 40
0.0
 40
0.12383128773818
 40
0.2478733033551651
 40
0.3736990920108134
 40
0.4969572267768969
 40
0.6216088622438606
 40
0.7493227692613665
 40
0.9386070000399077
 40
1.0
 40
1.0
 40
1.0
 40
1.0
 10
860.2646785523222
 20
165.867785388232
 30
0.0
 10
860.296356276732
 20
164.861162829799
 30
0.0
 10
860.3597656326039
 20
162.8462047093748
 30
0.0
 10
860.8705573960292
 20
159.8498490655227
 30
0.0
 10
861.6720853461162
 20
156.9193570295745
 30
0.0
 10
862.7775867659932
 20
154.0703802115313
 30
0.0
 10
864.1545285270927
 20
151.3075198653149
 30
0.0
 10
866.0858873154299
 20
148.2195547158316
 30
0.0
 10
867.9550489464203
 20
145.6817904135514
 30
0.0
 10
869.4331924443828
 20
144.2088120962973
 30
0.0
 10
869.795202442036
 20
143.8480670956207
 30
0.0
  0
SPLINE
  5
344
330
1F
100
AcDbEntity
  8
0
  6
Continuous
 62
     7
370
    15
100
AcDbSpline
210
0.0
220
0.0
230
1.0
 70
     8
 71
     3
 72
    27
 73
    23
 74
     0
 42
0.000000001
 43
0.00000001
 40
0.0
 40
0.0
 40
0.0
 40
0.0
 40
0.0658573092249375
 40
0.1369165562266941
 40
0.1723092396134863
 40
0.2090188121456396
 40
0.2440939998393524
 40
0.2809909370415932
 40
0.3155076328386606
 40
0.3528079574878666
 40
0.386125220107701
 40
0.4250481503743402
 40
0.4768542017839073
 40
0.5247705573013364
 40
0.5700780759661291
 40
0.6196756578987891
 40
0.6674216610808834
 40
0.7147064540489296
 40
0.7863778491159156
 40
0.8579456935984315
 40
0.9293587875383619
 40
1.0
 40
1.0
 40
1.0
 40
1.0
 10
905.7357018438644
 20
219.4182980336778
 30
0.0
 10
904.375932513114
 20
218.53365953493
 30
0.0
 10
901.5489883785891
 20
216.6945067031554
 30
0.0
 10
897.9074791891785
 20
214.1803220334602
 30
0.0
 10
894.8926937741783
 20
212.0268367069309
 30
0.0
 10
892.6433340362306
 20
210.3758117290782
 30
0.0
 10
890.3794967141015
 20
208.6679599442593
 30
0.0
 10
888.1851952348021
 20
206.9621161276174
 30
0.0
 10
885.9761260591137
 20
205.1904162696048
 30
0.0
 10
883.8769257305213
 20
203.4474356159804
 30
0.0
 10
881.733906425237
 20
201.6031489231441
 30
0.0
 10
879.3664677363785
 20
199.4799857097867
 30
0.0
 10
876.8137231896023
 20
197.059719661388
 30
0.0
 10
874.2706584500843
 20
194.4710532849029
 30
0.0
 10
871.899111329866
 20
191.8682673469917
 30
0.0
 10
869.6839018131403
 20
189.2098086193554
 30
0.0
 10
867.618368850684
 20
186.4519278304447
 30
0.0
 10
865.4679250050696
 20
183.2002831924738
 30
0.0
 10
863.3737477872571
 20
179.376421035672
 30
0.0
 10
861.6157331421992
 20
174.9355574673622
 30
0.0
 10
860.4783147147119
 20
170.4111274868622
 30
0.0
 10
860.3356321747469
 20
167.3767367577325
 30
0.0
 10
860.2646785523223
 20
165.8677853882321
 30
0.0
  0
LINE
  5
345
330
1F
100
AcDbEntity
  8
0
  6
Continuous
 62
     7
370
    15
100
AcDbLine
 10
908.9762851034
 20
263.6924563458
 30
0.0
 11
908.9762851034
 21
259.6097522864
 31
0.0
  0
LINE
  5
346
330
1F
100
AcDbEntity
  8
0
  6
Continuous
 62
     7
370
    15
100
AcDbLine
 10
908.9762851034
 20
263.6924563458
 30
0.0
 11
919.0144807482
 21
265.2452023549
 31
0.0
  0
LINE
  5
347
330
1F
100
AcDbEntity
  8
0
  6
Continuous
 62
     7
370
    15
100
AcDbLine
 10
919.0144807482
 20
265.2452023549
 30
0.0
 11
919.0144807482
 21
261.1624982955
 31
0.0
  0
LINE
  5
348
330
1F
100
AcDbEntity
  8
0
  6
Continuous
 62
     7
370
    15
100
AcDbLine
 10
901.627815875
 20
267.934637334
 30
0.0
 11
908.9762851034
 21
263.6924563458
 31
0.0
  0
LINE
  5
349
330
1F
100
AcDbEntity
  8
0
  6
Continuous
 62
     7
370
    15
100
AcDbLine
 10
904.3175422915
 20
273.7295643313
 30
0.0
 11
901.627815875
 21
267.934637334
 31
0.0
  0
LINE
  5
34A
330
1F
100
AcDbEntity
  8
0
  6
Continuous
 62
     7
370
    15
100
AcDbLine
 10
914.3557379364
 20
275.2823103404
 30
0.0
 11
904.3175422915
 21
273.7295643313
 31
0.0
  0
LINE
  5
34B
330
1F
100
AcDbEntity
  8
0
  6
Continuous
 62
     7
370
    15
100
AcDbLine
 10
921.7042071647
 20
271.0401293522
 30
0.0
 11
914.3557379364
 21
275.2823103404
 31
0.0
  0
LINE
  5
34C
330
1F
100
AcDbEntity
  8
0
  6
Continuous
 62
     7
370
    15
100
AcDbLine
 10
919.0144807482
 20
265.2452023549
 30
0.0
 11
921.7042071647
 21
271.0401293522
 31
0.0
  0
LINE
  5
34D
330
1F
100
AcDbEntity
  8
0
  6
Continuous
 62
     7
370
    15
100
AcDbLine
 10
759.0696474918
 20
275.2823103404
 30
0.0
 11
751.7211782635
 21
271.0401293522
 31
0.0
  0
LINE
  5
34E
330
1F
100
AcDbEntity
  8
0
  6
Continuous
 62
     7
370
    15
100
AcDbLine
 10
769.1078431367
 20
273.7295643313
 30
0.0
 11
759.0696474918
 21
275.2823103404
 31
0.0
  0
LINE
  5
34F
330
1F
100
AcDbEntity
  8
0
  6
Continuous
 62
     7
370
    15
100
AcDbLine
 10
771.7975695532
 20
267.934637334
 30
0.0
 11
769.1078431367
 21
273.7295643313
 31
0.0
  0
LINE
  5
350
330
1F
100
AcDbEntity
  8
0
  6
Continuous
 62
     7
370
    15
100
AcDbLine
 10
764.4491003248
 20
263.6924563458
 30
0.0
 11
771.7975695532
 21
267.934637334
 31
0.0
  0
LINE
  5
351
330
1F
100
AcDbEntity
  8
0
  6
Continuous
 62
     7
370
    15
100
AcDbLine
 10
754.41090468
 20
265.2452023549
 30
0.0
 11
764.4491003248
 21
263.6924563458
 31
0.0
  0
LINE
  5
352
330
1F
100
AcDbEntity
  8
0
  6
Continuous
 62
     7
370
    15
100
AcDbLine
 10
751.7211782635
 20
271.0401293522
 30
0.0
 11
754.41090468
 21
265.2452023549
 31
0.0
  0
LINE
  5
353
330
1F
100
AcDbEntity
  8
0
  6
Continuous
 62
     7
370
    15
100
AcDbLine
 10
754.41090468
 20
265.2452023549
 30
0.0
 11
754.41090468
 21
261.1624982955
 31
0.0
  0
LINE
  5
354
330
1F
100
AcDbEntity
  8
0
  6
Continuous
 62
     7
370
    15
100
AcDbLine
 10
764.4491003248
 20
263.6924563458
 30
0.0
 11
764.4491003248
 21
259.6097522864
 31
0.0
  0
LINE
  5
355
330
1F
100
AcDbEntity
  8
0
  6
Continuous
 62
     7
370
    15
100
AcDbLine
 10
901.627815875
 20
267.934637334
 30
0.0
 11
901.627815875
 21
263.8519332746
 31
0.0
  0
LINE
  5
356
330
1F
100
AcDbEntity
  8
0
  6
Continuous
 62
     7
370
    15
100
AcDbLine
 10
771.7975695532
 20
267.934637334
 30
0.0
 11
771.7975695532
 21
263.8519332746
 31
0.0
  0
LINE
  5
357
330
1F
100
AcDbEntity
  8
0
  6
Continuous
 62
     7
370
    15
100
AcDbLine
 10
921.7042071647
 20
271.0401293522
 30
0.0
 11
921.7042071647
 21
266.9574252928
 31
0.0
  0
LINE
  5
358
330
1F
100
AcDbEntity
  8
0
  6
Continuous
 62
     7
370
    15
100
AcDbLine
 10
751.7211782635
 20
271.0401293522
 30
0.0
 11
751.7211782635
 21
266.9574252928
 31
0.0
  0
LINE
  5
359
330
1F
100
AcDbEntity
  8
0
  6
Continuous
 62
     7
370
    15
100
AcDbLine
 10
937.5165402914
 20
307.5614238609
 30
0.0
 11
947.9088451368
 21
307.5614238609
 31
0.0
  0
LINE
  5
35A
330
1F
100
AcDbEntity
  8
0
  6
Continuous
 62
     7
370
    15
100
AcDbLine
 10
932.3203878687
 20
312.7570132697
 30
0.0
 11
937.5165402914
 21
307.5614238609
 31
0.0
  0
LINE
  5
35B
330
1F
100
AcDbEntity
  8
0
  6
Continuous
 62
     7
370
    15
100
AcDbLine
 10
937.5165402914
 20
317.9526026785
 30
0.0
 11
932.3203878687
 21
312.7570132697
 31
0.0
  0
LINE
  5
35C
330
1F
100
AcDbEntity
  8
0
  6
Continuous
 62
     7
370
    15
100
AcDbLine
 10
947.9088451368
 20
317.9526026785
 30
0.0
 11
937.5165402914
 21
317.9526026785
 31
0.0
  0
LINE
  5
35D
330
1F
100
AcDbEntity
  8
0
  6
Continuous
 62
     7
370
    15
100
AcDbLine
 10
953.1049975595
 20
312.7570132697
 30
0.0
 11
947.9088451368
 21
317.9526026785
 31
0.0
  0
LINE
  5
35E
330
1F
100
AcDbEntity
  8
0
  6
Continuous
 62
     7
370
    15
100
AcDbLine
 10
947.9088451368
 20
307.5614238609
 30
0.0
 11
953.1049975595
 21
312.7570132697
 31
0.0
  0
LINE
  5
35F
330
1F
100
AcDbEntity
  8
0
  6
Continuous
 62
     7
370
    15
100
AcDbLine
 10
937.5165402914
 20
307.5614238609
 30
0.0
 11
937.5165402914
 21
303.4787198015
 31
0.0
  0
LINE
  5
360
330
1F
100
AcDbEntity
  8
0
  6
Continuous
 62
     7
370
    15
100
AcDbLine
 10
947.9088451368
 20
307.5614238609
 30
0.0
 11
947.9088451368
 21
303.4787198015
 31
0.0
  0
LINE
  5
361
330
1F
100
AcDbEntity
  8
0
  6
Continuous
 62
     7
370
    15
100
AcDbLine
 10
725.5165402914
 20
307.5614238609
 30
0.0
 11
725.5165402914
 21
303.4787198015
 31
0.0
  0
LINE
  5
362
330
1F
100
AcDbEntity
  8
0
  6
Continuous
 62
     7
370
    15
100
AcDbLine
 10
725.5165402914
 20
307.5614238609
 30
0.0
 11
735.9088451368
 21
307.5614238609
 31
0.0
  0
LINE
  5
363
330
1F
100
AcDbEntity
  8
0
  6
Continuous
 62
     7
370
    15
100
AcDbLine
 10
735.9088451368
 20
307.5614238609
 30
0.0
 11
735.9088451368
 21
303.4787198015
 31
0.0
  0
LINE
  5
364
330
1F
100
AcDbEntity
  8
0
  6
Continuous
 62
     7
370
    15
100
AcDbLine
 10
735.9088451368
 20
317.9526026785
 30
0.0
 11
725.5165402914
 21
317.9526026785
 31
0.0
  0
LINE
  5
365
330
1F
100
AcDbEntity
  8
0
  6
Continuous
 62
     7
370
    15
100
AcDbLine
 10
741.1049975595
 20
312.7570132697
 30
0.0
 11
735.9088451368
 21
317.9526026785
 31
0.0
  0
LINE
  5
366
330
1F
100
AcDbEntity
  8
0
  6
Continuous
 62
     7
370
    15
100
AcDbLine
 10
735.9088451368
 20
307.5614238609
 30
0.0
 11
741.1049975595
 21
312.7570132697
 31
0.0
  0
LINE
  5
367
330
1F
100
AcDbEntity
  8
0
  6
Continuous
 62
     7
370
    15
100
AcDbLine
 10
720.3203878687
 20
312.7570132697
 30
0.0
 11
725.5165402914
 21
307.5614238609
 31
0.0
  0
LINE
  5
368
330
1F
100
AcDbEntity
  8
0
  6
Continuous
 62
     7
370
    15
100
AcDbLine
 10
725.5165402914
 20
317.9526026785
 30
0.0
 11
720.3203878687
 21
312.7570132697
 31
0.0
  0
LINE
  5
369
330
1F
100
AcDbEntity
  8
0
  6
Continuous
 62
     7
370
    15
100
AcDbLine
 10
953.1049975595
 20
312.7570132697
 30
0.0
 11
953.1049975595
 21
308.6743092103
 31
0.0
  0
LINE
  5
36A
330
1F
100
AcDbEntity
  8
0
  6
Continuous
 62
     7
370
    15
100
AcDbLine
 10
932.3203878687
 20
312.7570132697
 30
0.0
 11
932.3203878687
 21
308.6743092103
 31
0.0
  0
LINE
  5
36B
330
1F
100
AcDbEntity
  8
0
  6
Continuous
 62
     7
370
    15
100
AcDbLine
 10
741.1049975595
 20
312.7570132697
 30
0.0
 11
741.1049975595
 21
308.6743092103
 31
0.0
  0
LINE
  5
36C
330
1F
100
AcDbEntity
  8
0
  6
Continuous
 62
     7
370
    15
100
AcDbLine
 10
720.3203878687
 20
312.7570132697
 30
0.0
 11
720.3203878687
 21
308.6743092103
 31
0.0
  0
LWPOLYLINE
  5
36D
330
1F
100
AcDbEntity
  8
0
  6
Continuous
 62
     7
370
    15
100
AcDbPolyline
 90
       22
 70
   128
 43
0.0
 10
873.5433361745
 20
97.2626882693
 10
869.911789776
 20
96.4312607758
 10
864.7761576633
 20
95.4209319157
 10
859.548988361
 20
94.5815041247
 10
854.2473318089
 20
93.9157154417
 10
848.8884809086
 20
93.425737531
 10
843.489915118
 20
93.1131685988
 10
838.0692434366
 20
92.9790281799
 10
832.6441469687
 20
93.0237538125
 10
827.2323212514
 20
93.2471996108
 10
821.8514185353
 20
93.6486367412
 10
816.5189902066
 20
94.2267557991
 10
811.2524295381
 20
94.9796710804
 10
806.0689149562
 20
95.9049267319
 10
800.9853540079
 20
96.9995047619
 10
796.0183282125
 20
98.2598348845
 10
791.1840389757
 20
99.6818061647
 10
786.4982547441
 20
101.2607804278
 10
781.976259572
 20
102.9916073879
 10
777.6328032678
 20
104.8686414473
 10
773.482053283
 20
106.885760111
 10
769.5375485014
 20
109.0363839572
  0
LWPOLYLINE
  5
36E
330
1F
100
AcDbEntity
  8
0
  6
Continuous
 62
     7
370
    15
100
AcDbPolyline
 90
       44
 70
   128
 43
0.0
 10
663.4715313234
 20
242.9397881021
 10
663.5808126503
 20
247.5407810265
 10
663.9083188487
 20
252.2537260798
 10
664.4530376156
 20
257.064055819
 10
665.2132852567
 20
261.9569017904
 10
666.18671189
 20
266.9171404876
 10
667.3703087096
 20
271.9294400971
 10
668.7604172854
 20
276.9783078879
 10
670.3527408717
 20
282.048138099
 10
672.1423576874
 20
287.123260176
 10
674.1237361295
 20
292.1879872071
 10
676.2907518708
 20
297.2266644114
 10
678.6367067899
 20
302.2237175266
 10
681.1543496744
 20
307.1637009476
 10
683.8358986346
 20
312.0313454689
 10
686.6730651563
 20
316.8116054802
 10
689.6570797203
 20
321.4897054718
 10
692.7787189086
 20
326.0511857047
 10
696.0283339135
 20
330.4819469049
 10
699.3958803611
 20
334.7682938434
 10
702.8709493584
 20
338.8969776675
 10
706.4427996662
 20
342.8552368521
 10
710.1003908999
 20
346.6308366449
 10
713.8324176547
 20
350.2121068832
 10
717.6273444497
 20
353.5879780662
 10
721.4734413837
 20
356.7480155693
 10
725.3588203914
 20
359.6824518977
 10
729.2714719891
 20
362.382216877
 10
733.1993023948
 20
364.8389656882
 10
737.1301709098
 20
367.0451046617
 10
741.0519274449
 20
368.9938147482
 10
744.9524500753
 20
370.6790725965
 10
748.8196825092
 20
372.0956691713
 10
752.6416713526
 20
373.2392258537
 10
756.4066030571
 20
374.1062079755
 10
760.1028404346
 20
374.6939357447
 10
763.7189586272
 20
375.0005925284
 10
767.2437804207
 20
375.0252304681
 10
770.666410793
 20
374.7677734093
 10
773.9762705897
 20
374.2290171371
 10
777.163129224
 20
373.4106269161
 10
780.2171362983
 20
372.3151323437
 10
783.1288520519
 20
370.9459195308
 10
784.9670102943
 20
369.8950773221
  0
LWPOLYLINE
  5
36F
330
1F
100
AcDbEntity
  8
0
  6
Continuous
 62
     7
370
    15
100
AcDbPolyline
 90
       30
 70
   128
 43
0.0
 10
734.1937019159
 20
202.112748047
 10
733.1993023948
 20
201.5465813771
 10
729.2714719891
 20
199.4683537317
 10
725.3588203914
 20
197.6506673329
 10
721.4734413837
 20
196.0991405455
 10
717.6273444497
 20
194.8185690496
 10
713.8324176547
 20
193.8129110185
 10
710.1003908999
 20
193.0852748835
 10
706.4427996662
 20
192.6379097261
 10
702.8709493584
 20
192.4721983265
 10
699.3958803611
 20
192.588652889
 10
696.0283339135
 20
192.9869134594
 10
692.7787189086
 20
193.6657490369
 10
689.6570797203
 20
194.6230613798
 10
686.6730651563
 20
195.8558914904
 10
683.8358986346
 20
197.3604287615
 10
681.1543496744
 20
199.1320227547
 10
678.6367067899
 20
201.1651975744
 10
676.2907518708
 20
203.4536687938
 10
674.1237361295
 20
205.9903628794
 10
672.1423576874
 20
208.7674390553
 10
670.3527408717
 20
211.7763135381
 10
668.7604172854
 20
215.0076860693
 10
667.3703087095
 20
218.4515686614
 10
666.18671189
 20
222.0973164709
 10
665.2132852567
 20
225.9336607001
 10
664.4530376156
 20
229.9487434289
 10
663.9083188487
 20
234.1301542666
 10
663.5808126503
 20
238.464968712
 10
663.4715313234
 20
242.9397881021
  0
LWPOLYLINE
  5
370
330
1F
100
AcDbEntity
  8
0
  6
Continuous
 62
     7
370
    15
100
AcDbPolyline
 90
       29
 70
   128
 43
0.0
 10
670.5425991353
 20
242.9397881021
 10
670.6521548142
 20
238.574575572
 10
670.9804645032
 20
234.3500917524
 10
671.5264573244
 20
230.2801160315
 10
672.2883523625
 20
226.377923824
 10
673.2636644743
 20
222.6562432698
 10
674.4492123946
 20
219.1272137174
 10
675.8411291122
 20
215.8023461276
 10
677.4348744844
 20
212.6924855275
 10
679.2252500448
 20
209.807775636
 10
681.2064159606
 20
207.157625777
 10
683.3719100803
 20
204.7506801886
 10
685.7146690122
 20
202.5947898271
 10
688.2270511637
 20
200.6969867586
 10
690.9008616663
 20
199.0634612224
 10
693.727379106
 20
197.6995414391
 10
696.6973839703
 20
196.6096762317
 10
699.8011887207
 20
195.7974205139
 10
703.0286693913
 20
195.265423695
 10
706.3692986109
 20
195.0154210381
 10
709.8121799414
 20
195.0482279998
 10
713.3460834196
 20
195.3637375708
 10
716.9594821867
 20
195.9609206243
 10
720.640590087
 20
196.8378292733
 10
724.3774001118
 20
197.9916032242
 10
728.1577235634
 20
199.418479106
 10
731.9692298124
 20
201.1138027463
 10
735.7994865178
 20
203.0720443517
 10
736.7126927141
 20
203.5762755972
  0
LWPOLYLINE
  5
371
330
1F
100
AcDbEntity
  8
0
  6
Continuous
 62
     7
370
    15
100
AcDbPolyline
 90
       40
 70
   128
 43
0.0
 10
776.8200093227
 20
367.3673711385
 10
775.6342979752
 20
367.6409263134
 10
772.4068173047
 20
368.1729231323
 10
769.066188085
 20
368.4229257892
 10
765.6233067545
 20
368.3901188274
 10
762.0894032764
 20
368.0746092565
 10
758.4760045093
 20
367.477426203
 10
754.7948966089
 20
366.600517554
 10
751.0580865842
 20
365.4467436031
 10
747.2777631326
 20
364.0198677213
 10
743.4662568836
 20
362.324544081
 10
739.6360001782
 20
360.3663024756
 10
735.7994865178
 20
358.1515302822
 10
731.9692298124
 20
355.6874516273
 10
728.1577235634
 20
352.9821038234
 10
724.3774001118
 20
350.0443111526
 10
720.640590087
 20
346.883656084
 10
716.9594821867
 20
343.5104480176
 10
713.3460834196
 20
339.9356896569
 10
709.8121799414
 20
336.1710411206
 10
706.3692986109
 20
332.2287819098
 10
703.0286693913
 20
328.1217708547
 10
699.8011887207
 20
323.8634041715
 10
696.6973839703
 20
319.4675717674
 10
693.727379106
 20
314.948611934
 10
690.9008616663
 20
310.3212645789
 10
688.2270511637
 20
305.6006231475
 10
685.7146690122
 20
300.8020853908
 10
683.3719100803
 20
295.9413031417
 10
681.2064159606
 20
291.0341312615
 10
679.2252500448
 20
286.096575925
 10
677.4348744844
 20
281.1447424113
 10
675.8411291122
 20
276.1947825721
 10
674.4492123946
 20
271.2628421477
 10
673.2636644743
 20
266.3650081024
 10
672.2883523625
 20
261.517256153
 10
671.5264573244
 20
256.7353986587
 10
670.9804645032
 20
252.0350330447
 10
670.6521548142
 20
247.4314909266
 10
670.5425991353
 20
242.9397881021
  0
LWPOLYLINE
  5
372
330
1F
100
AcDbEntity
  8
0
  6
Continuous
 62
     7
370
    15
100
AcDbPolyline
 90
       44
 70
   128
 43
0.0
 10
654.279143168
 20
248.2464408289
 10
654.3884244949
 20
252.8474337533
 10
654.7159306933
 20
257.5603788067
 10
655.2606494602
 20
262.3707085458
 10
656.0208971013
 20
267.2635545173
 10
656.9943237346
 20
272.2237932145
 10
658.1779205541
 20
277.2360928239
 10
659.56802913
 20
282.2849606147
 10
661.1603527163
 20
287.3547908259
 10
662.949969532
 20
292.4299129028
 10
664.9313479741
 20
297.4946399339
 10
667.0983637154
 20
302.5333171383
 10
669.4443186344
 20
307.5303702534
 10
671.961961519
 20
312.4703536744
 10
674.6435104792
 20
317.3379981957
 10
677.4806770008
 20
322.1182582071
 10
680.4646915649
 20
326.7963581987
 10
683.5863307532
 20
331.3578384315
 10
686.8359457581
 20
335.7885996317
 10
690.2034922057
 20
340.0749465702
 10
693.6785612029
 20
344.2036303943
 10
697.2504115107
 20
348.1618895789
 10
700.9080027445
 20
351.9374893717
 10
704.6400294993
 20
355.5187596101
 10
708.4349562943
 20
358.894630793
 10
712.2810532283
 20
362.0546682961
 10
716.166432236
 20
364.9891046246
 10
720.0790838336
 20
367.6888696038
 10
724.0069142393
 20
370.1456184151
 10
727.9377827544
 20
372.3517573885
 10
731.8595392895
 20
374.300467475
 10
735.7600619199
 20
375.9857253234
 10
739.6272943537
 20
377.4023218982
 10
743.4492831972
 20
378.5458785806
 10
747.2142149017
 20
379.4128607024
 10
750.9104522792
 20
380.0005884716
 10
754.5265704718
 20
380.3072452553
 10
758.0513922653
 20
380.331883195
 10
761.4740226376
 20
380.0744261362
 10
764.7838824343
 20
379.5356698639
 10
767.9707410685
 20
378.7172796429
 10
771.0247481429
 20
377.6217850705
 10
773.9364638964
 20
376.2525722576
 10
774.9857579184
 20
375.6717326581
  0
LWPOLYLINE
  5
373
330
1F
100
AcDbEntity
  8
0
  6
Continuous
 62
     7
370
    15
100
AcDbPolyline
 90
       16
 70
   128
 43
0.0
 10
674.9938846548
 20
202.461960182
 10
674.6435104792
 20
202.6670814884
 10
671.961961519
 20
204.4386754816
 10
669.4443186344
 20
206.4718503012
 10
667.0983637154
 20
208.7603215206
 10
664.9313479741
 20
211.2970156063
 10
662.949969532
 20
214.0740917822
 10
661.1603527163
 20
217.082966265
 10
659.56802913
 20
220.3143387961
 10
658.1779205541
 20
223.7582213883
 10
656.9943237346
 20
227.4039691977
 10
656.0208971013
 20
231.2403134269
 10
655.2606494602
 20
235.2553961557
 10
654.7159306933
 20
239.4368069934
 10
654.3884244949
 20
243.7716214388
 10
654.279143168
 20
248.2464408289
  0
LWPOLYLINE
  5
374
330
1F
100
AcDbEntity
  8
0
  6
Continuous
 62
     7
370
    15
100
AcDbPolyline
 90
       34
 70
   128
 43
0.0
 10
679.0912637222
 20
222.8766958782
 10
679.2062687886
 20
224.3338691723
 10
679.5471274051
 20
225.8711584503
 10
680.1015200531
 20
227.4330020722
 10
680.8494095378
 20
228.9629509403
 10
681.7637651848
 20
230.4057087161
 10
682.8115397986
 20
231.7091303747
 10
683.9548640747
 20
232.8261068611
 10
685.1524152949
 20
233.7162677351
 10
686.3609108378
 20
234.3474402632
 10
687.5366725259
 20
234.6968122258
 10
688.6372052683
 20
234.7517564099
 10
689.6227329443
 20
234.5102869895
 10
690.4576360159
 20
233.9811312987
 10
691.1117389109
 20
233.1834144027
 10
691.5614006462
 20
232.1459678687
 10
691.7903692753
 20
230.9062877174
 10
691.7903692753
 20
229.5091792195
 10
691.5614006462
 20
228.0051375161
 10
691.1117389109
 20
226.4485225933
 10
690.4576360159
 20
224.89559457
 10
689.6227329443
 20
223.402480311
 10
688.6372052683
 20
222.0231448561
 10
687.5366725259
 20
220.8074409823
 10
686.3609108378
 20
219.7993073952
 10
685.1524152949
 20
219.0351806692
 10
683.9548640747
 20
218.5426783352
 10
682.8115397986
 20
218.3396007106
 10
681.7637651848
 20
218.43328755
 10
680.8494095378
 20
218.8203527669
 10
680.1015200531
 20
219.4868068158
 10
679.5471274051
 20
220.408562311
 10
679.2062687886
 20
221.5523046074
 10
679.0912637222
 20
222.8766958782
  0
LWPOLYLINE
  5
375
330
1F
100
AcDbEntity
  8
0
  6
Continuous
 62
     7
370
    15
100
AcDbPolyline
 90
       34
 70
   128
 43
0.0
 10
679.0912637222
 20
272.8729583676
 10
679.2062687886
 20
274.3301316617
 10
679.5471274051
 20
275.8674209397
 10
680.1015200531
 20
277.4292645616
 10
680.8494095378
 20
278.9592134297
 10
681.7637651848
 20
280.4019712055
 10
682.8115397986
 20
281.7053928641
 10
683.9548640747
 20
282.8223693505
 10
685.1524152949
 20
283.7125302244
 10
686.3609108378
 20
284.3437027525
 10
687.5366725259
 20
284.6930747151
 10
688.6372052683
 20
284.7480188992
 10
689.6227329443
 20
284.5065494789
 10
690.4576360159
 20
283.977393788
 10
691.1117389109
 20
283.1796768921
 10
691.5614006462
 20
282.1422303581
 10
691.7903692753
 20
280.9025502068
 10
691.7903692753
 20
279.5054417089
 10
691.5614006462
 20
278.0014000055
 10
691.1117389109
 20
276.4447850827
 10
690.4576360159
 20
274.8918570593
 10
689.6227329443
 20
273.3987428004
 10
688.6372052683
 20
272.0194073455
 10
687.5366725259
 20
270.8037034717
 10
686.3609108378
 20
269.7955698846
 10
685.1524152949
 20
269.0314431586
 10
683.9548640747
 20
268.5389408245
 10
682.8115397986
 20
268.3358632
 10
681.7637651848
 20
268.4295500394
 10
680.8494095378
 20
268.8166152563
 10
680.1015200531
 20
269.4830693052
 10
679.5471274051
 20
270.4048248004
 10
679.2062687886
 20
271.5485670967
 10
679.0912637222
 20
272.8729583676
  0
LWPOLYLINE
  5
376
330
1F
100
AcDbEntity
  8
0
  6
Continuous
 62
     7
370
    15
100
AcDbPolyline
 90
       34
 70
   128
 43
0.0
 10
709.7059383115
 20
325.8991300576
 10
709.8209433778
 20
327.3563033518
 10
710.1618019943
 20
328.8935926298
 10
710.7161946423
 20
330.4554362517
 10
711.4640841271
 20
331.9853851197
 10
712.378439774
 20
333.4281428956
 10
713.4262143878
 20
334.7315645541
 10
714.5695386639
 20
335.8485410406
 10
715.7670898841
 20
336.7387019145
 10
716.975585427
 20
337.3698744426
 10
718.1513471151
 20
337.7192464052
 10
719.2518798575
 20
337.7741905893
 10
720.2374075335
 20
337.5327211689
 10
721.0723106051
 20
337.0035654781
 10
721.7264135001
 20
336.2058485822
 10
722.1760752354
 20
335.1684020481
 10
722.4050438645
 20
333.9287218969
 10
722.4050438645
 20
332.5316133989
 10
722.1760752354
 20
331.0275716956
 10
721.7264135001
 20
329.4709567727
 10
721.0723106051
 20
327.9180287494
 10
720.2374075335
 20
326.4249144905
 10
719.2518798575
 20
325.0455790356
 10
718.1513471151
 20
323.8298751618
 10
716.975585427
 20
322.8217415747
 10
715.7670898841
 20
322.0576148487
 10
714.5695386639
 20
321.5651125146
 10
713.4262143878
 20
321.3620348901
 10
712.378439774
 20
321.4557217295
 10
711.4640841271
 20
321.8427869463
 10
710.7161946423
 20
322.5092409953
 10
710.1618019943
 20
323.4309964905
 10
709.8209433778
 20
324.5747387868
 10
709.7059383115
 20
325.8991300576
  0
LWPOLYLINE
  5
377
330
1F
100
AcDbEntity
  8
0
  6
Continuous
 62
     7
370
    15
100
AcDbPolyline
 90
       34
 70
   128
 43
0.0
 10
709.7059383115
 20
205.1974750878
 10
709.8209433778
 20
206.654648382
 10
710.1618019943
 20
208.1919376599
 10
710.7161946423
 20
209.7537812819
 10
711.4640841271
 20
211.2837301499
 10
712.378439774
 20
212.7264879258
 10
713.4262143878
 20
214.0299095843
 10
714.5695386639
 20
215.1468860708
 10
715.7670898841
 20
216.0370469447
 10
716.975585427
 20
216.6682194728
 10
718.1513471151
 20
217.0175914354
 10
719.2518798575
 20
217.0725356195
 10
720.2374075335
 20
216.8310661991
 10
721.0723106051
 20
216.3019105083
 10
721.7264135001
 20
215.5041936123
 10
722.1760752354
 20
214.4667470783
 10
722.4050438645
 20
213.227066927
 10
722.4050438645
 20
211.8299584291
 10
722.1760752354
 20
210.3259167258
 10
721.7264135001
 20
208.7693018029
 10
721.0723106051
 20
207.2163737796
 10
720.2374075335
 20
205.7232595207
 10
719.2518798575
 20
204.3439240657
 10
718.1513471151
 20
203.128220192
 10
716.975585427
 20
202.1200866048
 10
715.7670898841
 20
201.3559598788
 10
714.5695386639
 20
200.8634575448
 10
713.4262143878
 20
200.6603799202
 10
712.378439774
 20
200.7540667596
 10
711.4640841271
 20
201.1411319765
 10
710.7161946423
 20
201.8075860254
 10
710.1618019943
 20
202.7293415207
 10
709.8209433778
 20
203.873083817
 10
709.7059383115
 20
205.1974750878
  0
LWPOLYLINE
  5
378
330
1F
100
AcDbEntity
  8
0
  6
Continuous
 62
     7
370
    15
100
AcDbPolyline
 90
        8
 70
   128
 43
0.0
 10
757.8095160051
 20
360.7945342183
 10
757.8652266756
 20
360.842609716
 10
759.0627778958
 20
361.73277059
 10
760.2712734387
 20
362.3639431181
 10
761.4470351268
 20
362.7133150807
 10
762.5475678692
 20
362.7682592648
 10
763.5330955452
 20
362.5267898444
 10
763.9582329524
 20
362.3055139275
  0
SPLINE
  5
379
330
1F
100
AcDbEntity
  8
0
  6
Continuous
 62
     7
370
    15
100
AcDbSpline
210
0.0
220
0.0
230
1.0
 70
     8
 71
     3
 72
    13
 73
     9
 74
     0
 42
0.000000001
 43
0.00000001
 40
0.0
 40
0.0
 40
0.0
 40
0.0
 40
0.1974578591274603
 40
0.3952517389254063
 40
0.5958899727164579
 40
0.792433898079726
 40
0.9911998603896534
 40
1.0
 40
1.0
 40
1.0
 40
1.0
 10
735.0254075547593
 20
238.1668776056766
 30
0.0
 10
735.0275325162149
 20
239.1930075160595
 30
0.0
 10
735.0317860552442
 20
241.2470135365564
 30
0.0
 10
735.0688975803155
 20
244.559765545032
 30
0.0
 10
735.130918321238
 20
247.9883964777353
 30
0.0
 10
735.2343851714816
 20
251.5366867133463
 30
0.0
 10
735.3168100372675
 20
253.9810860219296
 30
0.0
 10
735.3849938044704
 20
255.2590576101013
 30
0.0
 10
735.3878845783731
 20
255.3132395227061
 30
0.0
  0
SPLINE
  5
37A
330
1F
100
AcDbEntity
  8
0
  6
Continuous
 62
     7
370
    15
100
AcDbSpline
210
0.0
220
0.0
230
1.0
 70
     8
 71
     3
 72
    14
 73
    10
 74
     0
 42
0.000000001
 43
0.00000001
 40
0.0
 40
0.0
 40
0.0
 40
0.0
 40
0.0886199688991691
 40
0.2030348228535602
 40
0.3163444669552145
 40
0.4880922912364789
 40
0.6595919748534106
 40
0.8307208261603141
 40
1.0
 40
1.0
 40
1.0
 40
1.0
 10
736.4772498000355
 20
220.0728728161633
 30
0.0
 10
736.3665703433948
 20
220.3593917493243
 30
0.0
 10
736.1129956225758
 20
221.015827556752
 30
0.0
 10
735.820375260311
 20
222.2900436065131
 30
0.0
 10
735.5210822265027
 20
224.1229463278325
 30
0.0
 10
735.2851121674427
 20
226.6034156096197
 30
0.0
 10
735.1250560775466
 20
229.9364663990009
 30
0.0
 10
735.0398432122387
 20
233.7552262397429
 30
0.0
 10
735.0302019780385
 20
236.701663843237
 30
0.0
 10
735.0254075547593
 20
238.1668776056766
 30
0.0
  0
LINE
  5
37B
330
1F
100
AcDbEntity
  8
0
  6
Continuous
 62
     7
370
    15
100
AcDbLine
 10
914.3557379364
 20
350.231716199
 30
0.0
 11
921.7042071647
 21
354.4738971872
 31
0.0
  0
LINE
  5
37C
330
1F
100
AcDbEntity
  8
0
  6
Continuous
 62
     7
370
    15
100
AcDbLine
 10
904.3175422915
 20
351.7844622082
 30
0.0
 11
914.3557379364
 21
350.231716199
 31
0.0
  0
LINE
  5
37D
330
1F
100
AcDbEntity
  8
0
  6
Continuous
 62
     7
370
    15
100
AcDbLine
 10
901.627815875
 20
357.5793892054
 30
0.0
 11
904.3175422915
 21
351.7844622082
 31
0.0
  0
LINE
  5
37E
330
1F
100
AcDbEntity
  8
0
  6
Continuous
 62
     7
370
    15
100
AcDbLine
 10
908.9762851034
 20
361.8215701936
 30
0.0
 11
901.627815875
 21
357.5793892054
 31
0.0
  0
LINE
  5
37F
330
1F
100
AcDbEntity
  8
0
  6
Continuous
 62
     7
370
    15
100
AcDbLine
 10
919.0144807482
 20
360.2688241845
 30
0.0
 11
908.9762851034
 21
361.8215701936
 31
0.0
  0
LINE
  5
380
330
1F
100
AcDbEntity
  8
0
  6
Continuous
 62
     7
370
    15
100
AcDbLine
 10
921.7042071647
 20
354.4738971872
 30
0.0
 11
919.0144807482
 21
360.2688241845
 31
0.0
  0
LINE
  5
381
330
1F
100
AcDbEntity
  8
0
  6
Continuous
 62
     7
370
    15
100
AcDbLine
 10
904.3175422915
 20
351.7844622082
 30
0.0
 11
904.3175422915
 21
348.0205746467
 31
0.0
  0
LINE
  5
382
330
1F
100
AcDbEntity
  8
0
  6
Continuous
 62
     7
370
    15
100
AcDbLine
 10
914.3557379364
 20
350.231716199
 30
0.0
 11
914.3557379364
 21
346.1490121396
 31
0.0
  0
LINE
  5
383
330
1F
100
AcDbEntity
  8
0
  6
Continuous
 62
     7
370
    15
100
AcDbLine
 10
771.7975695532
 20
357.5793892054
 30
0.0
 11
764.4491003248
 21
361.8215701936
 31
0.0
  0
LINE
  5
384
330
1F
100
AcDbEntity
  8
0
  6
Continuous
 62
     7
370
    15
100
AcDbLine
 10
769.1078431367
 20
351.7844622082
 30
0.0
 11
771.7975695532
 21
357.5793892054
 31
0.0
  0
LINE
  5
385
330
1F
100
AcDbEntity
  8
0
  6
Continuous
 62
     7
370
    15
100
AcDbLine
 10
759.0696474918
 20
350.231716199
 30
0.0
 11
769.1078431367
 21
351.7844622082
 31
0.0
  0
LINE
  5
386
330
1F
100
AcDbEntity
  8
0
  6
Continuous
 62
     7
370
    15
100
AcDbLine
 10
751.7211782635
 20
354.4738971872
 30
0.0
 11
759.0696474918
 21
350.231716199
 31
0.0
  0
LINE
  5
387
330
1F
100
AcDbEntity
  8
0
  6
Continuous
 62
     7
370
    15
100
AcDbLine
 10
754.41090468
 20
360.2688241845
 30
0.0
 11
751.7211782635
 21
354.4738971872
 31
0.0
  0
LINE
  5
388
330
1F
100
AcDbEntity
  8
0
  6
Continuous
 62
     7
370
    15
100
AcDbLine
 10
764.4491003248
 20
361.8215701936
 30
0.0
 11
754.41090468
 21
360.2688241845
 31
0.0
  0
LINE
  5
389
330
1F
100
AcDbEntity
  8
0
  6
Continuous
 62
     7
370
    15
100
AcDbLine
 10
759.0696474918
 20
350.231716199
 30
0.0
 11
759.0696474918
 21
346.1490121396
 31
0.0
  0
LINE
  5
38A
330
1F
100
AcDbEntity
  8
0
  6
Continuous
 62
     7
370
    15
100
AcDbLine
 10
769.1078431367
 20
351.7844622082
 30
0.0
 11
769.1078431367
 21
348.0205746467
 31
0.0
  0
LINE
  5
38B
330
1F
100
AcDbEntity
  8
0
  6
Continuous
 62
     7
370
    15
100
AcDbLine
 10
921.7042071647
 20
354.4738971872
 30
0.0
 11
921.7042071647
 21
350.3911931278
 31
0.0
  0
LINE
  5
38C
330
1F
100
AcDbEntity
  8
0
  6
Continuous
 62
     7
370
    15
100
AcDbLine
 10
751.7211782635
 20
354.4738971872
 30
0.0
 11
751.7211782635
 21
350.3911931278
 31
0.0
  0
LINE
  5
38D
330
1F
100
AcDbEntity
  8
0
  6
Continuous
 62
     7
370
    15
100
AcDbLine
 10
901.627815875
 20
357.5793892054
 30
0.0
 11
901.627815875
 21
353.496685146
 31
0.0
  0
LINE
  5
38E
330
1F
100
AcDbEntity
  8
0
  6
Continuous
 62
     7
370
    15
100
AcDbLine
 10
771.7975695532
 20
357.5793892054
 30
0.0
 11
771.7975695532
 21
353.496685146
 31
0.0
  0
LINE
  5
38F
330
1F
100
AcDbEntity
  8
0
  6
Continuous
 62
     7
370
    15
100
AcDbLine
 10
845.7126927141
 20
370.949835807
 30
0.0
 11
845.7126927141
 21
376.9491856945
 31
0.0
  0
LINE
  5
390
330
1F
100
AcDbEntity
  8
0
  6
Continuous
 62
     7
370
    15
100
AcDbLine
 10
836.7126927141
 20
367.9501608633
 30
0.0
 11
845.7126927141
 21
370.949835807
 31
0.0
  0
LINE
  5
391
330
1F
100
AcDbEntity
  8
0
  6
Continuous
 62
     7
370
    15
100
AcDbLine
 10
827.7126927141
 20
370.949835807
 30
0.0
 11
836.7126927141
 21
367.9501608633
 31
0.0
  0
LINE
  5
392
330
1F
100
AcDbEntity
  8
0
  6
Continuous
 62
     7
370
    15
100
AcDbLine
 10
827.7126927141
 20
376.9491856945
 30
0.0
 11
827.7126927141
 21
370.949835807
 31
0.0
  0
LINE
  5
393
330
1F
100
AcDbEntity
  8
0
  6
Continuous
 62
     7
370
    15
100
AcDbLine
 10
836.7126927141
 20
379.9488606383
 30
0.0
 11
827.7126927141
 21
376.9491856945
 31
0.0
  0
LINE
  5
394
330
1F
100
AcDbEntity
  8
0
  6
Continuous
 62
     7
370
    15
100
AcDbLine
 10
845.7126927141
 20
376.9491856945
 30
0.0
 11
836.7126927141
 21
379.9488606383
 31
0.0
  0
LINE
  5
395
330
1F
100
AcDbEntity
  8
0
  6
Continuous
 62
     7
370
    15
100
AcDbLine
 10
836.7126927141
 20
367.9501608633
 30
0.0
 11
836.7126927141
 21
364.8116888699
 31
0.0
  0
LINE
  5
396
330
1F
100
AcDbEntity
  8
0
  6
Continuous
 62
     7
370
    15
100
AcDbLine
 10
845.7126927141
 20
370.949835807
 30
0.0
 11
845.7126927141
 21
366.8671317476
 31
0.0
  0
LINE
  5
397
330
1F
100
AcDbEntity
  8
0
  6
Continuous
 62
     7
370
    15
100
AcDbLine
 10
827.7126927141
 20
370.949835807
 30
0.0
 11
827.7126927141
 21
366.8671317476
 31
0.0
  0
LWPOLYLINE
  5
398
330
1F
100
AcDbEntity
  8
0
  6
Continuous
 62
     8
370
    15
100
AcDbPolyline
 90
       18
 70
   128
 43
0.0
 10
691.5790258756
 20
255.0838587654
 10
691.6889618757
 20
258.8231225179
 10
692.0182459809
 20
262.6714963797
 10
692.5653090025
 20
266.6106410968
 10
693.3275439361
 20
270.6217848508
 10
694.301318385
 20
274.685812715
 10
695.4819918706
 20
278.7833577459
 10
696.8639379461
 20
282.8948932754
 10
698.4405710091
 20
287.0008259644
 10
700.2043776849
 20
291.0815891737
 10
702.1469526316
 20
295.1177362083
 10
704.259038595
 20
299.0900329896
 10
706.5305705235
 20
302.9795497143
 10
708.9507235331
 20
306.7677510639
 10
711.5079644925
 20
310.4365845341
 10
714.190106984
 20
313.9685664624
 10
716.9843693773
 20
317.3468653465
 10
718.5503387853
 20
319.1182481463
  0
LWPOLYLINE
  5
399
330
1F
100
AcDbEntity
  8
0
  6
Continuous
 62
     8
370
    15
100
AcDbPolyline
 90
       21
 70
   128
 43
0.0
 10
727.4529537235
 20
223.8494336553
 10
725.9044281099
 20
223.3961926571
 10
722.8555192917
 20
222.6999616424
 10
719.8774357394
 20
222.284984049
 10
716.9843693773
 20
222.1532374341
 10
714.190106984
 20
222.3053496303
 10
711.5079644925
 20
222.7405957537
 10
708.9507235331
 20
223.4569016584
 10
706.5305705235
 20
224.4508538205
 10
704.259038595
 20
225.7177156053
 10
702.1469526316
 20
227.2514498395
 10
700.2043776849
 20
229.044747581
 10
698.4405710091
 20
231.0890629494
 10
696.8639379461
 20
233.374653851
 10
695.4819918706
 20
235.8906284042
 10
694.301318385
 20
238.6249968447
 10
693.3275439361
 20
241.5647286615
 10
692.5653090025
 20
244.6958146937
 10
692.0182459809
 20
248.0033338906
 10
691.6889618757
 20
251.4715244169
 10
691.5790258756
 20
255.0838587654
  0
LWPOLYLINE
  5
39A
330
1F
100
AcDbEntity
  8
0
  6
Continuous
 62
     8
370
    15
100
AcDbPolyline
 90
       12
 70
   128
 43
0.0
 10
705.7211614993
 20
255.0838587654
 10
705.8304025714
 20
251.7755578303
 10
706.1575148673
 20
248.6118853131
 10
706.7006690424
 20
245.6105337539
 10
707.4568275582
 20
242.788287928
 10
708.4217616696
 20
240.160930979
 10
709.5900750736
 20
237.7431561527
 10
710.9552340877
 20
235.5484846265
 10
712.5096041889
 20
233.589189894
 10
714.2444927092
 20
231.876229126
 10
716.1501974482
 20
230.419181894
 10
717.1660561708
 20
229.787933208
  0
LWPOLYLINE
  5
39B
330
1F
100
AcDbEntity
  8
0
  6
Continuous
 62
     8
370
    15
100
AcDbPolyline
 90
       12
 70
   128
 43
0.0
 10
716.7126927141
 20
292.7998807889
 10
716.1501974482
 20
291.7896442412
 10
714.2444927092
 20
288.1323171519
 10
712.5096041889
 20
284.4162967347
 10
710.9552340877
 20
280.6623644832
 10
709.5900750736
 20
276.8915139093
 10
708.4217616696
 20
273.124833139
 10
707.4568275582
 20
269.3833869791
 10
706.7006690424
 20
265.6880991141
 10
706.1575148673
 20
262.0596350928
 10
705.8304025714
 20
258.5182867577
 10
705.7211614993
 20
255.0838587654
  0
ENDSEC
  0
SECTION
  2
OBJECTS
  0
DICTIONARY
  5
C
330
0
100
AcDbDictionary
281
     1
  3
ACAD_GROUP
350
D
  3
ACAD_LAYOUT
350
1A
  3
ACAD_MLINESTYLE
350
17
  3
ACAD_PLOTSETTINGS
350
19
  3
ACAD_PLOTSTYLENAME
350
E
  3
ACAD_SCALELIST
350
47
  0
DICTIONARY
  5
D
102
{ACAD_REACTORS
330
C
102
}
330
C
100
AcDbDictionary
281
     1
  0
DICTIONARY
  5
1A
102
{ACAD_REACTORS
330
C
102
}
330
C
100
AcDbDictionary
281
     1
  3
Layout1
350
1E
  3
Layout2
350
26
  3
Model
350
22
  0
DICTIONARY
  5
17
102
{ACAD_REACTORS
330
C
102
}
330
C
100
AcDbDictionary
281
     1
  3
Standard
350
18
  0
DICTIONARY
  5
19
102
{ACAD_REACTORS
330
C
102
}
330
C
100
AcDbDictionary
281
     1
  0
ACDBDICTIONARYWDFLT
  5
E
102
{ACAD_REACTORS
330
C
102
}
330
C
100
AcDbDictionary
281
     1
  3
Normal
350
F
100
AcDbDictionaryWithDefault
340
F
  0
DICTIONARY
  5
47
102
{ACAD_REACTORS
330
C
102
}
330
C
100
AcDbDictionary
281
     1
  3
A0
350
48
  3
A1
350
49
  3
A2
350
4A
  3
A3
350
4B
  3
A4
350
4C
  3
A5
350
4D
  3
A6
350
4E
  3
A7
350
4F
  3
A8
350
50
  3
A9
350
51
  3
B0
350
52
  3
B1
350
53
  3
B2
350
54
  3
B3
350
55
  3
B4
350
56
  3
B5
350
57
  3
B6
350
58
  3
B7
350
59
  3
B8
350
5A
  3
B9
350
5B
  3
C0
350
5C
  3
C1
350
5D
  3
C2
350
5E
  3
C3
350
5F
  3
C4
350
60
  3
C5
350
61
  3
C6
350
62
  3
C7
350
63
  3
C8
350
64
  3
C9
350
65
  3
D0
350
66
  3
D1
350
67
  3
D2
350
68
  0
LAYOUT
  5
1E
102
{ACAD_REACTORS
330
1A
102
}
330
1A
100
AcDbPlotSettings
  1

  2
none_device
  4

  6

 40
0.0
 41
0.0
 42
0.0
 43
0.0
 44
0.0
 45
0.0
 46
0.0
 47
0.0
 48
0.0
 49
0.0
140
0.0
141
0.0
142
1.0
143
1.0
 70
   688
 72
     1
 73
     0
 74
     5
  7

 75
    16
147
1.0
148
0.0
149
0.0
100
AcDbLayout
  1
Layout1
 70
     1
 71
     1
 10
0.0
 20
0.0
 11
420.0
 21
297.0
 12
0.0
 22
0.0
 32
0.0
 14
1.0000000000E+20
 24
1.0000000000E+20
 34
1.0000000000E+20
 15
-1.0000000000E+20
 25
-1.0000000000E+20
 35
-1.0000000000E+20
146
0.0
 13
0.0
 23
0.0
 33
0.0
 16
1.0
 26
0.0
 36
0.0
 17
0.0
 27
1.0
 37
0.0
 76
     0
330
1B
  0
LAYOUT
  5
26
102
{ACAD_REACTORS
330
1A
102
}
330
1A
100
AcDbPlotSettings
  1

  2
none_device
  4

  6

 40
0.0
 41
0.0
 42
0.0
 43
0.0
 44
0.0
 45
0.0
 46
0.0
 47
0.0
 48
0.0
 49
0.0
140
0.0
141
0.0
142
1.0
143
1.0
 70
   688
 72
     1
 73
     0
 74
     5
  7

 75
    16
147
1.0
148
0.0
149
0.0
100
AcDbLayout
  1
Layout2
 70
     1
 71
     2
 10
0.0
 20
0.0
 11
0.0
 21
0.0
 12
0.0
 22
0.0
 32
0.0
 14
0.0
 24
0.0
 34
0.0
 15
0.0
 25
0.0
 35
0.0
146
0.0
 13
0.0
 23
0.0
 33
0.0
 16
1.0
 26
0.0
 36
0.0
 17
0.0
 27
1.0
 37
0.0
 76
     0
330
23
  0
LAYOUT
  5
22
102
{ACAD_REACTORS
330
1A
102
}
330
1A
100
AcDbPlotSettings
  1

  2
none_device
  4
Letter_(8.50_x_11.00_Inches)
  6

 40
6.35
 41
6.35
 42
6.35000508
 43
6.35000508
 44
215.9
 45
279.4
 46
0.0
 47
0.0
 48
0.0
 49
0.0
140
0.0
141
0.0
142
1.0
143
1.0
 70
  1712
 72
     1
 73
     0
 74
     0
  7

 75
     0
147
1.0
148
0.0
149
0.0
100
AcDbLayout
  1
Model
 70
     1
 71
     0
 10
0.0
 20
0.0
 11
1189.0
 21
841.0
 12
0.0
 22
0.0
 32
0.0
 14
0.0
 24
0.0
 34
0.0
 15
1189.0
 25
841.0
 35
0.0
146
0.0
 13
0.0
 23
0.0
 33
0.0
 16
1.0
 26
0.0
 36
0.0
 17
0.0
 27
1.0
 37
0.0
 76
     0
330
1F
331
29
  0
MLINESTYLE
  5
18
102
{ACAD_REACTORS
330
17
102
}
330
17
100
AcDbMlineStyle
  2
Standard
 70
     0
  3

 62
   256
 51
90.0
 52
90.0
 71
     2
 49
0.5
 62
   256
  6
BYLAYER
 49
-0.5
 62
   256
  6
BYLAYER
  0
ACDBPLACEHOLDER
  5
F
102
{ACAD_REACTORS
330
E
102
}
330
E
  0
SCALE
  5
48
102
{ACAD_REACTORS
330
47
102
}
330
47
100
AcDbScale
 70
     0
300
1:1
140
1.0
141
1.0
290
     1
  0
SCALE
  5
49
102
{ACAD_REACTORS
330
47
102
}
330
47
100
AcDbScale
 70
     0
300
1:2
140
1.0
141
2.0
290
     0
  0
SCALE
  5
4A
102
{ACAD_REACTORS
330
47
102
}
330
47
100
AcDbScale
 70
     0
300
1:4
140
1.0
141
4.0
290
     0
  0
SCALE
  5
4B
102
{ACAD_REACTORS
330
47
102
}
330
47
100
AcDbScale
 70
     0
300
1:5
140
1.0
141
5.0
290
     0
  0
SCALE
  5
4C
102
{ACAD_REACTORS
330
47
102
}
330
47
100
AcDbScale
 70
     0
300
1:8
140
1.0
141
8.0
290
     0
  0
SCALE
  5
4D
102
{ACAD_REACTORS
330
47
102
}
330
47
100
AcDbScale
 70
     0
300
1:10
140
1.0
141
10.0
290
     0
  0
SCALE
  5
4E
102
{ACAD_REACTORS
330
47
102
}
330
47
100
AcDbScale
 70
     0
300
1:16
140
1.0
141
16.0
290
     0
  0
SCALE
  5
4F
102
{ACAD_REACTORS
330
47
102
}
330
47
100
AcDbScale
 70
     0
300
1:20
140
1.0
141
20.0
290
     0
  0
SCALE
  5
50
102
{ACAD_REACTORS
330
47
102
}
330
47
100
AcDbScale
 70
     0
300
1:30
140
1.0
141
30.0
290
     0
  0
SCALE
  5
51
102
{ACAD_REACTORS
330
47
102
}
330
47
100
AcDbScale
 70
     0
300
1:40
140
1.0
141
40.0
290
     0
  0
SCALE
  5
52
102
{ACAD_REACTORS
330
47
102
}
330
47
100
AcDbScale
 70
     0
300
1:50
140
1.0
141
50.0
290
     0
  0
SCALE
  5
53
102
{ACAD_REACTORS
330
47
102
}
330
47
100
AcDbScale
 70
     0
300
1:100
140
1.0
141
100.0
290
     0
  0
SCALE
  5
54
102
{ACAD_REACTORS
330
47
102
}
330
47
100
AcDbScale
 70
     0
300
2:1
140
2.0
141
1.0
290
     0
  0
SCALE
  5
55
102
{ACAD_REACTORS
330
47
102
}
330
47
100
AcDbScale
 70
     0
300
4:1
140
4.0
141
1.0
290
     0
  0
SCALE
  5
56
102
{ACAD_REACTORS
330
47
102
}
330
47
100
AcDbScale
 70
     0
300
8:1
140
8.0
141
1.0
290
     0
  0
SCALE
  5
57
102
{ACAD_REACTORS
330
47
102
}
330
47
100
AcDbScale
 70
     0
300
10:1
140
10.0
141
1.0
290
     0
  0
SCALE
  5
58
102
{ACAD_REACTORS
330
47
102
}
330
47
100
AcDbScale
 70
     0
300
100:1
140
100.0
141
1.0
290
     0
  0
SCALE
  5
59
102
{ACAD_REACTORS
330
47
102
}
330
47
100
AcDbScale
 70
     0
300
1/128" = 1'-0"
140
0.0078125
141
12.0
290
     0
  0
SCALE
  5
5A
102
{ACAD_REACTORS
330
47
102
}
330
47
100
AcDbScale
 70
     0
300
1/64" = 1'-0"
140
0.015625
141
12.0
290
     0
  0
SCALE
  5
5B
102
{ACAD_REACTORS
330
47
102
}
330
47
100
AcDbScale
 70
     0
300
1/32" = 1'-0"
140
0.03125
141
12.0
290
     0
  0
SCALE
  5
5C
102
{ACAD_REACTORS
330
47
102
}
330
47
100
AcDbScale
 70
     0
300
1/16" = 1'-0"
140
0.0625
141
12.0
290
     0
  0
SCALE
  5
5D
102
{ACAD_REACTORS
330
47
102
}
330
47
100
AcDbScale
 70
     0
300
3/32" = 1'-0"
140
0.09375
141
12.0
290
     0
  0
SCALE
  5
5E
102
{ACAD_REACTORS
330
47
102
}
330
47
100
AcDbScale
 70
     0
300
1/8" = 1'-0"
140
0.125
141
12.0
290
     0
  0
SCALE
  5
5F
102
{ACAD_REACTORS
330
47
102
}
330
47
100
AcDbScale
 70
     0
300
3/16" = 1'-0"
140
0.1875
141
12.0
290
     0
  0
SCALE
  5
60
102
{ACAD_REACTORS
330
47
102
}
330
47
100
AcDbScale
 70
     0
300
1/4" = 1'-0"
140
0.25
141
12.0
290
     0
  0
SCALE
  5
61
102
{ACAD_REACTORS
330
47
102
}
330
47
100
AcDbScale
 70
     0
300
3/8" = 1'-0"
140
0.375
141
12.0
290
     0
  0
SCALE
  5
62
102
{ACAD_REACTORS
330
47
102
}
330
47
100
AcDbScale
 70
     0
300
1/2" = 1'-0"
140
0.5
141
12.0
290
     0
  0
SCALE
  5
63
102
{ACAD_REACTORS
330
47
102
}
330
47
100
AcDbScale
 70
     0
300
3/4" = 1'-0"
140
0.75
141
12.0
290
     0
  0
SCALE
  5
64
102
{ACAD_REACTORS
330
47
102
}
330
47
100
AcDbScale
 70
     0
300
1" = 1'-0"
140
1.0
141
12.0
290
     0
  0
SCALE
  5
65
102
{ACAD_REACTORS
330
47
102
}
330
47
100
AcDbScale
 70
     0
300
1-1/2" = 1'-0"
140
1.5
141
12.0
290
     0
  0
SCALE
  5
66
102
{ACAD_REACTORS
330
47
102
}
330
47
100
AcDbScale
 70
     0
300
3" = 1'-0"
140
3.0
141
12.0
290
     0
  0
SCALE
  5
67
102
{ACAD_REACTORS
330
47
102
}
330
47
100
AcDbScale
 70
     0
300
6" = 1'-0"
140
6.0
141
12.0
290
     0
  0
SCALE
  5
68
102
{ACAD_REACTORS
330
47
102
}
330
47
100
AcDbScale
 70
     0
300
1'-0" = 1'-0"
140
12.0
141
12.0
290
     0
  0
ENDSEC
  0
EOF
