  0
SECTION
  2
HEADER
  9
$ACADVER
  1
AC1015
  9
$ACADMAINTVER
 70
     6
  9
$DWGCODEPAGE
  3
ANSI_1252
  9
$INSBASE
 10
0.0
 20
0.0
 30
0.0
  9
$EXTMIN
 10
0.0
 20
0.0
 30
0.0
  9
$EXTMAX
 10
841.0
 20
594.0
 30
0.0
  9
$LIMMIN
 10
0.0
 20
0.0
  9
$LIMMAX
 10
841.0
 20
594.0
  9
$ORTHOMODE
 70
     0
  9
$REGENMODE
 70
     1
  9
$FILLMODE
 70
     1
  9
$QTEXTMODE
 70
     0
  9
$MIRRTEXT
 70
     1
  9
$LTSCALE
 40
1.0
  9
$ATTMODE
 70
     1
  9
$TEXTSIZE
 40
3.0
  9
$TRACEWID
 40
1.0
  9
$TEXTSTYLE
  7
Standard
  9
$CLAYER
  8
0
  9
$CELTYPE
  6
ByLayer
  9
$CECOLOR
 62
   256
  9
$CELTSCALE
 40
1.0
  9
$DISPSILH
 70
     0
  9
$DIMSCALE
 40
1.0
  9
$DIMASZ
 40
3.0
  9
$DIMEXO
 40
1.0
  9
$DIMDLI
 40
3.75
  9
$DIMRND
 40
0.0
  9
$DIMDLE
 40
0.0
  9
$DIMEXE
 40
1.0
  9
$DIMTP
 40
0.0
  9
$DIMTM
 40
0.0
  9
$DIMTXT
 40
3.0
  9
$DIMCEN
 40
2.5
  9
$DIMTSZ
 40
0.0
  9
$DIMTOL
 70
     0
  9
$DIMLIM
 70
     0
  9
$DIMTIH
 70
     1
  9
$DIMTOH
 70
     1
  9
$DIMSE1
 70
     0
  9
$DIMSE2
 70
     0
  9
$DIMTAD
 70
     1
  9
$DIMZIN
 70
     0
  9
$DIMBLK
  1

  9
$DIMASO
 70
     1
  9
$DIMSHO
 70
     1
  9
$DIMPOST
  1

  9
$DIMAPOST
  1

  9
$DIMALT
 70
     0
  9
$DIMALTD
 70
     3
  9
$DIMALTF
 40
0.0393700787
  9
$DIMLFAC
 40
1.0
  9
$DIMTOFL
 70
     1
  9
$DIMTVP
 40
0.0
  9
$DIMTIX
 70
     0
  9
$DIMSOXD
 70
     0
  9
$DIMSAH
 70
     0
  9
$DIMBLK1
  1

  9
$DIMBLK2
  1

  9
$DIMSTYLE
  2
ISO-25
  9
$DIMCLRD
 70
     0
  9
$DIMCLRE
 70
     0
  9
$DIMCLRT
 70
     0
  9
$DIMTFAC
 40
1.0
  9
$DIMGAP
 40
3.0
  9
$DIMJUST
 70
     0
  9
$DIMSD1
 70
     0
  9
$DIMSD2
 70
     0
  9
$DIMTOLJ
 70
     0
  9
$DIMTZIN
 70
     0
  9
$DIMALTZ
 70
     0
  9
$DIMALTTZ
 70
     0
  9
$DIMUPT
 70
     0
  9
$DIMDEC
 70
     2
  9
$DIMTDEC
 70
     3
  9
$DIMALTU
 70
     2
  9
$DIMALTTD
 70
     3
  9
$DIMTXSTY
  7
Standard
  9
$DIMAUNIT
 70
     0
  9
$DIMADEC
 70
     2
  9
$DIMALTRND
 40
0.0
  9
$DIMAZIN
 70
     0
  9
$DIMDSEP
 70
    44
  9
$DIMATFIT
 70
     3
  9
$DIMFRAC
 70
     0
  9
$DIMLDRBLK
  1

  9
$DIMLUNIT
 70
     2
  9
$DIMLWD
 70
    -2
  9
$DIMLWE
 70
    -2
  9
$DIMTMOVE
 70
     0
  9
$LUNITS
 70
     2
  9
$LUPREC
 70
     2
  9
$SKETCHINC
 40
1.0
  9
$FILLETRAD
 40
10.0
  9
$AUNITS
 70
     0
  9
$AUPREC
 70
     2
  9
$MENU
  1
.
  9
$ELEVATION
 40
0.0
  9
$PELEVATION
 40
0.0
  9
$THICKNESS
 40
0.0
  9
$LIMCHECK
 70
     0
  9
$CHAMFERA
 40
0.0
  9
$CHAMFERB
 40
0.0
  9
$CHAMFERC
 40
0.0
  9
$CHAMFERD
 40
0.0
  9
$SKPOLY
 70
     0
  9
$TDCREATE
 40
2457877.513905949
  9
$TDUCREATE
 40
2457877.430572616
  9
$TDUPDATE
 40
2457877.513906609
  9
$TDUUPDATE
 40
2457877.430573275
  9
$TDINDWG
 40
0.0000000116
  9
$TDUSRTIMER
 40
0.0000000116
  9
$USRTIMER
 70
     1
  9
$ANGBASE
 50
0.0
  9
$ANGDIR
 70
     0
  9
$PDMODE
 70
     0
  9
$PDSIZE
 40
-1.0
  9
$PLINEWID
 40
0.0
  9
$SPLFRAME
 70
     0
  9
$SPLINETYPE
 70
     6
  9
$SPLINESEGS
 70
     8
  9
$HANDSEED
  5
2C7
  9
$SURFTAB1
 70
     6
  9
$SURFTAB2
 70
     6
  9
$SURFTYPE
 70
     6
  9
$SURFU
 70
     6
  9
$SURFV
 70
     6
  9
$UCSBASE
  2

  9
$UCSNAME
  2

  9
$UCSORG
 10
0.0
 20
0.0
 30
0.0
  9
$UCSXDIR
 10
1.0
 20
0.0
 30
0.0
  9
$UCSYDIR
 10
0.0
 20
1.0
 30
0.0
  9
$UCSORTHOREF
  2

  9
$UCSORTHOVIEW
 70
     0
  9
$UCSORGTOP
 10
0.0
 20
0.0
 30
0.0
  9
$UCSORGBOTTOM
 10
0.0
 20
0.0
 30
0.0
  9
$UCSORGLEFT
 10
0.0
 20
0.0
 30
0.0
  9
$UCSORGRIGHT
 10
0.0
 20
0.0
 30
0.0
  9
$UCSORGFRONT
 10
0.0
 20
0.0
 30
0.0
  9
$UCSORGBACK
 10
0.0
 20
0.0
 30
0.0
  9
$PUCSBASE
  2

  9
$PUCSNAME
  2

  9
$PUCSORG
 10
0.0
 20
0.0
 30
0.0
  9
$PUCSXDIR
 10
1.0
 20
0.0
 30
0.0
  9
$PUCSYDIR
 10
0.0
 20
1.0
 30
0.0
  9
$PUCSORTHOREF
  2

  9
$PUCSORTHOVIEW
 70
     0
  9
$PUCSORGTOP
 10
0.0
 20
0.0
 30
0.0
  9
$PUCSORGBOTTOM
 10
0.0
 20
0.0
 30
0.0
  9
$PUCSORGLEFT
 10
0.0
 20
0.0
 30
0.0
  9
$PUCSORGRIGHT
 10
0.0
 20
0.0
 30
0.0
  9
$PUCSORGFRONT
 10
0.0
 20
0.0
 30
0.0
  9
$PUCSORGBACK
 10
0.0
 20
0.0
 30
0.0
  9
$USERI1
 70
     0
  9
$USERI2
 70
     0
  9
$USERI3
 70
     0
  9
$USERI4
 70
     0
  9
$USERI5
 70
     0
  9
$USERR1
 40
0.0
  9
$USERR2
 40
0.0
  9
$USERR3
 40
0.0
  9
$USERR4
 40
0.0
  9
$USERR5
 40
0.0
  9
$WORLDVIEW
 70
     1
  9
$SHADEDGE
 70
     3
  9
$SHADEDIF
 70
    70
  9
$TILEMODE
 70
     1
  9
$MAXACTVP
 70
    64
  9
$PINSBASE
 10
0.0
 20
0.0
 30
0.0
  9
$PLIMCHECK
 70
     0
  9
$PEXTMIN
 10
1.0000000000E+20
 20
1.0000000000E+20
 30
1.0000000000E+20
  9
$PEXTMAX
 10
-1.0000000000E+20
 20
-1.0000000000E+20
 30
-1.0000000000E+20
  9
$PLIMMIN
 10
0.0
 20
0.0
  9
$PLIMMAX
 10
420.0
 20
297.0
  9
$UNITMODE
 70
     0
  9
$VISRETAIN
 70
     1
  9
$PLINEGEN
 70
     0
  9
$PSLTSCALE
 70
     1
  9
$TREEDEPTH
 70
  3020
  9
$CMLSTYLE
  2
Standard
  9
$CMLJUST
 70
     0
  9
$CMLSCALE
 40
20.0
  9
$PROXYGRAPHICS
 70
     1
  9
$MEASUREMENT
 70
     1
  9
$CELWEIGHT
370
    -1
  9
$ENDCAPS
280
     0
  9
$JOINSTYLE
280
     0
  9
$LWDISPLAY
290
     1
  9
$INSUNITS
 70
     4
  9
$HYPERLINKBASE
  1

  9
$STYLESHEET
  1

  9
$XEDIT
290
     1
  9
$CEPSNTYPE
380
     0
  9
$PSTYLEMODE
290
     1
  9
$FINGERPRINTGUID
  2
{F3C348DC-FACD-4625-91B9-47BDCDE24C9D}
  9
$VERSIONGUID
  2
{FAEB1C32-E019-11D5-929B-00C0DF256EC4}
  9
$EXTNAMES
290
     1
  9
$PSVPSCALE
 40
0.0
  9
$OLESTARTUP
290
     0
  0
ENDSEC
  0
SECTION
  2
CLASSES
  0
CLASS
  1
ACDBDICTIONARYWDFLT
  2
AcDbDictionaryWithDefault
  3
ObjectDBX Classes
 90
        0
280
     0
281
     0
  0
CLASS
  1
VISUALSTYLE
  2
AcDbVisualStyle
  3
ObjectDBX Classes
 90
     4095
280
     0
281
     0
  0
CLASS
  1
MATERIAL
  2
AcDbMaterial
  3
ObjectDBX Classes
 90
     1153
280
     0
281
     0
  0
CLASS
  1
SCALE
  2
AcDbScale
  3
ObjectDBX Classes
 90
     1153
280
     0
281
     0
  0
CLASS
  1
TABLESTYLE
  2
AcDbTableStyle
  3
ObjectDBX Classes
 90
     4095
280
     0
281
     0
  0
CLASS
  1
MLEADERSTYLE
  2
AcDbMLeaderStyle
  3
ACDB_MLEADERSTYLE_CLASS
 90
     4095
280
     0
281
     0
  0
CLASS
  1
SUN
  2
AcDbSun
  3
SCENEOE
 90
     1153
280
     0
281
     0
  0
CLASS
  1
ACDBPLACEHOLDER
  2
AcDbPlaceHolder
  3
ObjectDBX Classes
 90
        0
280
     0
281
     0
  0
CLASS
  1
LAYOUT
  2
AcDbLayout
  3
ObjectDBX Classes
 90
        0
280
     0
281
     0
  0
ENDSEC
  0
SECTION
  2
TABLES
  0
TABLE
  2
VPORT
  5
8
330
0
100
AcDbSymbolTable
 70
     1
  0
VPORT
  5
29
330
8
100
AcDbSymbolTableRecord
100
AcDbViewportTableRecord
  2
*Active
 70
     0
 10
0.0
 20
0.0
 11
1.0
 21
1.0
 12
420.5
 22
297.0
 13
0.0
 23
0.0
 14
10.0
 24
10.0
 15
10.0
 25
10.0
 16
0.0
 26
0.0
 36
1.0
 17
0.0
 27
0.0
 37
0.0
 40
594.0
 41
1.4158249158
 42
50.0
 43
0.0
 44
0.0
 50
0.0
 51
0.0
 71
     0
 72
  2000
 73
     1
 74
     3
 75
     0
 76
     0
 77
     0
 78
     0
281
     0
 65
     1
110
0.0
120
0.0
130
0.0
111
1.0
121
0.0
131
0.0
112
0.0
122
1.0
132
0.0
 79
     0
146
0.0
  0
ENDTAB
  0
TABLE
  2
LTYPE
  5
5
330
0
100
AcDbSymbolTable
 70
     6
  0
LTYPE
  5
14
330
5
100
AcDbSymbolTableRecord
100
AcDbLinetypeTableRecord
  2
ByBlock
 70
     0
  3

 72
    65
 73
     0
 40
0.0
  0
LTYPE
  5
15
330
5
100
AcDbSymbolTableRecord
100
AcDbLinetypeTableRecord
  2
ByLayer
 70
     0
  3

 72
    65
 73
     0
 40
0.0
  0
LTYPE
  5
16
330
5
100
AcDbSymbolTableRecord
100
AcDbLinetypeTableRecord
  2
Continuous
 70
     0
  3
Solid line
 72
    65
 73
     0
 40
0.0
  0
LTYPE
  5
6E
330
5
100
AcDbSymbolTableRecord
100
AcDbLinetypeTableRecord
  2
HIDDEN
 70
     0
  3
Hidden __ __ __ __ __ __ __ __ __ __ __ __ __ __
 72
    65
 73
     2
 40
1.905
 49
1.27
 74
     0
 49
-0.635
 74
     0
  0
LTYPE
  5
6F
330
5
100
AcDbSymbolTableRecord
100
AcDbLinetypeTableRecord
  2
PHANTOM
 70
     0
  3
Phantom ______  __  __  ______  __  __  ______
 72
    65
 73
     6
 40
12.7
 49
6.35
 74
     0
 49
-1.27
 74
     0
 49
1.27
 74
     0
 49
-1.27
 74
     0
 49
1.27
 74
     0
 49
-1.27
 74
     0
  0
LTYPE
  5
70
330
5
100
AcDbSymbolTableRecord
100
AcDbLinetypeTableRecord
  2
CENTER
 70
     0
  3
Center ____ _ ____ _ ____ _ ____ _ ____ _ ____
 72
    65
 73
     4
 40
10.16
 49
6.35
 74
     0
 49
-1.27
 74
     0
 49
1.27
 74
     0
 49
-1.27
 74
     0
  0
LTYPE
  5
71
330
5
100
AcDbSymbolTableRecord
100
AcDbLinetypeTableRecord
  2
CENTERX2
 70
     0
  3
Center (2x) ________  __  ________  __  _____
 72
    65
 73
     4
 40
20.32
 49
12.7
 74
     0
 49
-2.54
 74
     0
 49
2.54
 74
     0
 49
-2.54
 74
     0
  0
LTYPE
  5
72
330
5
100
AcDbSymbolTableRecord
100
AcDbLinetypeTableRecord
  2
DOT2
 70
     0
  3
Dot (.5x) ........................................
 72
    65
 73
     2
 40
0.635
 49
0.0
 74
     0
 49
-0.635
 74
     0
  0
ENDTAB
  0
TABLE
  2
LAYER
  5
2
330
0
100
AcDbSymbolTable
 70
     1
  0
LAYER
  5
10
330
2
100
AcDbSymbolTableRecord
100
AcDbLayerTableRecord
  2
0
 70
     0
 62
     7
  6
Continuous
370
    -3
390
F
  0
ENDTAB
  0
TABLE
  2
STYLE
  5
3
330
0
100
AcDbSymbolTable
 70
     5
  0
STYLE
  5
11
330
3
100
AcDbSymbolTableRecord
100
AcDbTextStyleTableRecord
  2
Standard
 70
     0
 40
0.0
 41
1.0
 50
0.0
 71
     0
 42
3.0
  3
txt
  4

  0
STYLE
  5
DD
330
3
100
AcDbSymbolTableRecord
100
AcDbTextStyleTableRecord
  2
SLDTEXTSTYLE0
 70
     0
 40
0.0
 41
0.5316086498
 50
0.0
 71
     0
 42
3.0
  3
TXT
  4

  0
STYLE
  5
DF
330
3
100
AcDbSymbolTableRecord
100
AcDbTextStyleTableRecord
  2
SLDTEXTSTYLE1
 70
     0
 40
0.0
 41
0.8435443038
 50
0.0
 71
     0
 42
3.0
  3
ISOCP
  4

  0
STYLE
  5
11D
330
3
100
AcDbSymbolTableRecord
100
AcDbTextStyleTableRecord
  2
SLDTEXTSTYLE2
 70
     0
 40
0.0
 41
0.96
 50
0.0
 71
     0
 42
3.0
  3
ISOCP
  4

  0
STYLE
  5
133
330
3
100
AcDbSymbolTableRecord
100
AcDbTextStyleTableRecord
  2
SLDTEXTSTYLE3
 70
     0
 40
0.0
 41
1.0126582278
 50
0.0
 71
     0
 42
3.0
  3
ISOCP
  4

  0
ENDTAB
  0
TABLE
  2
VIEW
  5
6
330
0
100
AcDbSymbolTable
 70
     0
  0
ENDTAB
  0
TABLE
  2
UCS
  5
7
330
0
100
AcDbSymbolTable
 70
     0
  0
ENDTAB
  0
TABLE
  2
APPID
  5
9
330
0
100
AcDbSymbolTable
 70
     1
  0
APPID
  5
12
330
9
100
AcDbSymbolTableRecord
100
AcDbRegAppTableRecord
  2
ACAD
 70
     0
  0
ENDTAB
  0
TABLE
  2
DIMSTYLE
  5
A
330
0
100
AcDbSymbolTable
 70
     1
100
AcDbDimStyleTable
  0
DIMSTYLE
105
27
330
A
100
AcDbSymbolTableRecord
100
AcDbDimStyleTableRecord
  2
ISO-25
 70
     0
 41
2.5
 42
0.625
 43
3.75
 44
1.25
 73
     0
 74
     0
 77
     1
 78
     8
140
2.5
141
2.5
143
0.0393700787
147
0.625
171
     3
172
     1
178
     0
271
     2
272
     2
274
     3
278
    44
283
     0
284
     8
340
11
  0
ENDTAB
  0
TABLE
  2
BLOCK_RECORD
  5
1
330
0
100
AcDbSymbolTable
 70
     4
  0
BLOCK_RECORD
  5
1F
330
1
100
AcDbSymbolTableRecord
100
AcDbBlockTableRecord
  2
*Model_Space
340
22
  0
BLOCK_RECORD
  5
1B
330
1
100
AcDbSymbolTableRecord
100
AcDbBlockTableRecord
  2
*Paper_Space
340
1E
  0
BLOCK_RECORD
  5
23
330
1
100
AcDbSymbolTableRecord
100
AcDbBlockTableRecord
  2
*Paper_Space0
340
26
  0
BLOCK_RECORD
  5
73
330
1
100
AcDbSymbolTableRecord
100
AcDbBlockTableRecord
  2
A1H
340
0
  0
BLOCK_RECORD
  5
11A
330
1
100
AcDbSymbolTableRecord
100
AcDbBlockTableRecord
  2
Nota legale
340
0
  0
BLOCK_RECORD
  5
11F
330
1
100
AcDbSymbolTableRecord
100
AcDbBlockTableRecord
  2
ISO2768
340
0
  0
ENDTAB
  0
ENDSEC
  0
SECTION
  2
BLOCKS
  0
BLOCK
  5
20
330
1F
100
AcDbEntity
  8
0
100
AcDbBlockBegin
  2
*Model_Space
 70
     0
 10
0.0
 20
0.0
 30
0.0
  3
*Model_Space
  1

  0
ENDBLK
  5
21
330
1F
100
AcDbEntity
  8
0
100
AcDbBlockEnd
  0
BLOCK
  5
1C
330
1B
100
AcDbEntity
 67
     1
  8
0
100
AcDbBlockBegin
  2
*Paper_Space
 70
     0
 10
0.0
 20
0.0
 30
0.0
  3
*Paper_Space
  1

  0
ENDBLK
  5
1D
330
1B
100
AcDbEntity
 67
     1
  8
0
100
AcDbBlockEnd
  0
BLOCK
  5
24
330
23
100
AcDbEntity
  8
0
100
AcDbBlockBegin
  2
*Paper_Space0
 70
     0
 10
0.0
 20
0.0
 30
0.0
  3
*Paper_Space0
  1

  0
ENDBLK
  5
25
330
23
100
AcDbEntity
  8
0
100
AcDbBlockEnd
  0
BLOCK
  5
74
330
73
100
AcDbEntity
  8
0
100
AcDbBlockBegin
  2
A1H
 70
     0
 10
0.0
 20
0.0
 30
0.0
  3
A1H
  1

  0
LINE
  5
76
330
73
100
AcDbEntity
  8
0
  6
Continuous
 62
     7
370
     0
100
AcDbLine
 10
831.000000015
 20
297.0000020355
 30
0.0
 11
836.0
 21
294.8865984457
 31
0.0
  0
LINE
  5
77
330
73
100
AcDbEntity
  8
0
  6
Continuous
 62
     7
370
     0
100
AcDbLine
 10
831.000000015
 20
297.0000020355
 30
0.0
 11
836.0
 21
299.1134051111
 31
0.0
  0
LINE
  5
78
330
73
100
AcDbEntity
  8
0
  6
Continuous
 62
     7
370
     0
100
AcDbLine
 10
678.9375
 20
10.0
 30
0.0
 11
678.9375
 21
4.9999966063
 31
0.0
  0
LINE
  5
79
330
73
100
AcDbEntity
  8
0
  6
Continuous
 62
     7
370
     0
100
AcDbLine
 10
628.25
 20
10.0
 30
0.0
 11
628.25
 21
4.9999966063
 31
0.0
  0
LINE
  5
7A
330
73
100
AcDbEntity
  8
0
  6
Continuous
 62
     7
370
     0
100
AcDbLine
 10
577.5625
 20
10.0
 30
0.0
 11
577.5625
 21
4.9999966063
 31
0.0
  0
LINE
  5
7B
330
73
100
AcDbEntity
  8
0
  6
Continuous
 62
     7
370
     0
100
AcDbLine
 10
526.875
 20
10.0
 30
0.0
 11
526.875
 21
4.9999966063
 31
0.0
  0
LINE
  5
7C
330
73
100
AcDbEntity
  8
0
  6
Continuous
 62
     7
370
     0
100
AcDbLine
 10
476.1875
 20
10.0
 30
0.0
 11
476.1875
 21
4.9999966063
 31
0.0
  0
LINE
  5
7D
330
73
100
AcDbEntity
  8
0
  6
Continuous
 62
     7
370
     0
100
AcDbLine
 10
425.5
 20
10.0
 30
0.0
 11
425.5
 21
5.0
 31
0.0
  0
LINE
  5
7E
330
73
100
AcDbEntity
  8
0
  6
Continuous
 62
     7
370
     0
100
AcDbLine
 10
374.8125
 20
10.0
 30
0.0
 11
374.8125
 21
4.9999966063
 31
0.0
  0
LINE
  5
7F
330
73
100
AcDbEntity
  8
0
  6
Continuous
 62
     7
370
     0
100
AcDbLine
 10
324.125
 20
10.0
 30
0.0
 11
324.125
 21
4.9999966063
 31
0.0
  0
LINE
  5
80
330
73
100
AcDbEntity
  8
0
  6
Continuous
 62
     7
370
     0
100
AcDbLine
 10
273.4375
 20
10.0
 30
0.0
 11
273.4375
 21
4.9999966063
 31
0.0
  0
LINE
  5
81
330
73
100
AcDbEntity
  8
0
  6
Continuous
 62
     7
370
     0
100
AcDbLine
 10
222.75
 20
10.0
 30
0.0
 11
222.75
 21
4.9999966063
 31
0.0
  0
LINE
  5
82
330
73
100
AcDbEntity
  8
0
  6
Continuous
 62
     7
370
     0
100
AcDbLine
 10
172.0625
 20
10.0
 30
0.0
 11
172.0625
 21
4.9999966063
 31
0.0
  0
LINE
  5
83
330
73
100
AcDbEntity
  8
0
  6
Continuous
 62
     7
370
     0
100
AcDbLine
 10
121.375
 20
10.0
 30
0.0
 11
121.375
 21
4.9999966063
 31
0.0
  0
LINE
  5
84
330
73
100
AcDbEntity
  8
0
  6
Continuous
 62
     7
370
     0
100
AcDbLine
 10
70.6875
 20
10.0
 30
0.0
 11
70.6875
 21
4.9999966063
 31
0.0
  0
LINE
  5
85
330
73
100
AcDbEntity
  8
0
  6
Continuous
 62
     7
370
     0
100
AcDbLine
 10
831.0
 20
589.0
 30
0.0
 11
831.0
 21
583.9999966063
 31
0.0
  0
LINE
  5
86
330
73
100
AcDbEntity
  8
0
  6
Continuous
 62
     7
370
     0
100
AcDbLine
 10
780.3125
 20
589.0
 30
0.0
 11
780.3125
 21
583.9999966063
 31
0.0
  0
LINE
  5
87
330
73
100
AcDbEntity
  8
0
  6
Continuous
 62
     7
370
     0
100
AcDbLine
 10
729.625
 20
589.0
 30
0.0
 11
729.625
 21
583.9999966063
 31
0.0
  0
LINE
  5
88
330
73
100
AcDbEntity
  8
0
  6
Continuous
 62
     7
370
     0
100
AcDbLine
 10
678.9375
 20
589.0
 30
0.0
 11
678.9375
 21
583.9999966063
 31
0.0
  0
LINE
  5
89
330
73
100
AcDbEntity
  8
0
  6
Continuous
 62
     7
370
     0
100
AcDbLine
 10
628.25
 20
589.0
 30
0.0
 11
628.25
 21
583.9999966063
 31
0.0
  0
LINE
  5
8A
330
73
100
AcDbEntity
  8
0
  6
Continuous
 62
     7
370
     0
100
AcDbLine
 10
577.5625
 20
589.0
 30
0.0
 11
577.5625
 21
583.9999966063
 31
0.0
  0
LINE
  5
8B
330
73
100
AcDbEntity
  8
0
  6
Continuous
 62
     7
370
     0
100
AcDbLine
 10
526.875
 20
589.0
 30
0.0
 11
526.875
 21
583.9999966063
 31
0.0
  0
LINE
  5
8C
330
73
100
AcDbEntity
  8
0
  6
Continuous
 62
     7
370
     0
100
AcDbLine
 10
476.1875
 20
589.0
 30
0.0
 11
476.1875
 21
583.9999966063
 31
0.0
  0
LINE
  5
8D
330
73
100
AcDbEntity
  8
0
  6
Continuous
 62
     7
370
     0
100
AcDbLine
 10
425.5
 20
589.0
 30
0.0
 11
425.5
 21
583.9999966063
 31
0.0
  0
LINE
  5
8E
330
73
100
AcDbEntity
  8
0
  6
Continuous
 62
     7
370
     0
100
AcDbLine
 10
374.8125
 20
589.0
 30
0.0
 11
374.8125
 21
583.9999966063
 31
0.0
  0
LINE
  5
8F
330
73
100
AcDbEntity
  8
0
  6
Continuous
 62
     7
370
     0
100
AcDbLine
 10
324.125
 20
589.0
 30
0.0
 11
324.125
 21
583.9999966063
 31
0.0
  0
LINE
  5
90
330
73
100
AcDbEntity
  8
0
  6
Continuous
 62
     7
370
     0
100
AcDbLine
 10
273.4375
 20
589.0
 30
0.0
 11
273.4375
 21
583.9999966063
 31
0.0
  0
LINE
  5
91
330
73
100
AcDbEntity
  8
0
  6
Continuous
 62
     7
370
     0
100
AcDbLine
 10
222.75
 20
589.0
 30
0.0
 11
222.75
 21
583.9999966063
 31
0.0
  0
LINE
  5
92
330
73
100
AcDbEntity
  8
0
  6
Continuous
 62
     7
370
     0
100
AcDbLine
 10
172.0625
 20
589.0
 30
0.0
 11
172.0625
 21
583.9999966063
 31
0.0
  0
LINE
  5
93
330
73
100
AcDbEntity
  8
0
  6
Continuous
 62
     7
370
     0
100
AcDbLine
 10
121.375
 20
589.0
 30
0.0
 11
121.375
 21
583.9999966063
 31
0.0
  0
LINE
  5
94
330
73
100
AcDbEntity
  8
0
  6
Continuous
 62
     7
370
     0
100
AcDbLine
 10
70.6875
 20
589.0
 30
0.0
 11
70.6875
 21
583.9999966063
 31
0.0
  0
LINE
  5
95
330
73
100
AcDbEntity
  8
0
  6
Continuous
 62
     7
370
     0
100
AcDbLine
 10
211.0
 20
589.0
 30
0.0
 11
211.0
 21
583.9999966063
 31
0.0
  0
LINE
  5
96
330
73
100
AcDbEntity
  8
0
  6
Continuous
 62
     7
370
     0
100
AcDbLine
 10
286.0
 20
583.9999966063
 30
0.0
 11
288.1134033203
 21
589.0
 31
0.0
  0
LINE
  5
97
330
73
100
AcDbEntity
  8
0
  6
Continuous
 62
     7
370
     0
100
AcDbLine
 10
286.0
 20
583.9999966063
 30
0.0
 11
283.8865966797
 21
589.0
 31
0.0
  0
LINE
  5
98
330
73
100
AcDbEntity
  8
0
  6
Continuous
 62
     7
370
     0
100
AcDbLine
 10
340.5
 20
583.9999966063
 30
0.0
 11
342.6134033203
 21
589.0
 31
0.0
  0
LINE
  5
99
330
73
100
AcDbEntity
  8
0
  6
Continuous
 62
     7
370
     0
100
AcDbLine
 10
340.5
 20
583.9999966063
 30
0.0
 11
338.3865966797
 21
589.0
 31
0.0
  0
LINE
  5
9A
330
73
100
AcDbEntity
  8
0
  6
Continuous
 62
     7
370
     0
100
AcDbLine
 10
421.0
 20
589.0
 30
0.0
 11
421.0
 21
583.9999966063
 31
0.0
  0
LINE
  5
9B
330
73
100
AcDbEntity
  8
0
  6
Continuous
 62
     7
370
     0
100
AcDbLine
 10
631.0
 20
589.0
 30
0.0
 11
631.0
 21
583.9999966063
 31
0.0
  0
LINE
  5
9C
330
73
100
AcDbEntity
  8
0
  6
Continuous
 62
     7
370
     0
100
AcDbLine
 10
656.0
 20
583.9999966063
 30
0.0
 11
658.1134033203
 21
589.0
 31
0.0
  0
LINE
  5
9D
330
73
100
AcDbEntity
  8
0
  6
Continuous
 62
     7
370
     0
100
AcDbLine
 10
656.0
 20
583.9999966063
 30
0.0
 11
653.8865966797
 21
589.0
 31
0.0
  0
LINE
  5
9E
330
73
100
AcDbEntity
  8
0
  6
Continuous
 62
     7
370
     0
100
AcDbLine
 10
211.0
 20
4.9999966063
 30
0.0
 11
211.0
 21
10.0
 31
0.0
  0
LINE
  5
9F
330
73
100
AcDbEntity
  8
0
  6
Continuous
 62
     7
370
     0
100
AcDbLine
 10
285.9999985656
 20
10.0
 30
0.0
 11
288.1134023207
 21
4.9999966063
 31
0.0
  0
LINE
  5
A0
330
73
100
AcDbEntity
  8
0
  6
Continuous
 62
     7
370
     0
100
AcDbLine
 10
285.9999985656
 20
10.0
 30
0.0
 11
283.8865968971
 21
4.9999966063
 31
0.0
  0
LINE
  5
A1
330
73
100
AcDbEntity
  8
0
  6
Continuous
 62
     7
370
     0
100
AcDbLine
 10
340.5
 20
10.0
 30
0.0
 11
342.6134033203
 21
4.9999966063
 31
0.0
  0
LINE
  5
A2
330
73
100
AcDbEntity
  8
0
  6
Continuous
 62
     7
370
     0
100
AcDbLine
 10
340.5
 20
10.0
 30
0.0
 11
338.3865966797
 21
4.9999966063
 31
0.0
  0
LINE
  5
A3
330
73
100
AcDbEntity
  8
0
  6
Continuous
 62
     7
370
     0
100
AcDbLine
 10
421.0
 20
4.9999966063
 30
0.0
 11
421.0
 21
10.0
 31
0.0
  0
LINE
  5
A4
330
73
100
AcDbEntity
  8
0
  6
Continuous
 62
     7
370
     0
100
AcDbLine
 10
631.0
 20
4.9999966063
 30
0.0
 11
631.0
 21
10.0
 31
0.0
  0
LINE
  5
A5
330
73
100
AcDbEntity
  8
0
  6
Continuous
 62
     7
370
     0
100
AcDbLine
 10
656.0
 20
10.0
 30
0.0
 11
658.1134033203
 21
4.9999966063
 31
0.0
  0
LINE
  5
A6
330
73
100
AcDbEntity
  8
0
  6
Continuous
 62
     7
370
     0
100
AcDbLine
 10
656.0
 20
10.0
 30
0.0
 11
653.8865966797
 21
4.9999966063
 31
0.0
  0
LINE
  5
A7
330
73
100
AcDbEntity
  8
0
  6
Continuous
 62
     7
370
     0
100
AcDbLine
 10
836.0
 20
57.833337
 30
0.0
 11
831.0
 21
57.833337
 31
0.0
  0
LINE
  5
A8
330
73
100
AcDbEntity
  8
0
  6
Continuous
 62
     7
370
     0
100
AcDbLine
 10
836.0
 20
105.66667
 30
0.0
 11
831.0
 21
105.66667
 31
0.0
  0
LINE
  5
A9
330
73
100
AcDbEntity
  8
0
  6
Continuous
 62
     7
370
     0
100
AcDbLine
 10
836.0
 20
153.500003
 30
0.0
 11
831.0
 21
153.500003
 31
0.0
  0
LINE
  5
AA
330
73
100
AcDbEntity
  8
0
  6
Continuous
 62
     7
370
     0
100
AcDbLine
 10
836.0
 20
201.333336
 30
0.0
 11
831.0
 21
201.333336
 31
0.0
  0
LINE
  5
AB
330
73
100
AcDbEntity
  8
0
  6
Continuous
 62
     7
370
     0
100
AcDbLine
 10
836.0
 20
249.166669
 30
0.0
 11
831.0
 21
249.166669
 31
0.0
  0
LINE
  5
AC
330
73
100
AcDbEntity
  8
0
  6
Continuous
 62
     7
370
     0
100
AcDbLine
 10
836.0
 20
296.9999983032
 30
0.0
 11
831.000000015
 21
297.0000020355
 31
0.0
  0
LINE
  5
AD
330
73
100
AcDbEntity
  8
0
  6
Continuous
 62
     7
370
     0
100
AcDbLine
 10
836.0
 20
344.833335
 30
0.0
 11
831.0
 21
344.833335
 31
0.0
  0
LINE
  5
AE
330
73
100
AcDbEntity
  8
0
  6
Continuous
 62
     7
370
     0
100
AcDbLine
 10
836.0
 20
392.666668
 30
0.0
 11
831.0
 21
392.666668
 31
0.0
  0
LINE
  5
AF
330
73
100
AcDbEntity
  8
0
  6
Continuous
 62
     7
370
     0
100
AcDbLine
 10
836.0
 20
440.500001
 30
0.0
 11
831.0
 21
440.500001
 31
0.0
  0
LINE
  5
B0
330
73
100
AcDbEntity
  8
0
  6
Continuous
 62
     7
370
     0
100
AcDbLine
 10
836.0
 20
488.333334
 30
0.0
 11
831.0
 21
488.333334
 31
0.0
  0
LINE
  5
B1
330
73
100
AcDbEntity
  8
0
  6
Continuous
 62
     7
370
     0
100
AcDbLine
 10
836.0
 20
536.166667
 30
0.0
 11
831.0
 21
536.166667
 31
0.0
  0
LINE
  5
B2
330
73
100
AcDbEntity
  8
0
  6
Continuous
 62
     7
370
     0
100
AcDbLine
 10
20.0000033937
 20
10.0
 30
0.0
 11
15.0
 21
10.0
 31
0.0
  0
LINE
  5
B3
330
73
100
AcDbEntity
  8
0
  6
Continuous
 62
     7
370
     0
100
AcDbLine
 10
20.0000033937
 20
57.833337
 30
0.0
 11
15.0
 21
57.833337
 31
0.0
  0
LINE
  5
B4
330
73
100
AcDbEntity
  8
0
  6
Continuous
 62
     7
370
     0
100
AcDbLine
 10
20.0000033937
 20
105.66667
 30
0.0
 11
15.0
 21
105.66667
 31
0.0
  0
LINE
  5
B5
330
73
100
AcDbEntity
  8
0
  6
Continuous
 62
     7
370
     0
100
AcDbLine
 10
20.0000033937
 20
153.500003
 30
0.0
 11
15.0
 21
153.500003
 31
0.0
  0
LINE
  5
B6
330
73
100
AcDbEntity
  8
0
  6
Continuous
 62
     7
370
     0
100
AcDbLine
 10
20.0000033937
 20
201.333336
 30
0.0
 11
15.0
 21
201.333336
 31
0.0
  0
LINE
  5
B7
330
73
100
AcDbEntity
  8
0
  6
Continuous
 62
     7
370
     0
100
AcDbLine
 10
20.0000033937
 20
249.166669
 30
0.0
 11
15.0
 21
249.166669
 31
0.0
  0
LINE
  5
B8
330
73
100
AcDbEntity
  8
0
  6
Continuous
 62
     7
370
     0
100
AcDbLine
 10
20.0000033937
 20
297.000002
 30
0.0
 11
15.0
 21
297.000002
 31
0.0
  0
LINE
  5
B9
330
73
100
AcDbEntity
  8
0
  6
Continuous
 62
     7
370
     0
100
AcDbLine
 10
20.0000033937
 20
344.833335
 30
0.0
 11
15.0
 21
344.833335
 31
0.0
  0
LINE
  5
BA
330
73
100
AcDbEntity
  8
0
  6
Continuous
 62
     7
370
     0
100
AcDbLine
 10
20.0000033937
 20
392.666668
 30
0.0
 11
15.0
 21
392.666668
 31
0.0
  0
LINE
  5
BB
330
73
100
AcDbEntity
  8
0
  6
Continuous
 62
     7
370
     0
100
AcDbLine
 10
20.0000033937
 20
440.500001
 30
0.0
 11
15.0
 21
440.500001
 31
0.0
  0
LINE
  5
BC
330
73
100
AcDbEntity
  8
0
  6
Continuous
 62
     7
370
     0
100
AcDbLine
 10
20.0000033937
 20
488.333334
 30
0.0
 11
15.0
 21
488.333334
 31
0.0
  0
LINE
  5
BD
330
73
100
AcDbEntity
  8
0
  6
Continuous
 62
     7
370
     0
100
AcDbLine
 10
831.0
 20
589.0
 30
0.0
 11
831.0
 21
583.9999966063
 31
0.0
  0
LINE
  5
BE
330
73
100
AcDbEntity
  8
0
  6
Continuous
 62
     7
370
     0
100
AcDbLine
 10
20.0000033937
 20
536.166667
 30
0.0
 11
15.0
 21
536.166667
 31
0.0
  0
LINE
  5
BF
330
73
100
AcDbEntity
  8
0
  6
Continuous
 62
     7
370
     0
100
AcDbLine
 10
821.0
 20
10.0
 30
0.0
 11
821.0
 21
4.9999966063
 31
0.0
  0
LINE
  5
C0
330
73
100
AcDbEntity
  8
0
  6
Continuous
 62
     7
370
     0
100
AcDbLine
 10
811.0
 20
10.0
 30
0.0
 11
811.0
 21
4.9999966063
 31
0.0
  0
LINE
  5
C1
330
73
100
AcDbEntity
  8
0
  6
Continuous
 62
     7
370
     0
100
AcDbLine
 10
801.0
 20
10.0
 30
0.0
 11
801.0
 21
4.9999966063
 31
0.0
  0
LINE
  5
C2
330
73
100
AcDbEntity
  8
0
  6
Continuous
 62
     7
370
     0
100
AcDbLine
 10
791.0
 20
10.0
 30
0.0
 11
791.0
 21
4.9999966063
 31
0.0
  0
LINE
  5
C3
330
73
100
AcDbEntity
  8
0
  6
Continuous
 62
     7
370
     0
100
AcDbLine
 10
781.0
 20
10.0
 30
0.0
 11
781.0
 21
4.9999966063
 31
0.0
  0
LINE
  5
C4
330
73
100
AcDbEntity
  8
0
  6
Continuous
 62
     7
370
     0
100
AcDbLine
 10
771.0
 20
10.0
 30
0.0
 11
771.0
 21
4.9999966063
 31
0.0
  0
LINE
  5
C5
330
73
100
AcDbEntity
  8
0
  6
Continuous
 62
     7
370
     0
100
AcDbLine
 10
761.0
 20
10.0
 30
0.0
 11
761.0
 21
4.9999966063
 31
0.0
  0
LINE
  5
C6
330
73
100
AcDbEntity
  8
0
  6
Continuous
 62
     7
370
     0
100
AcDbLine
 10
751.0
 20
10.0
 30
0.0
 11
751.0
 21
4.9999966063
 31
0.0
  0
LINE
  5
C7
330
73
100
AcDbEntity
  8
0
  6
Continuous
 62
     7
370
     0
100
AcDbLine
 10
741.0
 20
10.0
 30
0.0
 11
741.0
 21
4.9999966063
 31
0.0
  0
LINE
  5
C8
330
73
100
AcDbEntity
  8
0
  6
Continuous
 62
     7
370
     0
100
AcDbLine
 10
731.0
 20
10.0
 30
0.0
 11
731.0
 21
4.9999966063
 31
0.0
  0
LINE
  5
C9
330
73
100
AcDbEntity
  8
0
  6
Continuous
 62
     7
370
     0
100
AcDbLine
 10
15.0
 20
4.9999966063
 30
0.0
 11
15.0
 21
589.0
 31
0.0
  0
LINE
  5
CA
330
73
100
AcDbEntity
  8
0
  6
Continuous
 62
     7
370
     0
100
AcDbLine
 10
836.0
 20
4.9999966063
 30
0.0
 11
15.0
 21
4.9999966063
 31
0.0
  0
LINE
  5
CB
330
73
100
AcDbEntity
  8
0
  6
Continuous
 62
     7
370
     0
100
AcDbLine
 10
836.0
 20
4.9999966063
 30
0.0
 11
836.0
 21
589.0
 31
0.0
  0
LINE
  5
CC
330
73
100
AcDbEntity
  8
0
  6
Continuous
 62
     7
370
     0
100
AcDbLine
 10
15.0
 20
589.0
 30
0.0
 11
836.0
 21
589.0
 31
0.0
  0
LINE
  5
CD
330
73
100
AcDbEntity
  8
0
  6
Continuous
 62
     7
370
     0
100
AcDbLine
 10
20.0000033937
 20
583.9999966063
 30
0.0
 11
20.0000033937
 21
589.0
 31
0.0
  0
LINE
  5
CE
330
73
100
AcDbEntity
  8
0
  6
Continuous
 62
     7
370
     0
100
AcDbLine
 10
20.0000033937
 20
10.0
 30
0.0
 11
20.0000033937
 21
583.9999966063
 31
0.0
  0
LINE
  5
CF
330
73
100
AcDbEntity
  8
0
  6
Continuous
 62
     7
370
     0
100
AcDbLine
 10
20.0000033937
 20
4.9999966063
 30
0.0
 11
20.0000033937
 21
10.0
 31
0.0
  0
LINE
  5
D0
330
73
100
AcDbEntity
  8
0
  6
Continuous
 62
     7
370
     0
100
AcDbLine
 10
831.0
 20
583.9999966063
 30
0.0
 11
831.0
 21
589.0
 31
0.0
  0
LINE
  5
D1
330
73
100
AcDbEntity
  8
0
  6
Continuous
 62
     7
370
     0
100
AcDbLine
 10
831.0
 20
10.0
 30
0.0
 11
831.0
 21
583.9999966063
 31
0.0
  0
LINE
  5
D2
330
73
100
AcDbEntity
  8
0
  6
Continuous
 62
     7
370
     0
100
AcDbLine
 10
831.0
 20
4.9999966063
 30
0.0
 11
831.0
 21
10.0
 31
0.0
  0
LINE
  5
D3
330
73
100
AcDbEntity
  8
0
  6
Continuous
 62
     7
370
     0
100
AcDbLine
 10
20.0000033937
 20
10.0
 30
0.0
 11
15.0
 21
10.0
 31
0.0
  0
LINE
  5
D4
330
73
100
AcDbEntity
  8
0
  6
Continuous
 62
     7
370
     0
100
AcDbLine
 10
831.0
 20
10.0
 30
0.0
 11
20.0000033937
 21
10.0
 31
0.0
  0
LINE
  5
D5
330
73
100
AcDbEntity
  8
0
  6
Continuous
 62
     7
370
     0
100
AcDbLine
 10
836.0
 20
10.0
 30
0.0
 11
831.0
 21
10.0
 31
0.0
  0
LINE
  5
D6
330
73
100
AcDbEntity
  8
0
  6
Continuous
 62
     7
370
     0
100
AcDbLine
 10
831.0
 20
583.9999966063
 30
0.0
 11
836.0
 21
583.9999966063
 31
0.0
  0
LINE
  5
D7
330
73
100
AcDbEntity
  8
0
  6
Continuous
 62
     7
370
     0
100
AcDbLine
 10
20.0000033937
 20
583.9999966063
 30
0.0
 11
831.0
 21
583.9999966063
 31
0.0
  0
LINE
  5
D8
330
73
100
AcDbEntity
  8
0
  6
Continuous
 62
     7
370
     0
100
AcDbLine
 10
15.0
 20
583.9999966063
 30
0.0
 11
20.0000033937
 21
583.9999966063
 31
0.0
  0
LINE
  5
D9
330
73
100
AcDbEntity
  8
0
  6
Continuous
 62
     7
370
     0
100
AcDbLine
 10
0.0
 20
594.0
 30
0.0
 11
0.0
 21
0.0
 31
0.0
  0
LINE
  5
DA
330
73
100
AcDbEntity
  8
0
  6
Continuous
 62
     7
370
     0
100
AcDbLine
 10
0.0
 20
594.0
 30
0.0
 11
841.0
 21
594.0
 31
0.0
  0
LINE
  5
DB
330
73
100
AcDbEntity
  8
0
  6
Continuous
 62
     7
370
     0
100
AcDbLine
 10
841.0
 20
0.0
 30
0.0
 11
841.0
 21
594.0
 31
0.0
  0
LINE
  5
DC
330
73
100
AcDbEntity
  8
0
  6
Continuous
 62
     7
370
     0
100
AcDbLine
 10
841.0
 20
0.0
 30
0.0
 11
0.0
 21
0.0
 31
0.0
  0
MTEXT
  5
DE
330
73
100
AcDbEntity
  8
0
  6
Continuous
 62
     7
370
     0
100
AcDbMText
 10
655.527178913
 20
7.389386302
 30
0.0
 40
1.5
 41
0.0
 71
     1
 72
     1
  1
1
  7
SLDTEXTSTYLE0
 73
     1
 44
1.0
  0
MTEXT
  5
E0
330
73
100
AcDbEntity
  8
0
  6
Continuous
 62
     7
370
     0
100
AcDbMText
 10
702.3899506522
 20
8.6449155598
 30
0.0
 40
3.0
 41
0.0
 71
     1
 72
     1
  1
13
  7
SLDTEXTSTYLE1
 73
     1
 44
1.0
  0
MTEXT
  5
E1
330
73
100
AcDbEntity
  8
0
  6
Continuous
 62
     7
370
     0
100
AcDbMText
 10
832.3587006522
 20
561.2282490598
 30
0.0
 40
3.0
 41
0.0
 71
     1
 72
     1
  1
A
  7
SLDTEXTSTYLE1
 73
     1
 44
1.0
  0
MTEXT
  5
E2
330
73
100
AcDbEntity
  8
0
  6
Continuous
 62
     7
370
     0
100
AcDbMText
 10
832.3587006522
 20
513.3949160598
 30
0.0
 40
3.0
 41
0.0
 71
     1
 72
     1
  1
B
  7
SLDTEXTSTYLE1
 73
     1
 44
1.0
  0
MTEXT
  5
E3
330
73
100
AcDbEntity
  8
0
  6
Continuous
 62
     7
370
     0
100
AcDbMText
 10
832.2934832609
 20
465.5615830598
 30
0.0
 40
3.0
 41
0.0
 71
     1
 72
     1
  1
C
  7
SLDTEXTSTYLE1
 73
     1
 44
1.0
  0
MTEXT
  5
E4
330
73
100
AcDbEntity
  8
0
  6
Continuous
 62
     7
370
     0
100
AcDbMText
 10
832.2934832609
 20
417.7282500598
 30
0.0
 40
3.0
 41
0.0
 71
     1
 72
     1
  1
D
  7
SLDTEXTSTYLE1
 73
     1
 44
1.0
  0
MTEXT
  5
E5
330
73
100
AcDbEntity
  8
0
  6
Continuous
 62
     7
370
     0
100
AcDbMText
 10
832.3587006522
 20
369.8949170598
 30
0.0
 40
3.0
 41
0.0
 71
     1
 72
     1
  1
E
  7
SLDTEXTSTYLE1
 73
     1
 44
1.0
  0
MTEXT
  5
E6
330
73
100
AcDbEntity
  8
0
  6
Continuous
 62
     7
370
     0
100
AcDbMText
 10
832.4565267391
 20
322.0615840598
 30
0.0
 40
3.0
 41
0.0
 71
     1
 72
     1
  1
F
  7
SLDTEXTSTYLE1
 73
     1
 44
1.0
  0
MTEXT
  5
E7
330
73
100
AcDbEntity
  8
0
  6
Continuous
 62
     7
370
     0
100
AcDbMText
 10
832.1956571739
 20
274.2282510598
 30
0.0
 40
3.0
 41
0.0
 71
     1
 72
     1
  1
G
  7
SLDTEXTSTYLE1
 73
     1
 44
1.0
  0
MTEXT
  5
E8
330
73
100
AcDbEntity
  8
0
  6
Continuous
 62
     7
370
     0
100
AcDbMText
 10
832.2934832609
 20
226.3949180598
 30
0.0
 40
3.0
 41
0.0
 71
     1
 72
     1
  1
H
  7
SLDTEXTSTYLE1
 73
     1
 44
1.0
  0
MTEXT
  5
E9
330
73
100
AcDbEntity
  8
0
  6
Continuous
 62
     7
370
     0
100
AcDbMText
 10
833.0434832609
 20
178.5615850598
 30
0.0
 40
3.0
 41
0.0
 71
     1
 72
     1
  1
I
  7
SLDTEXTSTYLE1
 73
     1
 44
1.0
  0
MTEXT
  5
EA
330
73
100
AcDbEntity
  8
0
  6
Continuous
 62
     7
370
     0
100
AcDbMText
 10
832.652178913
 20
130.7282520598
 30
0.0
 40
3.0
 41
0.0
 71
     1
 72
     1
  1
J
  7
SLDTEXTSTYLE1
 73
     1
 44
1.0
  0
MTEXT
  5
EB
330
73
100
AcDbEntity
  8
0
  6
Continuous
 62
     7
370
     0
100
AcDbMText
 10
832.3587006522
 20
82.8949190598
 30
0.0
 40
3.0
 41
0.0
 71
     1
 72
     1
  1
K
  7
SLDTEXTSTYLE1
 73
     1
 44
1.0
  0
MTEXT
  5
EC
330
73
100
AcDbEntity
  8
0
  6
Continuous
 62
     7
370
     0
100
AcDbMText
 10
832.5543528261
 20
39.0877190249
 30
0.0
 40
3.0
 41
0.0
 71
     1
 72
     1
  1
L
  7
SLDTEXTSTYLE1
 73
     1
 44
1.0
  0
MTEXT
  5
ED
330
73
100
AcDbEntity
  8
0
  6
Continuous
 62
     7
370
     0
100
AcDbMText
 10
655.527178913
 20
588.1028068642
 30
0.0
 40
1.5
 41
0.0
 71
     1
 72
     1
  1
1
  7
SLDTEXTSTYLE0
 73
     1
 44
1.0
  0
MTEXT
  5
EE
330
73
100
AcDbEntity
  8
0
  6
Continuous
 62
     7
370
     0
100
AcDbMText
 10
340.027178913
 20
588.1028068642
 30
0.0
 40
1.5
 41
0.0
 71
     1
 72
     1
  1
3
  7
SLDTEXTSTYLE0
 73
     1
 44
1.0
  0
MTEXT
  5
EF
330
73
100
AcDbEntity
  8
0
  6
Continuous
 62
     7
370
     0
100
AcDbMText
 10
285.527178913
 20
588.1028068642
 30
0.0
 40
1.5
 41
0.0
 71
     1
 72
     1
  1
2
  7
SLDTEXTSTYLE0
 73
     1
 44
1.0
  0
MTEXT
  5
F0
330
73
100
AcDbEntity
  8
0
  6
Continuous
 62
     7
370
     0
100
AcDbMText
 10
44.3981028261
 20
587.6449155598
 30
0.0
 40
3.0
 41
0.0
 71
     1
 72
     1
  1
1
  7
SLDTEXTSTYLE1
 73
     1
 44
1.0
  0
MTEXT
  5
F1
330
73
100
AcDbEntity
  8
0
  6
Continuous
 62
     7
370
     0
100
AcDbMText
 10
95.0856028261
 20
587.6449155598
 30
0.0
 40
3.0
 41
0.0
 71
     1
 72
     1
  1
2
  7
SLDTEXTSTYLE1
 73
     1
 44
1.0
  0
MTEXT
  5
F2
330
73
100
AcDbEntity
  8
0
  6
Continuous
 62
     7
370
     0
100
AcDbMText
 10
145.7731028261
 20
587.6449155598
 30
0.0
 40
3.0
 41
0.0
 71
     1
 72
     1
  1
3
  7
SLDTEXTSTYLE1
 73
     1
 44
1.0
  0
MTEXT
  5
F3
330
73
100
AcDbEntity
  8
0
  6
Continuous
 62
     7
370
     0
100
AcDbMText
 10
196.4606028261
 20
587.6449155598
 30
0.0
 40
3.0
 41
0.0
 71
     1
 72
     1
  1
4
  7
SLDTEXTSTYLE1
 73
     1
 44
1.0
  0
MTEXT
  5
F4
330
73
100
AcDbEntity
  8
0
  6
Continuous
 62
     7
370
     0
100
AcDbMText
 10
247.1481028261
 20
587.6449155598
 30
0.0
 40
3.0
 41
0.0
 71
     1
 72
     1
  1
5
  7
SLDTEXTSTYLE1
 73
     1
 44
1.0
  0
MTEXT
  5
F5
330
73
100
AcDbEntity
  8
0
  6
Continuous
 62
     7
370
     0
100
AcDbMText
 10
297.8356028261
 20
587.6449155598
 30
0.0
 40
3.0
 41
0.0
 71
     1
 72
     1
  1
6
  7
SLDTEXTSTYLE1
 73
     1
 44
1.0
  0
MTEXT
  5
F6
330
73
100
AcDbEntity
  8
0
  6
Continuous
 62
     7
370
     0
100
AcDbMText
 10
348.5231028261
 20
587.6449155598
 30
0.0
 40
3.0
 41
0.0
 71
     1
 72
     1
  1
7
  7
SLDTEXTSTYLE1
 73
     1
 44
1.0
  0
MTEXT
  5
F7
330
73
100
AcDbEntity
  8
0
  6
Continuous
 62
     7
370
     0
100
AcDbMText
 10
399.2106028261
 20
587.6449155598
 30
0.0
 40
3.0
 41
0.0
 71
     1
 72
     1
  1
8
  7
SLDTEXTSTYLE1
 73
     1
 44
1.0
  0
MTEXT
  5
F8
330
73
100
AcDbEntity
  8
0
  6
Continuous
 62
     7
370
     0
100
AcDbMText
 10
449.8981028261
 20
587.6449155598
 30
0.0
 40
3.0
 41
0.0
 71
     1
 72
     1
  1
9
  7
SLDTEXTSTYLE1
 73
     1
 44
1.0
  0
MTEXT
  5
F9
330
73
100
AcDbEntity
  8
0
  6
Continuous
 62
     7
370
     0
100
AcDbMText
 10
499.6399506522
 20
587.6449155598
 30
0.0
 40
3.0
 41
0.0
 71
     1
 72
     1
  1
10
  7
SLDTEXTSTYLE1
 73
     1
 44
1.0
  0
MTEXT
  5
FA
330
73
100
AcDbEntity
  8
0
  6
Continuous
 62
     7
370
     0
100
AcDbMText
 10
550.3274506522
 20
587.6449155598
 30
0.0
 40
3.0
 41
0.0
 71
     1
 72
     1
  1
11
  7
SLDTEXTSTYLE1
 73
     1
 44
1.0
  0
MTEXT
  5
FB
330
73
100
AcDbEntity
  8
0
  6
Continuous
 62
     7
370
     0
100
AcDbMText
 10
601.0149506522
 20
587.6449155598
 30
0.0
 40
3.0
 41
0.0
 71
     1
 72
     1
  1
12
  7
SLDTEXTSTYLE1
 73
     1
 44
1.0
  0
MTEXT
  5
FC
330
73
100
AcDbEntity
  8
0
  6
Continuous
 62
     7
370
     0
100
AcDbMText
 10
647.7024506522
 20
587.6449155598
 30
0.0
 40
3.0
 41
0.0
 71
     1
 72
     1
  1
13
  7
SLDTEXTSTYLE1
 73
     1
 44
1.0
  0
MTEXT
  5
FD
330
73
100
AcDbEntity
  8
0
  6
Continuous
 62
     7
370
     0
100
AcDbMText
 10
702.3899506522
 20
587.6449155598
 30
0.0
 40
3.0
 41
0.0
 71
     1
 72
     1
  1
14
  7
SLDTEXTSTYLE1
 73
     1
 44
1.0
  0
MTEXT
  5
FE
330
73
100
AcDbEntity
  8
0
  6
Continuous
 62
     7
370
     0
100
AcDbMText
 10
753.0774506522
 20
587.6449155598
 30
0.0
 40
3.0
 41
0.0
 71
     1
 72
     1
  1
15
  7
SLDTEXTSTYLE1
 73
     1
 44
1.0
  0
MTEXT
  5
FF
330
73
100
AcDbEntity
  8
0
  6
Continuous
 62
     7
370
     0
100
AcDbMText
 10
803.7649506522
 20
587.6449155598
 30
0.0
 40
3.0
 41
0.0
 71
     1
 72
     1
  1
16
  7
SLDTEXTSTYLE1
 73
     1
 44
1.0
  0
MTEXT
  5
100
330
73
100
AcDbEntity
  8
0
  6
Continuous
 62
     7
370
     0
100
AcDbMText
 10
340.027178913
 20
7.389386302
 30
0.0
 40
1.5
 41
0.0
 71
     1
 72
     1
  1
3
  7
SLDTEXTSTYLE0
 73
     1
 44
1.0
  0
MTEXT
  5
101
330
73
100
AcDbEntity
  8
0
  6
Continuous
 62
     7
370
     0
100
AcDbMText
 10
285.527178913
 20
7.389386302
 30
0.0
 40
1.5
 41
0.0
 71
     1
 72
     1
  1
2
  7
SLDTEXTSTYLE0
 73
     1
 44
1.0
  0
MTEXT
  5
102
330
73
100
AcDbEntity
  8
0
  6
Continuous
 62
     7
370
     0
100
AcDbMText
 10
44.3981028261
 20
8.6449155598
 30
0.0
 40
3.0
 41
0.0
 71
     1
 72
     1
  1
1
  7
SLDTEXTSTYLE1
 73
     1
 44
1.0
  0
MTEXT
  5
103
330
73
100
AcDbEntity
  8
0
  6
Continuous
 62
     7
370
     0
100
AcDbMText
 10
95.0856028261
 20
8.6449155598
 30
0.0
 40
3.0
 41
0.0
 71
     1
 72
     1
  1
2
  7
SLDTEXTSTYLE1
 73
     1
 44
1.0
  0
MTEXT
  5
104
330
73
100
AcDbEntity
  8
0
  6
Continuous
 62
     7
370
     0
100
AcDbMText
 10
145.7731028261
 20
8.6449155598
 30
0.0
 40
3.0
 41
0.0
 71
     1
 72
     1
  1
3
  7
SLDTEXTSTYLE1
 73
     1
 44
1.0
  0
MTEXT
  5
105
330
73
100
AcDbEntity
  8
0
  6
Continuous
 62
     7
370
     0
100
AcDbMText
 10
196.4606028261
 20
8.6449155598
 30
0.0
 40
3.0
 41
0.0
 71
     1
 72
     1
  1
4
  7
SLDTEXTSTYLE1
 73
     1
 44
1.0
  0
MTEXT
  5
106
330
73
100
AcDbEntity
  8
0
  6
Continuous
 62
     7
370
     0
100
AcDbMText
 10
247.1481028261
 20
8.6449155598
 30
0.0
 40
3.0
 41
0.0
 71
     1
 72
     1
  1
5
  7
SLDTEXTSTYLE1
 73
     1
 44
1.0
  0
MTEXT
  5
107
330
73
100
AcDbEntity
  8
0
  6
Continuous
 62
     7
370
     0
100
AcDbMText
 10
297.8356028261
 20
8.6449155598
 30
0.0
 40
3.0
 41
0.0
 71
     1
 72
     1
  1
6
  7
SLDTEXTSTYLE1
 73
     1
 44
1.0
  0
MTEXT
  5
108
330
73
100
AcDbEntity
  8
0
  6
Continuous
 62
     7
370
     0
100
AcDbMText
 10
348.5231028261
 20
8.6449155598
 30
0.0
 40
3.0
 41
0.0
 71
     1
 72
     1
  1
7
  7
SLDTEXTSTYLE1
 73
     1
 44
1.0
  0
MTEXT
  5
109
330
73
100
AcDbEntity
  8
0
  6
Continuous
 62
     7
370
     0
100
AcDbMText
 10
399.2106028261
 20
8.6449155598
 30
0.0
 40
3.0
 41
0.0
 71
     1
 72
     1
  1
8
  7
SLDTEXTSTYLE1
 73
     1
 44
1.0
  0
MTEXT
  5
10A
330
73
100
AcDbEntity
  8
0
  6
Continuous
 62
     7
370
     0
100
AcDbMText
 10
449.8981028261
 20
8.6449155598
 30
0.0
 40
3.0
 41
0.0
 71
     1
 72
     1
  1
9
  7
SLDTEXTSTYLE1
 73
     1
 44
1.0
  0
MTEXT
  5
10B
330
73
100
AcDbEntity
  8
0
  6
Continuous
 62
     7
370
     0
100
AcDbMText
 10
499.6399506522
 20
8.6449155598
 30
0.0
 40
3.0
 41
0.0
 71
     1
 72
     1
  1
10
  7
SLDTEXTSTYLE1
 73
     1
 44
1.0
  0
MTEXT
  5
10C
330
73
100
AcDbEntity
  8
0
  6
Continuous
 62
     7
370
     0
100
AcDbMText
 10
550.3274506522
 20
8.6449155598
 30
0.0
 40
3.0
 41
0.0
 71
     1
 72
     1
  1
11
  7
SLDTEXTSTYLE1
 73
     1
 44
1.0
  0
MTEXT
  5
10D
330
73
100
AcDbEntity
  8
0
  6
Continuous
 62
     7
370
     0
100
AcDbMText
 10
601.0149506522
 20
8.6449155598
 30
0.0
 40
3.0
 41
0.0
 71
     1
 72
     1
  1
12
  7
SLDTEXTSTYLE1
 73
     1
 44
1.0
  0
MTEXT
  5
10E
330
73
100
AcDbEntity
  8
0
  6
Continuous
 62
     7
370
     0
100
AcDbMText
 10
16.3587006522
 20
561.2282490598
 30
0.0
 40
3.0
 41
0.0
 71
     1
 72
     1
  1
A
  7
SLDTEXTSTYLE1
 73
     1
 44
1.0
  0
MTEXT
  5
10F
330
73
100
AcDbEntity
  8
0
  6
Continuous
 62
     7
370
     0
100
AcDbMText
 10
16.3587006522
 20
513.3949160598
 30
0.0
 40
3.0
 41
0.0
 71
     1
 72
     1
  1
B
  7
SLDTEXTSTYLE1
 73
     1
 44
1.0
  0
MTEXT
  5
110
330
73
100
AcDbEntity
  8
0
  6
Continuous
 62
     7
370
     0
100
AcDbMText
 10
16.2934832609
 20
465.5615830598
 30
0.0
 40
3.0
 41
0.0
 71
     1
 72
     1
  1
C
  7
SLDTEXTSTYLE1
 73
     1
 44
1.0
  0
MTEXT
  5
111
330
73
100
AcDbEntity
  8
0
  6
Continuous
 62
     7
370
     0
100
AcDbMText
 10
16.2934832609
 20
417.7282500598
 30
0.0
 40
3.0
 41
0.0
 71
     1
 72
     1
  1
D
  7
SLDTEXTSTYLE1
 73
     1
 44
1.0
  0
MTEXT
  5
112
330
73
100
AcDbEntity
  8
0
  6
Continuous
 62
     7
370
     0
100
AcDbMText
 10
16.3587006522
 20
369.8949170598
 30
0.0
 40
3.0
 41
0.0
 71
     1
 72
     1
  1
E
  7
SLDTEXTSTYLE1
 73
     1
 44
1.0
  0
MTEXT
  5
113
330
73
100
AcDbEntity
  8
0
  6
Continuous
 62
     7
370
     0
100
AcDbMText
 10
16.4565267391
 20
322.0615840598
 30
0.0
 40
3.0
 41
0.0
 71
     1
 72
     1
  1
F
  7
SLDTEXTSTYLE1
 73
     1
 44
1.0
  0
MTEXT
  5
114
330
73
100
AcDbEntity
  8
0
  6
Continuous
 62
     7
370
     0
100
AcDbMText
 10
16.1956571739
 20
274.2282510598
 30
0.0
 40
3.0
 41
0.0
 71
     1
 72
     1
  1
G
  7
SLDTEXTSTYLE1
 73
     1
 44
1.0
  0
MTEXT
  5
115
330
73
100
AcDbEntity
  8
0
  6
Continuous
 62
     7
370
     0
100
AcDbMText
 10
16.2934832609
 20
226.3949180598
 30
0.0
 40
3.0
 41
0.0
 71
     1
 72
     1
  1
H
  7
SLDTEXTSTYLE1
 73
     1
 44
1.0
  0
MTEXT
  5
116
330
73
100
AcDbEntity
  8
0
  6
Continuous
 62
     7
370
     0
100
AcDbMText
 10
17.0434832609
 20
178.5615850598
 30
0.0
 40
3.0
 41
0.0
 71
     1
 72
     1
  1
I
  7
SLDTEXTSTYLE1
 73
     1
 44
1.0
  0
MTEXT
  5
117
330
73
100
AcDbEntity
  8
0
  6
Continuous
 62
     7
370
     0
100
AcDbMText
 10
16.652178913
 20
130.7282520598
 30
0.0
 40
3.0
 41
0.0
 71
     1
 72
     1
  1
J
  7
SLDTEXTSTYLE1
 73
     1
 44
1.0
  0
MTEXT
  5
118
330
73
100
AcDbEntity
  8
0
  6
Continuous
 62
     7
370
     0
100
AcDbMText
 10
16.3587006522
 20
82.8949190598
 30
0.0
 40
3.0
 41
0.0
 71
     1
 72
     1
  1
K
  7
SLDTEXTSTYLE1
 73
     1
 44
1.0
  0
MTEXT
  5
119
330
73
100
AcDbEntity
  8
0
  6
Continuous
 62
     7
370
     0
100
AcDbMText
 10
16.5543528261
 20
35.0615860598
 30
0.0
 40
3.0
 41
0.0
 71
     1
 72
     1
  1
L
  7
SLDTEXTSTYLE1
 73
     1
 44
1.0
  0
ENDBLK
  5
75
330
73
100
AcDbEntity
  8
0
100
AcDbBlockEnd
  0
BLOCK
  5
11B
330
11A
100
AcDbEntity
  8
0
100
AcDbBlockBegin
  2
Nota legale
 70
     0
 10
0.0
 20
0.0
 30
0.0
  3
Nota legale
  1

  0
MTEXT
  5
11E
330
11A
100
AcDbEntity
  8
0
  6
Continuous
 62
     7
370
     0
100
AcDbMText
 10
2.8916698098
 20
-1.0663983927
 30
0.0
 40
1.5
 41
0.0
 71
     3
 72
     1
  1
BY TERM LAWS WE RESERVE THE PROPERTY OF THIS DRAWING WITH PROHIBITION OF USE AND REPRODUCTION
  7
SLDTEXTSTYLE2
 73
     1
 44
1.0
  0
ENDBLK
  5
11C
330
11A
100
AcDbEntity
  8
0
100
AcDbBlockEnd
  0
BLOCK
  5
120
330
11F
100
AcDbEntity
  8
0
100
AcDbBlockBegin
  2
ISO2768
 70
     0
 10
0.0
 20
0.0
 30
0.0
  3
ISO2768
  1

  0
LINE
  5
122
330
11F
100
AcDbEntity
  8
0
  6
Continuous
 62
     7
370
     0
100
AcDbLine
 10
-25.0
 20
0.0
 30
0.0
 11
-25.0
 21
-20.0
 31
0.0
  0
LINE
  5
123
330
11F
100
AcDbEntity
  8
0
  6
Continuous
 62
     7
370
     0
100
AcDbLine
 10
-50.0
 20
0.0
 30
0.0
 11
-50.0
 21
-20.0
 31
0.0
  0
LINE
  5
124
330
11F
100
AcDbEntity
  8
0
  6
Continuous
 62
     7
370
     0
100
AcDbLine
 10
-75.0
 20
0.0
 30
0.0
 11
-75.0
 21
-20.0
 31
0.0
  0
LINE
  5
125
330
11F
100
AcDbEntity
  8
0
  6
Continuous
 62
     7
370
     0
100
AcDbLine
 10
-95.0
 20
0.0
 30
0.0
 11
-95.0
 21
-20.0
 31
0.0
  0
LINE
  5
126
330
11F
100
AcDbEntity
  8
0
  6
Continuous
 62
     7
370
     0
100
AcDbLine
 10
-115.0
 20
0.0
 30
0.0
 11
-115.0
 21
-20.0
 31
0.0
  0
LINE
  5
127
330
11F
100
AcDbEntity
  8
0
  6
Continuous
 62
     7
370
     0
100
AcDbLine
 10
-130.0
 20
0.0
 30
0.0
 11
-130.0
 21
-20.0
 31
0.0
  0
LINE
  5
128
330
11F
100
AcDbEntity
  8
0
  6
Continuous
 62
     7
370
     0
100
AcDbLine
 10
-145.0
 20
0.0
 30
0.0
 11
-145.0
 21
-20.0
 31
0.0
  0
LINE
  5
129
330
11F
100
AcDbEntity
  8
0
  6
Continuous
 62
     7
370
     0
100
AcDbLine
 10
-155.0
 20
-4.0
 30
0.0
 11
-155.0
 21
-20.0
 31
0.0
  0
LINE
  5
12A
330
11F
100
AcDbEntity
  8
0
  6
Continuous
 62
     7
370
     0
100
AcDbLine
 10
-175.0
 20
-16.0
 30
0.0
 11
0.0
 21
-16.0
 31
0.0
  0
LINE
  5
12B
330
11F
100
AcDbEntity
  8
0
  6
Continuous
 62
     7
370
     0
100
AcDbLine
 10
-175.0
 20
-12.0
 30
0.0
 11
0.0
 21
-12.0
 31
0.0
  0
LINE
  5
12C
330
11F
100
AcDbEntity
  8
0
  6
Continuous
 62
     7
370
     0
100
AcDbLine
 10
-175.0
 20
-8.0
 30
0.0
 11
0.0
 21
-8.0
 31
0.0
  0
LINE
  5
12D
330
11F
100
AcDbEntity
  8
0
  6
Continuous
 62
     7
370
     0
100
AcDbLine
 10
-175.0
 20
-4.0
 30
0.0
 11
0.0
 21
-4.0
 31
0.0
  0
LINE
  5
12E
330
11F
100
AcDbEntity
  8
0
  6
Continuous
 62
     7
370
     0
100
AcDbLine
 10
-175.0
 20
0.0
 30
0.0
 11
-175.0
 21
-20.0
 31
0.0
  0
LINE
  5
12F
330
11F
100
AcDbEntity
  8
0
  6
Continuous
 62
     7
370
     0
100
AcDbLine
 10
-180.0
 20
-20.0
 30
0.0
 11
-180.0
 21
0.0
 31
0.0
  0
LINE
  5
130
330
11F
100
AcDbEntity
  8
0
  6
Continuous
 62
     7
370
     0
100
AcDbLine
 10
0.0
 20
-20.0
 30
0.0
 11
-180.0
 21
-20.0
 31
0.0
  0
LINE
  5
131
330
11F
100
AcDbEntity
  8
0
  6
Continuous
 62
     7
370
     0
100
AcDbLine
 10
0.0
 20
0.0
 30
0.0
 11
0.0
 21
-20.0
 31
0.0
  0
LINE
  5
132
330
11F
100
AcDbEntity
  8
0
  6
Continuous
 62
     7
370
     0
100
AcDbLine
 10
-180.0
 20
0.0
 30
0.0
 11
0.0
 21
0.0
 31
0.0
  0
MTEXT
  5
134
330
11F
100
AcDbEntity
  8
0
  6
Continuous
 62
   179
370
     0
100
AcDbMText
 10
-152.1594291518
 20
-12.9932672184
 30
0.0
 40
2.5
 41
0.0
 71
     1
 72
     1
  1
(c)
  7
SLDTEXTSTYLE3
 73
     1
 44
1.0
  0
MTEXT
  5
135
330
11F
100
AcDbEntity
  8
0
  6
Continuous
 62
   179
370
     0
100
AcDbMText
 10
-14.4385313988
 20
-13.1021223902
 30
0.0
 40
2.5
 41
0.0
 71
     1
 72
     1
  1
±4
  7
SLDTEXTSTYLE3
 73
     1
 44
1.0
  0
MTEXT
  5
136
330
11F
100
AcDbEntity
  8
0
  6
Continuous
 62
   179
370
     0
100
AcDbMText
 10
-14.4385313988
 20
-17.1021223902
 30
0.0
 40
2.5
 41
0.0
 71
     1
 72
     1
  1
±8
  7
SLDTEXTSTYLE3
 73
     1
 44
1.0
  0
MTEXT
  5
137
330
11F
100
AcDbEntity
  8
0
  6
Continuous
 62
   179
370
     0
100
AcDbMText
 10
-23.8407053118
 20
-1.1021223902
 30
0.0
 40
2.5
 41
0.0
 71
     1
 72
     1
  1
>2000 <=4000
  7
SLDTEXTSTYLE3
 73
     1
 44
1.0
  0
MTEXT
  5
138
330
11F
100
AcDbEntity
  8
0
  6
Continuous
 62
   179
370
     0
100
AcDbMText
 10
-13.0798357466
 20
-5.1021223902
 30
0.0
 40
2.5
 41
0.0
 71
     1
 72
     1
  1
-
  7
SLDTEXTSTYLE3
 73
     1
 44
1.0
  0
MTEXT
  5
139
330
11F
100
AcDbEntity
  8
0
  6
Continuous
 62
   179
370
     0
100
AcDbMText
 10
-14.4385313988
 20
-9.1021223902
 30
0.0
 40
2.5
 41
0.0
 71
     1
 72
     1
  1
±2
  7
SLDTEXTSTYLE3
 73
     1
 44
1.0
  0
MTEXT
  5
13A
330
11F
100
AcDbEntity
  8
0
  6
Continuous
 62
   179
370
     0
100
AcDbMText
 10
-39.4385313988
 20
-17.1021223902
 30
0.0
 40
2.5
 41
0.0
 71
     1
 72
     1
  1
±6
  7
SLDTEXTSTYLE3
 73
     1
 44
1.0
  0
MTEXT
  5
13B
330
11F
100
AcDbEntity
  8
0
  6
Continuous
 62
   179
370
     0
100
AcDbMText
 10
-39.4385313988
 20
-13.1021223902
 30
0.0
 40
2.5
 41
0.0
 71
     1
 72
     1
  1
±3
  7
SLDTEXTSTYLE3
 73
     1
 44
1.0
  0
MTEXT
  5
13C
330
11F
100
AcDbEntity
  8
0
  6
Continuous
 62
   179
370
     0
100
AcDbMText
 10
-72.8624444423
 20
-1.1021223902
 30
0.0
 40
2.5
 41
0.0
 71
     1
 72
     1
  1
>400 <=1000
  7
SLDTEXTSTYLE3
 73
     1
 44
1.0
  0
MTEXT
  5
13D
330
11F
100
AcDbEntity
  8
0
  6
Continuous
 62
   179
370
     0
100
AcDbMText
 10
-40.9059227031
 20
-9.1021223902
 30
0.0
 40
2.5
 41
0.0
 71
     1
 72
     1
  1
±1.2
  7
SLDTEXTSTYLE3
 73
     1
 44
1.0
  0
MTEXT
  5
13E
330
11F
100
AcDbEntity
  8
0
  6
Continuous
 62
   179
370
     0
100
AcDbMText
 10
-40.9059227031
 20
-5.1021223902
 30
0.0
 40
2.5
 41
0.0
 71
     1
 72
     1
  1
±0.5
  7
SLDTEXTSTYLE3
 73
     1
 44
1.0
  0
MTEXT
  5
13F
330
11F
100
AcDbEntity
  8
0
  6
Continuous
 62
   179
370
     0
100
AcDbMText
 10
-64.4385313988
 20
-17.1021223902
 30
0.0
 40
2.5
 41
0.0
 71
     1
 72
     1
  1
±4
  7
SLDTEXTSTYLE3
 73
     1
 44
1.0
  0
MTEXT
  5
140
330
11F
100
AcDbEntity
  8
0
  6
Continuous
 62
   179
370
     0
100
AcDbMText
 10
-48.8407053118
 20
-1.1021223902
 30
0.0
 40
2.5
 41
0.0
 71
     1
 72
     1
  1
>1000 <=2000
  7
SLDTEXTSTYLE3
 73
     1
 44
1.0
  0
MTEXT
  5
141
330
11F
100
AcDbEntity
  8
0
  6
Continuous
 62
   179
370
     0
100
AcDbMText
 10
-64.4385313988
 20
-13.1021223902
 30
0.0
 40
2.5
 41
0.0
 71
     1
 72
     1
  1
±2
  7
SLDTEXTSTYLE3
 73
     1
 44
1.0
  0
MTEXT
  5
142
330
11F
100
AcDbEntity
  8
0
  6
Continuous
 62
   179
370
     0
100
AcDbMText
 10
-65.9059227031
 20
-9.1021223902
 30
0.0
 40
2.5
 41
0.0
 71
     1
 72
     1
  1
±0.8
  7
SLDTEXTSTYLE3
 73
     1
 44
1.0
  0
MTEXT
  5
143
330
11F
100
AcDbEntity
  8
0
  6
Continuous
 62
   179
370
     0
100
AcDbMText
 10
-88.4059227031
 20
-9.1021223902
 30
0.0
 40
2.5
 41
0.0
 71
     1
 72
     1
  1
±0.5
  7
SLDTEXTSTYLE3
 73
     1
 44
1.0
  0
MTEXT
  5
144
330
11F
100
AcDbEntity
  8
0
  6
Continuous
 62
   179
370
     0
100
AcDbMText
 10
-108.4059227031
 20
-9.1021223902
 30
0.0
 40
2.5
 41
0.0
 71
     1
 72
     1
  1
±0.3
  7
SLDTEXTSTYLE3
 73
     1
 44
1.0
  0
MTEXT
  5
145
330
11F
100
AcDbEntity
  8
0
  6
Continuous
 62
   179
370
     0
100
AcDbMText
 10
-88.4059227031
 20
-5.1021223902
 30
0.0
 40
2.5
 41
0.0
 71
     1
 72
     1
  1
±0.2
  7
SLDTEXTSTYLE3
 73
     1
 44
1.0
  0
MTEXT
  5
146
330
11F
100
AcDbEntity
  8
0
  6
Continuous
 62
   179
370
     0
100
AcDbMText
 10
-108.4059227031
 20
-17.1021223902
 30
0.0
 40
2.5
 41
0.0
 71
     1
 72
     1
  1
±1.5
  7
SLDTEXTSTYLE3
 73
     1
 44
1.0
  0
MTEXT
  5
147
330
11F
100
AcDbEntity
  8
0
  6
Continuous
 62
   179
370
     0
100
AcDbMText
 10
-65.9059227031
 20
-5.1021223902
 30
0.0
 40
2.5
 41
0.0
 71
     1
 72
     1
  1
±0.3
  7
SLDTEXTSTYLE3
 73
     1
 44
1.0
  0
MTEXT
  5
148
330
11F
100
AcDbEntity
  8
0
  6
Continuous
 62
   179
370
     0
100
AcDbMText
 10
-88.4059227031
 20
-17.1021223902
 30
0.0
 40
2.5
 41
0.0
 71
     1
 72
     1
  1
±2.5
  7
SLDTEXTSTYLE3
 73
     1
 44
1.0
  0
MTEXT
  5
149
330
11F
100
AcDbEntity
  8
0
  6
Continuous
 62
   179
370
     0
100
AcDbMText
 10
-94.3841835727
 20
-1.1021223902
 30
0.0
 40
2.5
 41
0.0
 71
     1
 72
     1
  1
>120 <=400
  7
SLDTEXTSTYLE3
 73
     1
 44
1.0
  0
MTEXT
  5
14A
330
11F
100
AcDbEntity
  8
0
  6
Continuous
 62
   179
370
     0
100
AcDbMText
 10
-88.4059227031
 20
-13.1021223902
 30
0.0
 40
2.5
 41
0.0
 71
     1
 72
     1
  1
±1.2
  7
SLDTEXTSTYLE3
 73
     1
 44
1.0
  0
MTEXT
  5
14B
330
11F
100
AcDbEntity
  8
0
  6
Continuous
 62
   179
370
     0
100
AcDbMText
 10
-109.3841835727
 20
-5.1021223902
 30
0.0
 40
2.5
 41
0.0
 71
     1
 72
     1
  1
±0.15
  7
SLDTEXTSTYLE3
 73
     1
 44
1.0
  0
MTEXT
  5
14C
330
11F
100
AcDbEntity
  8
0
  6
Continuous
 62
   179
370
     0
100
AcDbMText
 10
-113.4059227031
 20
-1.1021223902
 30
0.0
 40
2.5
 41
0.0
 71
     1
 72
     1
  1
>30 <=120
  7
SLDTEXTSTYLE3
 73
     1
 44
1.0
  0
MTEXT
  5
14D
330
11F
100
AcDbEntity
  8
0
  6
Continuous
 62
   179
370
     0
100
AcDbMText
 10
-124.4385313988
 20
-17.1021223902
 30
0.0
 40
2.5
 41
0.0
 71
     1
 72
     1
  1
±1
  7
SLDTEXTSTYLE3
 73
     1
 44
1.0
  0
MTEXT
  5
14E
330
11F
100
AcDbEntity
  8
0
  6
Continuous
 62
   179
370
     0
100
AcDbMText
 10
-125.9059227031
 20
-9.1021223902
 30
0.0
 40
2.5
 41
0.0
 71
     1
 72
     1
  1
±0.2
  7
SLDTEXTSTYLE3
 73
     1
 44
1.0
  0
MTEXT
  5
14F
330
11F
100
AcDbEntity
  8
0
  6
Continuous
 62
   179
370
     0
100
AcDbMText
 10
-108.4059227031
 20
-13.1021223902
 30
0.0
 40
2.5
 41
0.0
 71
     1
 72
     1
  1
±0.8
  7
SLDTEXTSTYLE3
 73
     1
 44
1.0
  0
MTEXT
  5
150
330
11F
100
AcDbEntity
  8
0
  6
Continuous
 62
   179
370
     0
100
AcDbMText
 10
-125.9059227031
 20
-5.1021223902
 30
0.0
 40
2.5
 41
0.0
 71
     1
 72
     1
  1
±0.1
  7
SLDTEXTSTYLE3
 73
     1
 44
1.0
  0
MTEXT
  5
151
330
11F
100
AcDbEntity
  8
0
  6
Continuous
 62
   179
370
     0
100
AcDbMText
 10
-128.949400964
 20
-1.1021223902
 30
0.0
 40
2.5
 41
0.0
 71
     1
 72
     1
  1
>6 <=30
  7
SLDTEXTSTYLE3
 73
     1
 44
1.0
  0
MTEXT
  5
152
330
11F
100
AcDbEntity
  8
0
  6
Continuous
 62
   179
370
     0
100
AcDbMText
 10
-140.4983140075
 20
-1.1021223902
 30
0.0
 40
2.5
 41
0.0
 71
     1
 72
     1
  1
<=6
  7
SLDTEXTSTYLE3
 73
     1
 44
1.0
  0
MTEXT
  5
153
330
11F
100
AcDbEntity
  8
0
  6
Continuous
 62
   179
370
     0
100
AcDbMText
 10
-125.9059227031
 20
-13.1021223902
 30
0.0
 40
2.5
 41
0.0
 71
     1
 72
     1
  1
±0.5
  7
SLDTEXTSTYLE3
 73
     1
 44
1.0
  0
MTEXT
  5
154
330
11F
100
AcDbEntity
  8
0
  6
Continuous
 62
   179
370
     0
100
AcDbMText
 10
-140.9059227031
 20
-9.1021223902
 30
0.0
 40
2.5
 41
0.0
 71
     1
 72
     1
  1
±0.1
  7
SLDTEXTSTYLE3
 73
     1
 44
1.0
  0
MTEXT
  5
155
330
11F
100
AcDbEntity
  8
0
  6
Continuous
 62
   179
370
     0
100
AcDbMText
 10
-140.9059227031
 20
-17.1021223902
 30
0.0
 40
2.5
 41
0.0
 71
     1
 72
     1
  1
±0.5
  7
SLDTEXTSTYLE3
 73
     1
 44
1.0
  0
MTEXT
  5
156
330
11F
100
AcDbEntity
  8
0
  6
Continuous
 62
   179
370
     0
100
AcDbMText
 10
-140.9059227031
 20
-13.1021223902
 30
0.0
 40
2.5
 41
0.0
 71
     1
 72
     1
  1
±0.3
  7
SLDTEXTSTYLE3
 73
     1
 44
1.0
  0
MTEXT
  5
157
330
11F
100
AcDbEntity
  8
0
  6
Continuous
 62
   179
370
     0
100
AcDbMText
 10
-141.8841835727
 20
-5.1021223902
 30
0.0
 40
2.5
 41
0.0
 71
     1
 72
     1
  1
±0.05
  7
SLDTEXTSTYLE3
 73
     1
 44
1.0
  0
MTEXT
  5
158
330
11F
100
AcDbEntity
  8
0
  6
Continuous
 62
   179
370
     0
100
AcDbMText
 10
-174.7485158139
 20
-8.9932672184
 30
0.0
 40
2.5
 41
0.0
 71
     1
 72
     1
  1
Medium
  7
SLDTEXTSTYLE3
 73
     1
 44
1.0
  0
MTEXT
  5
159
330
11F
100
AcDbEntity
  8
0
  6
Continuous
 62
   179
370
     0
100
AcDbMText
 10
-174.7485158139
 20
-12.9932672184
 30
0.0
 40
2.5
 41
0.0
 71
     1
 72
     1
  1
Coarse
  7
SLDTEXTSTYLE3
 73
     1
 44
1.0
  0
MTEXT
  5
15A
330
11F
100
AcDbEntity
  8
0
  6
Continuous
 62
   179
370
     0
100
AcDbMText
 10
-151.7789943692
 20
-4.9932672184
 30
0.0
 40
2.5
 41
0.0
 71
     1
 72
     1
  1
(f)
  7
SLDTEXTSTYLE3
 73
     1
 44
1.0
  0
MTEXT
  5
15B
330
11F
100
AcDbEntity
  8
0
  6
Continuous
 62
   179
370
     0
100
AcDbMText
 10
-152.7844291518
 20
-8.9932672184
 30
0.0
 40
2.5
 41
0.0
 71
     1
 72
     1
  1
(m)
  7
SLDTEXTSTYLE3
 73
     1
 44
1.0
  0
MTEXT
  5
15C
330
11F
100
AcDbEntity
  8
0
  6
Continuous
 62
   179
370
     0
100
AcDbMText
 10
-152.1866030649
 20
-16.9932672184
 30
0.0
 40
2.5
 41
0.0
 71
     1
 72
     1
  1
(v)
  7
SLDTEXTSTYLE3
 73
     1
 44
1.0
  0
MTEXT
  5
15D
330
11F
100
AcDbEntity
  8
0
  6
Continuous
 62
   179
370
     0
100
AcDbMText
 10
-174.7485158139
 20
-16.9932672184
 30
0.0
 40
2.5
 41
0.0
 71
     1
 72
     1
  1
Very Coarse
  7
SLDTEXTSTYLE3
 73
     1
 44
1.0
  0
MTEXT
  5
15E
330
11F
100
AcDbEntity
  8
0
  6
Continuous
 62
   179
370
     0
100
AcDbMText
 10
-178.6122169322
 20
-18.8727771349
 30
0.0
 40
2.5
 41
0.0
 71
     1
 72
     1
  1
ISO 2768
  7
SLDTEXTSTYLE3
 11
6.123233995736766E-17
 21
1.0
 31
0.0
 73
     1
 44
1.0
  0
MTEXT
  5
15F
330
11F
100
AcDbEntity
  8
0
  6
Continuous
 62
   179
370
     0
100
AcDbMText
 10
-174.565631434
 20
-0.9932672184
 30
0.0
 40
2.5
 41
0.0
 71
     1
 72
     1
  1
Tolerance Class
  7
SLDTEXTSTYLE3
 73
     1
 44
1.0
  0
MTEXT
  5
160
330
11F
100
AcDbEntity
  8
0
  6
Continuous
 62
   179
370
     0
100
AcDbMText
 10
-174.7485158139
 20
-4.9932672184
 30
0.0
 40
2.5
 41
0.0
 71
     1
 72
     1
  1
Fine
  7
SLDTEXTSTYLE3
 73
     1
 44
1.0
  0
ENDBLK
  5
121
330
11F
100
AcDbEntity
  8
0
100
AcDbBlockEnd
  0
ENDSEC
  0
SECTION
  2
ENTITIES
  0
LINE
  5
161
330
1F
100
AcDbEntity
  8
0
  6
Continuous
 62
     7
370
    15
100
AcDbLine
 10
263.1354583246
 20
502.1343549942
 30
0.0
 11
262.1354583246
 21
503.1343549942
 31
0.0
  0
LINE
  5
162
330
1F
100
AcDbEntity
  8
0
  6
Continuous
 62
     7
370
    15
100
AcDbLine
 10
104.1354583246
 20
503.1343549942
 30
0.0
 11
103.1354583246
 21
502.1343549942
 31
0.0
  0
LINE
  5
163
330
1F
100
AcDbEntity
  8
0
  6
Continuous
 62
     7
370
    15
100
AcDbLine
 10
103.1354583246
 20
502.1343549942
 30
0.0
 11
103.1354583246
 21
498.1343549942
 31
0.0
  0
LINE
  5
164
330
1F
100
AcDbEntity
  8
0
  6
Continuous
 62
     7
370
    15
100
AcDbLine
 10
263.1354583246
 20
498.1343549942
 30
0.0
 11
263.1354583246
 21
502.1343549942
 31
0.0
  0
LINE
  5
165
330
1F
100
AcDbEntity
  8
0
  6
Continuous
 62
     7
370
    15
100
AcDbLine
 10
103.1354583246
 20
508.1343549942
 30
0.0
 11
103.1354583246
 21
504.1343549942
 31
0.0
  0
LINE
  5
166
330
1F
100
AcDbEntity
  8
0
  6
Continuous
 62
     7
370
    15
100
AcDbLine
 10
263.1354583246
 20
504.1343549942
 30
0.0
 11
263.1354583246
 21
508.1343549942
 31
0.0
  0
ARC
  5
167
330
1F
100
AcDbEntity
  8
0
  6
Continuous
 62
     7
370
    15
100
AcDbCircle
 10
105.6354583246
 20
508.1343549942
 30
0.0
 40
2.500000000000057
100
AcDbArc
 50
90.0
 51
180.0
  0
ARC
  5
168
330
1F
100
AcDbEntity
  8
0
  6
Continuous
 62
     7
370
    15
100
AcDbCircle
 10
260.6354583246
 20
508.1343549942
 30
0.0
 40
2.500000000000057
100
AcDbArc
 50
0.0
 51
90.0
  0
LINE
  5
169
330
1F
100
AcDbEntity
  8
0
  6
Continuous
 62
     7
370
    15
100
AcDbLine
 10
103.1354583246
 20
504.1343549942
 30
0.0
 11
104.1354583246
 21
503.1343549942
 31
0.0
  0
LINE
  5
16A
330
1F
100
AcDbEntity
  8
0
  6
Continuous
 62
     7
370
    15
100
AcDbLine
 10
262.1354583246
 20
503.1343549942
 30
0.0
 11
263.1354583246
 21
504.1343549942
 31
0.0
  0
ARC
  5
16B
330
1F
100
AcDbEntity
  8
0
  6
Continuous
 62
     7
370
    15
100
AcDbCircle
 10
105.6354583246
 20
498.1343549942
 30
0.0
 40
2.5
100
AcDbArc
 50
180.0
 51
270.0
  0
ARC
  5
16C
330
1F
100
AcDbEntity
  8
0
  6
Continuous
 62
     7
370
    15
100
AcDbCircle
 10
260.6354583246
 20
498.1343549942
 30
0.0
 40
2.5
100
AcDbArc
 50
270.0
 51
0.0
  0
ARC
  5
16D
330
1F
100
AcDbEntity
  8
0
  6
Continuous
 62
     7
370
    15
100
AcDbCircle
 10
110.6354583246
 20
493.1343549942
 30
0.0
 40
2.500000000000057
100
AcDbArc
 50
0.0
 51
90.0
  0
ARC
  5
16E
330
1F
100
AcDbEntity
  8
0
  6
Continuous
 62
     7
370
    15
100
AcDbCircle
 10
255.6354583246
 20
493.1343549942
 30
0.0
 40
2.500000000000057
100
AcDbArc
 50
90.0
 51
180.0
  0
LINE
  5
16F
330
1F
100
AcDbEntity
  8
0
  6
Continuous
 62
     7
370
    15
100
AcDbLine
 10
113.1354583246
 20
493.1343549942
 30
0.0
 11
113.1354583246
 21
422.6343549942
 31
0.0
  0
LINE
  5
170
330
1F
100
AcDbEntity
  8
0
  6
Continuous
 62
     7
370
    15
100
AcDbLine
 10
253.1354583246
 20
422.6343549942
 30
0.0
 11
253.1354583246
 21
493.1343549942
 31
0.0
  0
ARC
  5
171
330
1F
100
AcDbEntity
  8
0
  6
Continuous
 62
     7
370
    15
100
AcDbCircle
 10
128.1354583246
 20
422.6343549942
 30
0.0
 40
15.0
100
AcDbArc
 50
180.0
 51
270.0
  0
ARC
  5
172
330
1F
100
AcDbEntity
  8
0
  6
Continuous
 62
     7
370
    15
100
AcDbCircle
 10
238.1354583246
 20
422.6343549942
 30
0.0
 40
15.0
100
AcDbArc
 50
270.0
 51
0.0
  0
LINE
  5
173
330
1F
100
AcDbEntity
  8
0
  6
Continuous
 62
     7
370
    15
100
AcDbLine
 10
263.1354583246
 20
502.1343549942
 30
0.0
 11
103.1354583246
 21
502.1343549942
 31
0.0
  0
LINE
  5
174
330
1F
100
AcDbEntity
  8
0
  6
Continuous
 62
     7
370
    15
100
AcDbLine
 10
262.1354583246
 20
503.1343549942
 30
0.0
 11
104.1354583246
 21
503.1343549942
 31
0.0
  0
LINE
  5
175
330
1F
100
AcDbEntity
  8
0
  6
Continuous
 62
     7
370
    15
100
AcDbLine
 10
263.1354583246
 20
504.1343549942
 30
0.0
 11
103.1354583246
 21
504.1343549942
 31
0.0
  0
ARC
  5
176
330
1F
100
AcDbEntity
  8
0
  6
Continuous
 62
     7
370
    15
100
AcDbCircle
 10
163.1354583246
 20
440.6343549942
 30
0.0
 40
10.0
100
AcDbArc
 50
180.0
 51
270.0
  0
LINE
  5
177
330
1F
100
AcDbEntity
  8
0
  6
Continuous
 62
     7
370
    15
100
AcDbLine
 10
153.1354583246
 20
480.6343549942
 30
0.0
 11
153.1354583246
 21
440.6343549942
 31
0.0
  0
LINE
  5
178
330
1F
100
AcDbEntity
  8
0
  6
Continuous
 62
     7
370
    15
100
AcDbLine
 10
203.1354583246
 20
490.6343549942
 30
0.0
 11
163.1354583246
 21
490.6343549942
 31
0.0
  0
LINE
  5
179
330
1F
100
AcDbEntity
  8
0
  6
Continuous
 62
     7
370
    15
100
AcDbLine
 10
213.1354583246
 20
440.6343549942
 30
0.0
 11
213.1354583246
 21
480.6343549942
 31
0.0
  0
ARC
  5
17A
330
1F
100
AcDbEntity
  8
0
  6
Continuous
 62
     7
370
    15
100
AcDbCircle
 10
203.1354583246
 20
480.6343549942
 30
0.0
 40
10.00000000000003
100
AcDbArc
 50
0.0
 51
90.0
  0
ARC
  5
17B
330
1F
100
AcDbEntity
  8
0
  6
Continuous
 62
     7
370
    15
100
AcDbCircle
 10
163.1354583246
 20
480.6343549942
 30
0.0
 40
10.0
100
AcDbArc
 50
90.0
 51
180.0
  0
LINE
  5
17C
330
1F
100
AcDbEntity
  8
0
  6
Continuous
 62
     7
370
    15
100
AcDbLine
 10
163.1354583246
 20
430.6343549942
 30
0.0
 11
203.1354583246
 21
430.6343549942
 31
0.0
  0
CIRCLE
  5
17D
330
1F
100
AcDbEntity
  8
0
  6
Continuous
 62
     7
370
    15
100
AcDbCircle
 10
183.1354583246
 20
460.6343549942
 30
0.0
 40
15.37499999999997
  0
ARC
  5
17E
330
1F
100
AcDbEntity
  8
0
  6
Continuous
 62
     7
370
    15
100
AcDbCircle
 10
203.1354583246
 20
440.6343549942
 30
0.0
 40
10.0
100
AcDbArc
 50
270.0
 51
0.0
  0
LINE
  5
17F
330
1F
100
AcDbEntity
  8
0
  6
Continuous
 62
     7
370
    15
100
AcDbLine
 10
183.1354583246
 20
510.6343549942
 30
0.0
 11
260.6354583246
 21
510.6343549942
 31
0.0
  0
LINE
  5
180
330
1F
100
AcDbEntity
  8
0
  6
Continuous
 62
     7
370
    15
100
AcDbLine
 10
105.6354583246
 20
510.6343549942
 30
0.0
 11
183.1354583246
 21
510.6343549942
 31
0.0
  0
LINE
  5
181
330
1F
100
AcDbEntity
  8
0
  6
Continuous
 62
     7
370
    15
100
AcDbLine
 10
183.1354583246
 20
495.6343549942
 30
0.0
 11
105.6354583246
 21
495.6343549942
 31
0.0
  0
LINE
  5
182
330
1F
100
AcDbEntity
  8
0
  6
Continuous
 62
     7
370
    15
100
AcDbLine
 10
260.6354583246
 20
495.6343549942
 30
0.0
 11
183.1354583246
 21
495.6343549942
 31
0.0
  0
LWPOLYLINE
  5
183
330
1F
100
AcDbEntity
  8
0
  6
Continuous
 62
     7
370
    15
100
AcDbPolyline
 90
        9
 70
   128
 43
0.0
 10
203.1354583246
 20
430.6343549942
 10
203.000913275
 20
430.5863181953
 10
202.8715387161
 20
430.4440538255
 10
202.7523064398
 20
430.213029025
 10
202.6477984755
 20
429.9021219472
 10
202.5620310058
 20
429.5232805768
 10
202.4983000264
 20
429.0910635752
 10
202.459054683
 20
428.6220807993
 10
202.4458031522
 20
428.1343549942
  0
LINE
  5
184
330
1F
100
AcDbEntity
  8
0
  6
Continuous
 62
     7
370
    15
100
AcDbLine
 10
202.4458031522
 20
428.1343549942
 30
0.0
 11
163.8251134971
 21
428.1343549942
 31
0.0
  0
LWPOLYLINE
  5
185
330
1F
100
AcDbEntity
  8
0
  6
Continuous
 62
     7
370
    15
100
AcDbPolyline
 90
        9
 70
   128
 43
0.0
 10
163.8251134971
 20
428.1343549942
 10
163.8118619663
 20
428.6220807993
 10
163.7726166229
 20
429.0910635752
 10
163.7088856435
 20
429.5232805768
 10
163.6231181737
 20
429.9021219472
 10
163.5186102095
 20
430.213029025
 10
163.3993779332
 20
430.4440538255
 10
163.2700033743
 20
430.5863181953
 10
163.1354583246
 20
430.6343549942
  0
LINE
  5
186
330
1F
100
AcDbEntity
  8
0
  6
Continuous
 62
     7
370
    15
100
AcDbLine
 10
163.8251134971
 20
493.1343549942
 30
0.0
 11
202.4458031522
 21
493.1343549942
 31
0.0
  0
LWPOLYLINE
  5
187
330
1F
100
AcDbEntity
  8
0
  6
Continuous
 62
     7
370
    15
100
AcDbPolyline
 90
        9
 70
   128
 43
0.0
 10
163.8251134971
 20
493.1343549942
 10
163.8118619663
 20
492.6466291892
 10
163.7726166229
 20
492.1776464133
 10
163.7088856435
 20
491.7454294117
 10
163.6231181737
 20
491.3665880413
 10
163.5186102095
 20
491.0556809635
 10
163.3993779332
 20
490.824656163
 10
163.2700033743
 20
490.6823917932
 10
163.1354583246
 20
490.6343549942
  0
LWPOLYLINE
  5
188
330
1F
100
AcDbEntity
  8
0
  6
Continuous
 62
     7
370
    15
100
AcDbPolyline
 90
        9
 70
   128
 43
0.0
 10
203.1354583246
 20
490.6343549942
 10
203.000913275
 20
490.6823917932
 10
202.8715387161
 20
490.824656163
 10
202.7523064398
 20
491.0556809635
 10
202.6477984755
 20
491.3665880413
 10
202.5620310058
 20
491.7454294117
 10
202.4983000264
 20
492.1776464133
 10
202.459054683
 20
492.6466291892
 10
202.4458031522
 20
493.1343549942
  0
LINE
  5
189
330
1F
100
AcDbEntity
  8
0
  6
Continuous
 62
     7
370
    15
100
AcDbLine
 10
213.1354583246
 20
440.6343549942
 30
0.0
 11
214.5147686695
 21
440.6343549942
 31
0.0
  0
SPLINE
  5
18A
330
1F
100
AcDbEntity
  8
0
  6
Continuous
 62
     7
370
    15
100
AcDbSpline
210
0.0
220
0.0
230
1.0
 70
     8
 71
     3
 72
    30
 73
    26
 74
     0
 42
0.000000001
 43
0.00000001
 40
0.0
 40
0.0
 40
0.0
 40
0.0
 40
0.0624999999999999
 40
0.0624999999999999
 40
0.1249999999999997
 40
0.1249999999999997
 40
0.2499999999999993
 40
0.2499999999999993
 40
0.3124999999999994
 40
0.3124999999999994
 40
0.3749999999999996
 40
0.3749999999999996
 40
0.4999999999999991
 40
0.4999999999999991
 40
0.562499999999999
 40
0.562499999999999
 40
0.6249999999999988
 40
0.6249999999999988
 40
0.7499999999999992
 40
0.7499999999999992
 40
0.8124999999999997
 40
0.8124999999999997
 40
0.875
 40
0.875
 40
1.0
 40
1.0
 40
1.0
 40
1.0
 10
214.5147686694643
 20
440.6343549942464
 30
0.0
 10
214.5147686694643
 20
440.2142365942021
 30
0.0
 10
214.4943712269052
 20
439.796050569463
 30
0.0
 10
214.4132818106287
 20
438.9634902838464
 30
0.0
 10
214.352128885087
 20
438.5473713443023
 30
0.0
 10
214.1119692018074
 20
437.3258427595649
 30
0.0
 10
213.8770895692702
 20
436.5422442978216
 30
0.0
 10
213.4173575352891
 20
435.4102953781854
 30
0.0
 10
213.246070519372
 20
435.040274671762
 30
0.0
 10
212.8665094770511
 20
434.3150199157034
 30
0.0
 10
212.6602982663666
 20
433.9639976555863
 30
0.0
 10
212.0003073252264
 20
432.9541664636878
 30
0.0
 10
211.5031989452789
 20
432.3335647683028
 30
0.0
 10
210.6720990090366
 20
431.4789462202164
 30
0.0
 10
210.3793136865607
 20
431.2057313352271
 30
0.0
 10
209.7704645756332
 20
430.6913029498058
 30
0.0
 10
209.4562164116642
 20
430.4513596839611
 30
0.0
 10
208.4844728060487
 20
429.7815740390064
 30
0.0
 10
207.7982645488381
 20
429.4012573152711
 30
0.0
 10
206.7080634753565
 20
428.9327147068869
 30
0.0
 10
206.333445806514
 20
428.7935787288578
 30
0.0
 10
205.5793875921163
 20
428.5561381540974
 30
0.0
 10
205.1980766906703
 20
428.4569105818061
 30
0.0
 10
204.0412061352101
 20
428.2173014180249
 30
0.0
 10
203.2528214909677
 20
428.1343549942464
 30
0.0
 10
202.4458031522229
 20
428.1343549942465
 30
0.0
  0
SPLINE
  5
18B
330
1F
100
AcDbEntity
  8
0
  6
Continuous
 62
     7
370
    15
100
AcDbSpline
210
0.0
220
0.0
230
1.0
 70
     8
 71
     3
 72
    30
 73
    26
 74
     0
 42
0.000000001
 43
0.00000001
 40
0.0
 40
0.0
 40
0.0
 40
0.0
 40
0.0624999999999996
 40
0.0624999999999996
 40
0.1249999999999993
 40
0.1249999999999993
 40
0.2499999999999984
 40
0.2499999999999984
 40
0.3124999999999983
 40
0.3124999999999983
 40
0.3749999999999983
 40
0.3749999999999983
 40
0.4999999999999983
 40
0.4999999999999983
 40
0.5624999999999986
 40
0.5624999999999986
 40
0.6249999999999987
 40
0.6249999999999987
 40
0.7499999999999992
 40
0.7499999999999992
 40
0.8124999999999997
 40
0.8124999999999997
 40
0.875
 40
0.875
 40
1.0
 40
1.0
 40
1.0
 40
1.0
 10
151.7561479798092
 20
480.6343549942465
 30
0.0
 10
151.7561479798091
 20
481.0544733942908
 30
0.0
 10
151.7765454223682
 20
481.4726594190299
 30
0.0
 10
151.8576348386447
 20
482.3052197046464
 30
0.0
 10
151.9187877641865
 20
482.7213386441906
 30
0.0
 10
152.1589474474661
 20
483.942867228928
 30
0.0
 10
152.3938270800032
 20
484.7264656906713
 30
0.0
 10
152.8535591139844
 20
485.8584146103074
 30
0.0
 10
153.0248461299015
 20
486.2284353167308
 30
0.0
 10
153.4044071722224
 20
486.9536900727894
 30
0.0
 10
153.6106183829068
 20
487.3047123329065
 30
0.0
 10
154.2706093240471
 20
488.314543524805
 30
0.0
 10
154.7677177039945
 20
488.9351452201901
 30
0.0
 10
155.5988176402369
 20
489.7897637682764
 30
0.0
 10
155.8916029627128
 20
490.0629786532657
 30
0.0
 10
156.5004520736402
 20
490.5774070386869
 30
0.0
 10
156.8147002376093
 20
490.8173503045317
 30
0.0
 10
157.7864438432248
 20
491.4871359494863
 30
0.0
 10
158.4726521004353
 20
491.8674526732217
 30
0.0
 10
159.562853173917
 20
492.3359952816059
 30
0.0
 10
159.9374708427595
 20
492.475131259635
 30
0.0
 10
160.6915290571572
 20
492.7125718343954
 30
0.0
 10
161.0728399586031
 20
492.8117994066868
 30
0.0
 10
162.2297105140634
 20
493.051408570468
 30
0.0
 10
163.0180951583058
 20
493.1343549942464
 30
0.0
 10
163.8251134970505
 20
493.1343549942464
 30
0.0
  0
LINE
  5
18C
330
1F
100
AcDbEntity
  8
0
  6
Continuous
 62
     7
370
    15
100
AcDbLine
 10
151.7561479798
 20
480.6343549942
 30
0.0
 11
153.1354583246
 21
480.6343549942
 31
0.0
  0
SPLINE
  5
18D
330
1F
100
AcDbEntity
  8
0
  6
Continuous
 62
     7
370
    15
100
AcDbSpline
210
0.0
220
0.0
230
1.0
 70
     8
 71
     3
 72
    28
 73
    24
 74
     0
 42
0.000000001
 43
0.00000001
 40
0.0
 40
0.0
 40
0.0
 40
0.0
 40
0.1250000000000003
 40
0.1250000000000003
 40
0.2500000000000006
 40
0.2500000000000006
 40
0.3750000000000009
 40
0.3750000000000009
 40
0.4375000000000008
 40
0.4375000000000008
 40
0.5000000000000008
 40
0.5000000000000008
 40
0.5625000000000007
 40
0.5625000000000007
 40
0.6250000000000007
 40
0.6250000000000007
 40
0.750000000000001
 40
0.750000000000001
 40
0.8125000000000009
 40
0.8125000000000009
 40
0.8750000000000007
 40
0.8750000000000007
 40
1.0
 40
1.0
 40
1.0
 40
1.0
 10
163.8251134970505
 20
428.1343549942465
 30
0.0
 10
163.0191284617171
 20
428.1343549942464
 30
0.0
 10
162.2293133056579
 20
428.2171131914026
 30
0.0
 10
160.6799226558468
 20
428.5385628216946
 30
0.0
 10
159.9154426187632
 20
428.7807215505489
 30
0.0
 10
158.4717534697269
 20
429.4021058208324
 30
0.0
 10
157.7858233961712
 20
429.7816482413897
 30
0.0
 10
156.8095204677103
 20
430.4551081196105
 30
0.0
 10
156.4918466881643
 20
430.6981815959217
 30
0.0
 10
155.8860160960401
 20
431.2108532912911
 30
0.0
 10
155.5965203860056
 20
431.4812010940904
 30
0.0
 10
155.0438032428827
 20
432.0497745331253
 30
0.0
 10
154.7805817278463
 20
432.3479992694759
 30
0.0
 10
154.2806724568086
 20
432.973071363399
 30
0.0
 10
154.0429336308078
 20
433.3015921668322
 30
0.0
 10
153.3795292990609
 20
434.3195039419882
 30
0.0
 10
153.0047875166295
 20
435.0367951414582
 30
0.0
 10
152.5442646585415
 20
436.1724184920422
 30
0.0
 10
152.4073678267104
 20
436.5625352111423
 30
0.0
 10
152.1714662946432
 20
437.3569410955481
 30
0.0
 10
152.0732927936976
 20
437.7578576007532
 30
0.0
 10
151.8368801753282
 20
438.9715931001502
 30
0.0
 10
151.7561479798091
 20
439.7952937182974
 30
0.0
 10
151.7561479798092
 20
440.6343549942464
 30
0.0
  0
LINE
  5
18E
330
1F
100
AcDbEntity
  8
0
  6
Continuous
 62
     7
370
    15
100
AcDbLine
 10
151.7561479798
 20
440.6343549942
 30
0.0
 11
153.1354583246
 21
440.6343549942
 31
0.0
  0
SPLINE
  5
18F
330
1F
100
AcDbEntity
  8
0
  6
Continuous
 62
     7
370
    15
100
AcDbSpline
210
0.0
220
0.0
230
1.0
 70
     8
 71
     3
 72
    28
 73
    24
 74
     0
 42
0.000000001
 43
0.00000001
 40
0.0
 40
0.0
 40
0.0
 40
0.0
 40
0.1250000000000003
 40
0.1250000000000003
 40
0.2500000000000006
 40
0.2500000000000006
 40
0.3750000000000009
 40
0.3750000000000009
 40
0.4375000000000008
 40
0.4375000000000008
 40
0.5000000000000008
 40
0.5000000000000008
 40
0.5625000000000007
 40
0.5625000000000007
 40
0.6250000000000007
 40
0.6250000000000007
 40
0.750000000000001
 40
0.750000000000001
 40
0.8125000000000009
 40
0.8125000000000009
 40
0.8750000000000007
 40
0.8750000000000007
 40
1.0
 40
1.0
 40
1.0
 40
1.0
 10
202.4458031522229
 20
493.1343549942464
 30
0.0
 10
203.2517881875563
 20
493.1343549942464
 30
0.0
 10
204.0416033436156
 20
493.0515967970902
 30
0.0
 10
205.5909939934266
 20
492.7301471667982
 30
0.0
 10
206.3554740305103
 20
492.487988437944
 30
0.0
 10
207.7991631795466
 20
491.8666041676605
 30
0.0
 10
208.4850932531023
 20
491.4870617471031
 30
0.0
 10
209.4613961815631
 20
490.8136018688823
 30
0.0
 10
209.7790699611092
 20
490.5705283925711
 30
0.0
 10
210.3849005532334
 20
490.0578566972018
 30
0.0
 10
210.6743962632679
 20
489.7875088944025
 30
0.0
 10
211.2271134063908
 20
489.2189354553676
 30
0.0
 10
211.4903349214271
 20
488.9207107190169
 30
0.0
 10
211.9902441924648
 20
488.2956386250938
 30
0.0
 10
212.2279830184657
 20
487.9671178216607
 30
0.0
 10
212.8913873502125
 20
486.9492060465047
 30
0.0
 10
213.266129132644
 20
486.2319148470345
 30
0.0
 10
213.726651990732
 20
485.0962914964506
 30
0.0
 10
213.863548822563
 20
484.7061747773505
 30
0.0
 10
214.0994503546303
 20
483.9117688929447
 30
0.0
 10
214.1976238555759
 20
483.5108523877396
 30
0.0
 10
214.4340364739452
 20
482.2971168883427
 30
0.0
 10
214.5147686694643
 20
481.4734162701955
 30
0.0
 10
214.5147686694643
 20
480.6343549942465
 30
0.0
  0
LINE
  5
190
330
1F
100
AcDbEntity
  8
0
  6
Continuous
 62
     7
370
    15
100
AcDbLine
 10
213.1354583246
 20
480.6343549942
 30
0.0
 11
214.5147686695
 21
480.6343549942
 31
0.0
  0
LINE
  5
191
330
1F
100
AcDbEntity
  8
0
  6
Continuous
 62
     7
370
    15
100
AcDbLine
 10
151.7561479798
 20
440.6343549942
 30
0.0
 11
151.7561479798
 21
480.6343549942
 31
0.0
  0
LINE
  5
192
330
1F
100
AcDbEntity
  8
0
  6
Continuous
 62
     7
370
    15
100
AcDbLine
 10
214.5147686695
 20
480.6343549942
 30
0.0
 11
214.5147686695
 21
440.6343549942
 31
0.0
  0
LINE
  5
193
330
1F
100
AcDbEntity
  8
0
  6
Continuous
 62
     7
370
    15
100
AcDbLine
 10
183.1354583246
 20
407.6343549942
 30
0.0
 11
128.1354583246
 21
407.6343549942
 31
0.0
  0
LINE
  5
194
330
1F
100
AcDbEntity
  8
0
  6
Continuous
 62
     7
370
    15
100
AcDbLine
 10
238.1354583246
 20
407.6343549942
 30
0.0
 11
183.1354583246
 21
407.6343549942
 31
0.0
  0
LINE
  5
195
330
1F
100
AcDbEntity
  8
0
  6
Continuous
 62
     7
370
    15
100
AcDbLine
 10
149.3854583246
 20
513.6343549942
 30
0.0
 11
149.3854583246
 21
510.6343549942
 31
0.0
  0
LINE
  5
196
330
1F
100
AcDbEntity
  8
0
  6
Continuous
 62
     7
370
    15
100
AcDbLine
 10
155.3854583246
 20
513.6343549942
 30
0.0
 11
155.3854583246
 21
510.6343549942
 31
0.0
  0
LINE
  5
197
330
1F
100
AcDbEntity
  8
0
  6
Continuous
 62
     7
370
    15
100
AcDbLine
 10
149.3854583246
 20
513.6343549942
 30
0.0
 11
155.3854583246
 21
513.6343549942
 31
0.0
  0
LINE
  5
198
330
1F
100
AcDbEntity
  8
0
  6
Continuous
 62
     7
370
    15
100
AcDbLine
 10
143.3854583246
 20
513.6343549942
 30
0.0
 11
143.3854583246
 21
510.6343549942
 31
0.0
  0
LINE
  5
199
330
1F
100
AcDbEntity
  8
0
  6
Continuous
 62
     7
370
    15
100
AcDbLine
 10
143.3854583246
 20
513.6343549942
 30
0.0
 11
149.3854583246
 21
513.6343549942
 31
0.0
  0
LINE
  5
19A
330
1F
100
AcDbEntity
  8
0
  6
Continuous
 62
     7
370
    15
100
AcDbLine
 10
210.8854583246
 20
513.6343549942
 30
0.0
 11
210.8854583246
 21
510.6343549942
 31
0.0
  0
LINE
  5
19B
330
1F
100
AcDbEntity
  8
0
  6
Continuous
 62
     7
370
    15
100
AcDbLine
 10
216.8854583246
 20
513.6343549942
 30
0.0
 11
216.8854583246
 21
510.6343549942
 31
0.0
  0
LINE
  5
19C
330
1F
100
AcDbEntity
  8
0
  6
Continuous
 62
     7
370
    15
100
AcDbLine
 10
210.8854583246
 20
513.6343549942
 30
0.0
 11
216.8854583246
 21
513.6343549942
 31
0.0
  0
LINE
  5
19D
330
1F
100
AcDbEntity
  8
0
  6
Continuous
 62
     7
370
    15
100
AcDbLine
 10
222.8854583246
 20
513.6343549942
 30
0.0
 11
222.8854583246
 21
510.6343549942
 31
0.0
  0
LINE
  5
19E
330
1F
100
AcDbEntity
  8
0
  6
Continuous
 62
     7
370
    15
100
AcDbLine
 10
216.8854583246
 20
513.6343549942
 30
0.0
 11
222.8854583246
 21
513.6343549942
 31
0.0
  0
LINE
  5
19F
330
1F
100
AcDbEntity
  8
0
  6
Continuous
 62
     7
370
    15
100
AcDbLine
 10
244.6354583246
 20
513.6343549942
 30
0.0
 11
244.6354583246
 21
510.6343549942
 31
0.0
  0
LINE
  5
1A0
330
1F
100
AcDbEntity
  8
0
  6
Continuous
 62
     7
370
    15
100
AcDbLine
 10
250.6354583246
 20
513.6343549942
 30
0.0
 11
250.6354583246
 21
510.6343549942
 31
0.0
  0
LINE
  5
1A1
330
1F
100
AcDbEntity
  8
0
  6
Continuous
 62
     7
370
    15
100
AcDbLine
 10
244.6354583246
 20
513.6343549942
 30
0.0
 11
250.6354583246
 21
513.6343549942
 31
0.0
  0
LINE
  5
1A2
330
1F
100
AcDbEntity
  8
0
  6
Continuous
 62
     7
370
    15
100
AcDbLine
 10
256.6354583246
 20
513.6343549942
 30
0.0
 11
256.6354583246
 21
510.6343549942
 31
0.0
  0
LINE
  5
1A3
330
1F
100
AcDbEntity
  8
0
  6
Continuous
 62
     7
370
    15
100
AcDbLine
 10
250.6354583246
 20
513.6343549942
 30
0.0
 11
256.6354583246
 21
513.6343549942
 31
0.0
  0
LINE
  5
1A4
330
1F
100
AcDbEntity
  8
0
  6
Continuous
 62
     7
370
    15
100
AcDbLine
 10
109.6354583246
 20
513.6343549942
 30
0.0
 11
109.6354583246
 21
510.6343549942
 31
0.0
  0
LINE
  5
1A5
330
1F
100
AcDbEntity
  8
0
  6
Continuous
 62
     7
370
    15
100
AcDbLine
 10
109.6354583246
 20
513.6343549942
 30
0.0
 11
115.6354583246
 21
513.6343549942
 31
0.0
  0
LINE
  5
1A6
330
1F
100
AcDbEntity
  8
0
  6
Continuous
 62
     7
370
    15
100
AcDbLine
 10
115.6354583246
 20
513.6343549942
 30
0.0
 11
115.6354583246
 21
510.6343549942
 31
0.0
  0
LINE
  5
1A7
330
1F
100
AcDbEntity
  8
0
  6
Continuous
 62
     7
370
    15
100
AcDbLine
 10
115.6354583246
 20
513.6343549942
 30
0.0
 11
121.6354583246
 21
513.6343549942
 31
0.0
  0
LINE
  5
1A8
330
1F
100
AcDbEntity
  8
0
  6
Continuous
 62
     7
370
    15
100
AcDbLine
 10
121.6354583246
 20
513.6343549942
 30
0.0
 11
121.6354583246
 21
510.6343549942
 31
0.0
  0
LINE
  5
1A9
330
1F
100
AcDbEntity
  8
0
  6
Continuous
 62
     8
370
    15
100
AcDbLine
 10
183.1354583246
 20
498.1343549942
 30
0.0
 11
263.1354583246
 21
498.1343549942
 31
0.0
  0
LINE
  5
1AA
330
1F
100
AcDbEntity
  8
0
  6
Continuous
 62
     8
370
    15
100
AcDbLine
 10
103.1354583246
 20
498.1343549942
 30
0.0
 11
183.1354583246
 21
498.1343549942
 31
0.0
  0
LINE
  5
1AB
330
1F
100
AcDbEntity
  8
0
  6
Continuous
 62
     8
370
    15
100
AcDbLine
 10
183.1354583246
 20
508.1343549942
 30
0.0
 11
103.1354583246
 21
508.1343549942
 31
0.0
  0
LINE
  5
1AC
330
1F
100
AcDbEntity
  8
0
  6
Continuous
 62
     8
370
    15
100
AcDbLine
 10
263.1354583246
 20
508.1343549942
 30
0.0
 11
183.1354583246
 21
508.1343549942
 31
0.0
  0
LINE
  5
1AD
330
1F
100
AcDbEntity
  8
0
  6
Continuous
 62
     8
370
    15
100
AcDbLine
 10
253.1354583246
 20
493.1343549942
 30
0.0
 11
202.4458031522
 21
493.1343549942
 31
0.0
  0
LINE
  5
1AE
330
1F
100
AcDbEntity
  8
0
  6
Continuous
 62
     8
370
    15
100
AcDbLine
 10
163.8251134971
 20
493.1343549942
 30
0.0
 11
113.1354583246
 21
493.1343549942
 31
0.0
  0
LINE
  5
1AF
330
1F
100
AcDbEntity
  8
0
  6
Continuous
 62
     8
370
    15
100
AcDbLine
 10
183.1354583246
 20
422.6343549942
 30
0.0
 11
253.1354583246
 21
422.6343549942
 31
0.0
  0
LINE
  5
1B0
330
1F
100
AcDbEntity
  8
0
  6
Continuous
 62
     8
370
    15
100
AcDbLine
 10
113.1354583246
 20
422.6343549942
 30
0.0
 11
183.1354583246
 21
422.6343549942
 31
0.0
  0
ARC
  5
1B1
330
1F
100
AcDbEntity
  8
0
  6
Continuous
 62
     7
370
     0
100
AcDbCircle
 10
183.1354583246
 20
460.6343549942
 30
0.0
 40
16.62449911236763
100
AcDbArc
 50
255.0
 51
195.0
  0
LINE
  5
1B2
330
1F
100
AcDbEntity
  8
0
  6
Continuous
 62
     7
370
    15
100
AcDbLine
 10
642.1920262015
 20
502.1343549942
 30
0.0
 11
641.1920262015
 21
503.1343549942
 31
0.0
  0
LINE
  5
1B3
330
1F
100
AcDbEntity
  8
0
  6
Continuous
 62
     7
370
    15
100
AcDbLine
 10
483.1920262015
 20
503.1343549942
 30
0.0
 11
482.1920262015
 21
502.1343549942
 31
0.0
  0
LINE
  5
1B4
330
1F
100
AcDbEntity
  8
0
  6
Continuous
 62
     7
370
    15
100
AcDbLine
 10
482.1920262015
 20
502.1343549942
 30
0.0
 11
482.1920262015
 21
498.1343549942
 31
0.0
  0
LINE
  5
1B5
330
1F
100
AcDbEntity
  8
0
  6
Continuous
 62
     7
370
    15
100
AcDbLine
 10
642.1920262015
 20
498.1343549942
 30
0.0
 11
642.1920262015
 21
502.1343549942
 31
0.0
  0
LINE
  5
1B6
330
1F
100
AcDbEntity
  8
0
  6
Continuous
 62
     7
370
    15
100
AcDbLine
 10
482.1920262015
 20
508.1343549942
 30
0.0
 11
482.1920262015
 21
504.1343549942
 31
0.0
  0
LINE
  5
1B7
330
1F
100
AcDbEntity
  8
0
  6
Continuous
 62
     7
370
    15
100
AcDbLine
 10
642.1920262015
 20
504.1343549942
 30
0.0
 11
642.1920262015
 21
508.1343549942
 31
0.0
  0
LINE
  5
1B8
330
1F
100
AcDbEntity
  8
0
  6
Continuous
 62
     7
370
    15
100
AcDbLine
 10
482.1920262015
 20
504.1343549942
 30
0.0
 11
483.1920262015
 21
503.1343549942
 31
0.0
  0
LINE
  5
1B9
330
1F
100
AcDbEntity
  8
0
  6
Continuous
 62
     7
370
    15
100
AcDbLine
 10
641.1920262015
 20
503.1343549942
 30
0.0
 11
642.1920262015
 21
504.1343549942
 31
0.0
  0
ARC
  5
1BA
330
1F
100
AcDbEntity
  8
0
  6
Continuous
 62
     7
370
    15
100
AcDbCircle
 10
484.6920262015
 20
498.1343549942
 30
0.0
 40
2.5
100
AcDbArc
 50
180.0
 51
270.0
  0
ARC
  5
1BB
330
1F
100
AcDbEntity
  8
0
  6
Continuous
 62
     7
370
    15
100
AcDbCircle
 10
639.6920262015
 20
498.1343549942
 30
0.0
 40
2.499999999999943
100
AcDbArc
 50
270.0
 51
0.0
  0
ARC
  5
1BC
330
1F
100
AcDbEntity
  8
0
  6
Continuous
 62
     7
370
    15
100
AcDbCircle
 10
484.6920262015
 20
508.1343549942
 30
0.0
 40
2.500000000000057
100
AcDbArc
 50
90.0
 51
180.0
  0
ARC
  5
1BD
330
1F
100
AcDbEntity
  8
0
  6
Continuous
 62
     7
370
    15
100
AcDbCircle
 10
639.6920262015
 20
508.1343549942
 30
0.0
 40
2.500000000000057
100
AcDbArc
 50
0.0
 51
90.0
  0
ARC
  5
1BE
330
1F
100
AcDbEntity
  8
0
  6
Continuous
 62
     7
370
    15
100
AcDbCircle
 10
489.6920262015
 20
493.1343549942
 30
0.0
 40
2.500000000000057
100
AcDbArc
 50
0.0
 51
90.0
  0
ARC
  5
1BF
330
1F
100
AcDbEntity
  8
0
  6
Continuous
 62
     7
370
    15
100
AcDbCircle
 10
634.6920262015
 20
493.1343549942
 30
0.0
 40
2.500000000000057
100
AcDbArc
 50
90.0
 51
180.0
  0
LINE
  5
1C0
330
1F
100
AcDbEntity
  8
0
  6
Continuous
 62
     7
370
    15
100
AcDbLine
 10
492.1920262015
 20
428.1343549942
 30
0.0
 11
492.1920262015
 21
422.6343549942
 31
0.0
  0
LINE
  5
1C1
330
1F
100
AcDbEntity
  8
0
  6
Continuous
 62
     7
370
    15
100
AcDbLine
 10
632.1920262015
 20
422.6343549942
 30
0.0
 11
632.1920262015
 21
428.1343549942
 31
0.0
  0
ARC
  5
1C2
330
1F
100
AcDbEntity
  8
0
  6
Continuous
 62
     7
370
    15
100
AcDbCircle
 10
507.1920262015
 20
422.6343549942
 30
0.0
 40
15.0
100
AcDbArc
 50
180.0
 51
270.0
  0
ARC
  5
1C3
330
1F
100
AcDbEntity
  8
0
  6
Continuous
 62
     7
370
    15
100
AcDbCircle
 10
617.1920262015
 20
422.6343549942
 30
0.0
 40
15.0
100
AcDbArc
 50
270.0
 51
0.0
  0
ARC
  5
1C4
330
1F
100
AcDbEntity
  8
0
  6
Continuous
 62
     7
370
    15
100
AcDbCircle
 10
489.6920262015
 20
428.1343549942
 30
0.0
 40
2.5
100
AcDbArc
 50
0.0
 51
90.0
  0
ARC
  5
1C5
330
1F
100
AcDbEntity
  8
0
  6
Continuous
 62
     7
370
    15
100
AcDbCircle
 10
489.6920262015
 20
493.1343549942
 30
0.0
 40
2.5
100
AcDbArc
 50
270.0
 51
0.0
  0
ARC
  5
1C6
330
1F
100
AcDbEntity
  8
0
  6
Continuous
 62
     7
370
    15
100
AcDbCircle
 10
634.6920262015
 20
493.1343549942
 30
0.0
 40
2.5
100
AcDbArc
 50
180.0
 51
270.0
  0
ARC
  5
1C7
330
1F
100
AcDbEntity
  8
0
  6
Continuous
 62
     7
370
    15
100
AcDbCircle
 10
634.6920262015
 20
428.1343549942
 30
0.0
 40
2.5
100
AcDbArc
 50
90.0
 51
180.0
  0
LINE
  5
1C8
330
1F
100
AcDbEntity
  8
0
  6
Continuous
 62
     7
370
    15
100
AcDbLine
 10
642.1920262015
 20
502.1343549942
 30
0.0
 11
482.1920262015
 21
502.1343549942
 31
0.0
  0
LINE
  5
1C9
330
1F
100
AcDbEntity
  8
0
  6
Continuous
 62
     7
370
    15
100
AcDbLine
 10
641.1920262015
 20
503.1343549942
 30
0.0
 11
483.1920262015
 21
503.1343549942
 31
0.0
  0
LINE
  5
1CA
330
1F
100
AcDbEntity
  8
0
  6
Continuous
 62
     7
370
    15
100
AcDbLine
 10
642.1920262015
 20
504.1343549942
 30
0.0
 11
482.1920262015
 21
504.1343549942
 31
0.0
  0
LINE
  5
1CB
330
1F
100
AcDbEntity
  8
0
  6
Continuous
 62
     7
370
    15
100
AcDbLine
 10
639.6920262015
 20
495.6343549942
 30
0.0
 11
484.6920262015
 21
495.6343549942
 31
0.0
  0
LINE
  5
1CC
330
1F
100
AcDbEntity
  8
0
  6
Continuous
 62
     7
370
    15
100
AcDbLine
 10
484.6920262015
 20
510.6343549942
 30
0.0
 11
639.6920262015
 21
510.6343549942
 31
0.0
  0
LINE
  5
1CD
330
1F
100
AcDbEntity
  8
0
  6
Continuous
 62
     7
370
    15
100
AcDbLine
 10
555.2638229712
 20
513.6343549942
 30
0.0
 11
555.2638229712
 21
510.6343549942
 31
0.0
  0
LINE
  5
1CE
330
1F
100
AcDbEntity
  8
0
  6
Continuous
 62
     7
370
    15
100
AcDbLine
 10
555.2638229712
 20
513.6343549942
 30
0.0
 11
558.7279245863
 21
513.6343549942
 31
0.0
  0
LINE
  5
1CF
330
1F
100
AcDbEntity
  8
0
  6
Continuous
 62
     7
370
    15
100
AcDbLine
 10
558.7279245863
 20
513.6343549942
 30
0.0
 11
558.7279245863
 21
510.6343549942
 31
0.0
  0
LINE
  5
1D0
330
1F
100
AcDbEntity
  8
0
  6
Continuous
 62
     7
370
    15
100
AcDbLine
 10
565.6561278166
 20
513.6343549942
 30
0.0
 11
565.6561278166
 21
510.6343549942
 31
0.0
  0
LINE
  5
1D1
330
1F
100
AcDbEntity
  8
0
  6
Continuous
 62
     7
370
    15
100
AcDbLine
 10
558.7279245863
 20
513.6343549942
 30
0.0
 11
565.6561278166
 21
513.6343549942
 31
0.0
  0
LINE
  5
1D2
330
1F
100
AcDbEntity
  8
0
  6
Continuous
 62
     7
370
    15
100
AcDbLine
 10
569.1202294317
 20
513.6343549942
 30
0.0
 11
569.1202294317
 21
510.6343549942
 31
0.0
  0
LINE
  5
1D3
330
1F
100
AcDbEntity
  8
0
  6
Continuous
 62
     7
370
    15
100
AcDbLine
 10
565.6561278166
 20
513.6343549942
 30
0.0
 11
569.1202294317
 21
513.6343549942
 31
0.0
  0
LINE
  5
1D4
330
1F
100
AcDbEntity
  8
0
  6
Continuous
 62
     7
370
    15
100
AcDbLine
 10
629.4758324452
 20
493.1343549942
 30
0.0
 11
494.9082199578
 21
493.1343549942
 31
0.0
  0
SPLINE
  5
1D5
330
1F
100
AcDbEntity
  8
0
  6
Continuous
 62
     7
370
    15
100
AcDbSpline
210
0.0
220
0.0
230
1.0
 70
     8
 71
     3
 72
    30
 73
    26
 74
     0
 42
0.000000001
 43
0.00000001
 40
0.0
 40
0.0
 40
0.0
 40
0.0
 40
0.0624999999999996
 40
0.0624999999999996
 40
0.1249999999999993
 40
0.1249999999999993
 40
0.2499999999999984
 40
0.2499999999999984
 40
0.3124999999999983
 40
0.3124999999999983
 40
0.3749999999999983
 40
0.3749999999999983
 40
0.4999999999999983
 40
0.4999999999999983
 40
0.5624999999999986
 40
0.5624999999999986
 40
0.6249999999999987
 40
0.6249999999999987
 40
0.7499999999999992
 40
0.7499999999999992
 40
0.8124999999999997
 40
0.8124999999999997
 40
0.875
 40
0.875
 40
1.0
 40
1.0
 40
1.0
 40
1.0
 10
624.7646950136832
 20
480.6343549942465
 30
0.0
 10
624.7646950136833
 20
481.0544733942908
 30
0.0
 10
624.7749363037501
 20
481.4726594190299
 30
0.0
 10
624.8155027359236
 20
482.3052197046464
 30
0.0
 10
624.846056146455
 20
482.7213386441906
 30
0.0
 10
624.9653304858853
 20
483.942867228928
 30
0.0
 10
625.0813570948396
 20
484.7264656906713
 30
0.0
 10
625.3033210554423
 20
485.8584146103074
 30
0.0
 10
625.3853415234789
 20
486.2284353167308
 30
0.0
 10
625.5648016298911
 20
486.9536900727894
 30
0.0
 10
625.6612511058516
 20
487.3047123329065
 30
0.0
 10
625.9654942455115
 20
488.314543524805
 30
0.0
 10
626.1891810999261
 20
488.9351452201901
 30
0.0
 10
626.5490347986108
 20
489.7897637682764
 30
0.0
 10
626.6736602655185
 20
490.0629786532657
 30
0.0
 10
626.9275282738312
 20
490.5774070386869
 30
0.0
 10
627.0560331768002
 20
490.8173503045317
 30
0.0
 10
627.4447218814754
 20
491.4871359494863
 30
0.0
 10
627.7080102878007
 20
491.8674526732217
 30
0.0
 10
628.1047095926157
 20
492.3359952816059
 30
0.0
 10
628.2375592299626
 20
492.475131259635
 30
0.0
 10
628.4975998379556
 20
492.7125718343954
 30
0.0
 10
628.6254917832687
 20
492.8117994066868
 30
0.0
 10
629.0022621086575
 20
493.051408570468
 30
0.0
 10
629.2442194721023
 20
493.1343549942464
 30
0.0
 10
629.475832445169
 20
493.1343549942464
 30
0.0
  0
LINE
  5
1D6
330
1F
100
AcDbEntity
  8
0
  6
Continuous
 62
     7
370
    15
100
AcDbLine
 10
624.7646950137
 20
440.6343549942
 30
0.0
 11
624.7646950137
 21
480.6343549942
 31
0.0
  0
SPLINE
  5
1D7
330
1F
100
AcDbEntity
  8
0
  6
Continuous
 62
     7
370
    15
100
AcDbSpline
210
0.0
220
0.0
230
1.0
 70
     8
 71
     3
 72
    28
 73
    24
 74
     0
 42
0.000000001
 43
0.00000001
 40
0.0
 40
0.0
 40
0.0
 40
0.0
 40
0.1250000000000003
 40
0.1250000000000003
 40
0.2500000000000006
 40
0.2500000000000006
 40
0.3750000000000009
 40
0.3750000000000009
 40
0.4375000000000008
 40
0.4375000000000008
 40
0.5000000000000008
 40
0.5000000000000008
 40
0.5625000000000007
 40
0.5625000000000007
 40
0.6250000000000007
 40
0.6250000000000007
 40
0.750000000000001
 40
0.750000000000001
 40
0.8125000000000009
 40
0.8125000000000009
 40
0.8750000000000007
 40
0.8750000000000007
 40
1.0
 40
1.0
 40
1.0
 40
1.0
 10
629.475832445169
 20
428.1343549942465
 30
0.0
 10
629.2445160285295
 20
428.1343549942464
 30
0.0
 10
629.0021821301141
 20
428.2171131914026
 30
0.0
 10
628.4974766003023
 20
428.5385628216946
 30
0.0
 10
628.2330813124365
 20
428.7807215505489
 30
0.0
 10
627.7076102435941
 20
429.4021058208324
 30
0.0
 10
627.4445161067529
 20
429.7816482413897
 30
0.0
 10
627.05393993684
 20
430.4551081196105
 30
0.0
 10
626.9239787394993
 20
430.6981815959217
 30
0.0
 10
626.6712912302467
 20
431.2108532912911
 30
0.0
 10
626.5480483870554
 20
431.4812010940904
 30
0.0
 10
626.3087136479304
 20
432.0497745331253
 30
0.0
 10
626.1926197518144
 20
432.3479992694759
 30
0.0
 10
625.9687957507141
 20
432.973071363399
 30
0.0
 10
625.8605765748517
 20
433.3015921668322
 30
0.0
 10
625.5546483588641
 20
434.3195039419882
 30
0.0
 10
625.3763510916749
 20
435.0367951414582
 30
0.0
 10
625.153982404214
 20
436.1724184920422
 30
0.0
 10
625.0871907152215
 20
436.5625352111423
 30
0.0
 10
624.9713895498436
 20
437.3569410955481
 30
0.0
 10
624.9227970793416
 20
437.7578576007532
 30
0.0
 10
624.8053632427572
 20
438.9715931001502
 30
0.0
 10
624.7646950136832
 20
439.7952937182974
 30
0.0
 10
624.7646950136832
 20
440.6343549942464
 30
0.0
  0
SPLINE
  5
1D8
330
1F
100
AcDbEntity
  8
0
  6
Continuous
 62
     7
370
    15
100
AcDbSpline
210
0.0
220
0.0
230
1.0
 70
     8
 71
     3
 72
    30
 73
    26
 74
     0
 42
0.000000001
 43
0.00000001
 40
0.0
 40
0.0
 40
0.0
 40
0.0
 40
0.0624999999999998
 40
0.0624999999999998
 40
0.1249999999999997
 40
0.1249999999999997
 40
0.2499999999999992
 40
0.2499999999999992
 40
0.3124999999999993
 40
0.3124999999999993
 40
0.3749999999999994
 40
0.3749999999999994
 40
0.4999999999999999
 40
0.4999999999999999
 40
0.5624999999999999
 40
0.5624999999999999
 40
0.625
 40
0.625
 40
0.7500000000000003
 40
0.7500000000000003
 40
0.8125000000000004
 40
0.8125000000000004
 40
0.8750000000000006
 40
0.8750000000000006
 40
1.0
 40
1.0
 40
1.0
 40
1.0
 10
499.6193573892555
 20
440.6343549942464
 30
0.0
 10
499.6193573892555
 20
440.2142365942021
 30
0.0
 10
499.6091160991886
 20
439.796050569463
 30
0.0
 10
499.5685496670151
 20
438.9634902838464
 30
0.0
 10
499.5379962564837
 20
438.5473713443023
 30
0.0
 10
499.4187219170534
 20
437.3258427595648
 30
0.0
 10
499.3026953080991
 20
436.5422442978216
 30
0.0
 10
499.0807313474964
 20
435.4102953781854
 30
0.0
 10
498.9987108794598
 20
435.040274671762
 30
0.0
 10
498.8192507730475
 20
434.3150199157034
 30
0.0
 10
498.722801297087
 20
433.9639976555863
 30
0.0
 10
498.4185581574272
 20
432.9541664636878
 30
0.0
 10
498.1948713030125
 20
432.3335647683028
 30
0.0
 10
497.8350176043279
 20
431.4789462202164
 30
0.0
 10
497.7103921374202
 20
431.2057313352271
 30
0.0
 10
497.4565241291075
 20
430.6913029498058
 30
0.0
 10
497.3280192261386
 20
430.4513596839611
 30
0.0
 10
496.9393305214633
 20
429.7815740390064
 30
0.0
 10
496.676042115138
 20
429.4012573152711
 30
0.0
 10
496.279342810323
 20
428.9327147068869
 30
0.0
 10
496.1464931729761
 20
428.7935787288578
 30
0.0
 10
495.8864525649831
 20
428.5561381540974
 30
0.0
 10
495.75856061967
 20
428.4569105818061
 30
0.0
 10
495.3817902942812
 20
428.2173014180248
 30
0.0
 10
495.1398329308364
 20
428.1343549942465
 30
0.0
 10
494.9082199577697
 20
428.1343549942465
 30
0.0
  0
LINE
  5
1D9
330
1F
100
AcDbEntity
  8
0
  6
Continuous
 62
     7
370
    15
100
AcDbLine
 10
499.6193573893
 20
480.6343549942
 30
0.0
 11
499.6193573893
 21
440.6343549942
 31
0.0
  0
SPLINE
  5
1DA
330
1F
100
AcDbEntity
  8
0
  6
Continuous
 62
     7
370
    15
100
AcDbSpline
210
0.0
220
0.0
230
1.0
 70
     8
 71
     3
 72
    28
 73
    24
 74
     0
 42
0.000000001
 43
0.00000001
 40
0.0
 40
0.0
 40
0.0
 40
0.0
 40
0.1249999999999996
 40
0.1249999999999996
 40
0.2499999999999993
 40
0.2499999999999993
 40
0.3749999999999989
 40
0.3749999999999989
 40
0.4374999999999989
 40
0.4374999999999989
 40
0.499999999999999
 40
0.499999999999999
 40
0.562499999999999
 40
0.562499999999999
 40
0.6249999999999991
 40
0.6249999999999991
 40
0.7499999999999996
 40
0.7499999999999996
 40
0.8124999999999998
 40
0.8124999999999998
 40
0.8749999999999999
 40
0.8749999999999999
 40
1.0
 40
1.0
 40
1.0
 40
1.0
 10
494.9082199577697
 20
493.1343549942464
 30
0.0
 10
495.1395363744092
 20
493.1343549942464
 30
0.0
 10
495.3818702728246
 20
493.0515967970902
 30
0.0
 10
495.8865758026364
 20
492.7301471667982
 30
0.0
 10
496.1509710905022
 20
492.487988437944
 30
0.0
 10
496.6764421593446
 20
491.8666041676605
 30
0.0
 10
496.9395362961858
 20
491.4870617471031
 30
0.0
 10
497.3301124660987
 20
490.8136018688823
 30
0.0
 10
497.4600736634395
 20
490.5705283925711
 30
0.0
 10
497.7127611726921
 20
490.0578566972017
 30
0.0
 10
497.8360040158834
 20
489.7875088944025
 30
0.0
 10
498.0753387550083
 20
489.2189354553676
 30
0.0
 10
498.1914326511243
 20
488.9207107190169
 30
0.0
 10
498.4152566522246
 20
488.2956386250938
 30
0.0
 10
498.523475828087
 20
487.9671178216607
 30
0.0
 10
498.8294040440746
 20
486.9492060465047
 30
0.0
 10
499.0077013112638
 20
486.2319148470345
 30
0.0
 10
499.2300699987246
 20
485.0962914964506
 30
0.0
 10
499.2968616877173
 20
484.7061747773504
 30
0.0
 10
499.4126628530952
 20
483.9117688929447
 30
0.0
 10
499.4612553235971
 20
483.5108523877396
 30
0.0
 10
499.5786891601816
 20
482.2971168883427
 30
0.0
 10
499.6193573892555
 20
481.4734162701955
 30
0.0
 10
499.6193573892555
 20
480.6343549942465
 30
0.0
  0
LINE
  5
1DB
330
1F
100
AcDbEntity
  8
0
  6
Continuous
 62
     7
370
    15
100
AcDbLine
 10
617.1920262015
 20
407.6343549942
 30
0.0
 11
507.1920262048
 21
407.6343549942
 31
0.0
  0
LINE
  5
1DC
330
1F
100
AcDbEntity
  8
0
  6
Continuous
 62
     7
370
    15
100
AcDbLine
 10
496.8071082157
 20
513.6343549942
 30
0.0
 11
496.8071082157
 21
510.6343549942
 31
0.0
  0
LINE
  5
1DD
330
1F
100
AcDbEntity
  8
0
  6
Continuous
 62
     7
370
    15
100
AcDbLine
 10
500.2712098309
 20
513.6343549942
 30
0.0
 11
500.2712098309
 21
510.6343549942
 31
0.0
  0
LINE
  5
1DE
330
1F
100
AcDbEntity
  8
0
  6
Continuous
 62
     7
370
    15
100
AcDbLine
 10
496.8071082157
 20
513.6343549942
 30
0.0
 11
500.2712098309
 21
513.6343549942
 31
0.0
  0
LINE
  5
1DF
330
1F
100
AcDbEntity
  8
0
  6
Continuous
 62
     7
370
    15
100
AcDbLine
 10
507.1994130612
 20
513.6343549942
 30
0.0
 11
507.1994130612
 21
510.6343549942
 31
0.0
  0
LINE
  5
1E0
330
1F
100
AcDbEntity
  8
0
  6
Continuous
 62
     7
370
    15
100
AcDbLine
 10
500.2712098309
 20
513.6343549942
 30
0.0
 11
507.1994130612
 21
513.6343549942
 31
0.0
  0
LINE
  5
1E1
330
1F
100
AcDbEntity
  8
0
  6
Continuous
 62
     7
370
    15
100
AcDbLine
 10
510.6635146763
 20
513.6343549942
 30
0.0
 11
510.6635146763
 21
510.6343549942
 31
0.0
  0
LINE
  5
1E2
330
1F
100
AcDbEntity
  8
0
  6
Continuous
 62
     7
370
    15
100
AcDbLine
 10
507.1994130612
 20
513.6343549942
 30
0.0
 11
510.6635146763
 21
513.6343549942
 31
0.0
  0
LINE
  5
1E3
330
1F
100
AcDbEntity
  8
0
  6
Continuous
 62
     7
370
    15
100
AcDbLine
 10
613.7205377266
 20
513.6343549942
 30
0.0
 11
613.7205377266
 21
510.6343549942
 31
0.0
  0
LINE
  5
1E4
330
1F
100
AcDbEntity
  8
0
  6
Continuous
 62
     7
370
    15
100
AcDbLine
 10
617.1846393418
 20
513.6343549942
 30
0.0
 11
617.1846393418
 21
510.6343549942
 31
0.0
  0
LINE
  5
1E5
330
1F
100
AcDbEntity
  8
0
  6
Continuous
 62
     7
370
    15
100
AcDbLine
 10
613.7205377266
 20
513.6343549942
 30
0.0
 11
617.1846393418
 21
513.6343549942
 31
0.0
  0
LINE
  5
1E6
330
1F
100
AcDbEntity
  8
0
  6
Continuous
 62
     7
370
    15
100
AcDbLine
 10
624.1128425721
 20
513.6343549942
 30
0.0
 11
624.1128425721
 21
510.6343549942
 31
0.0
  0
LINE
  5
1E7
330
1F
100
AcDbEntity
  8
0
  6
Continuous
 62
     7
370
    15
100
AcDbLine
 10
617.1846393418
 20
513.6343549942
 30
0.0
 11
624.1128425721
 21
513.6343549942
 31
0.0
  0
LINE
  5
1E8
330
1F
100
AcDbEntity
  8
0
  6
Continuous
 62
     7
370
    15
100
AcDbLine
 10
627.5769441872
 20
513.6343549942
 30
0.0
 11
627.5769441872
 21
510.6343549942
 31
0.0
  0
LINE
  5
1E9
330
1F
100
AcDbEntity
  8
0
  6
Continuous
 62
     7
370
    15
100
AcDbLine
 10
624.1128425721
 20
513.6343549942
 30
0.0
 11
627.5769441872
 21
513.6343549942
 31
0.0
  0
SPLINE
  5
1EA
330
1F
100
AcDbEntity
  8
0
  6
Continuous
 62
     7
370
    15
100
AcDbSpline
210
0.0
220
0.0
230
1.0
 70
     8
 71
     3
 72
    30
 73
    26
 74
     0
 42
0.000000001
 43
0.00000001
 40
0.0
 40
0.0
 40
0.0
 40
0.0
 40
0.125000000000001
 40
0.125000000000001
 40
0.187500000000001
 40
0.187500000000001
 40
0.2500000000000011
 40
0.2500000000000011
 40
0.3750000000000005
 40
0.3750000000000005
 40
0.4375000000000002
 40
0.4375000000000002
 40
0.4999999999999999
 40
0.4999999999999999
 40
0.6249999999999998
 40
0.6249999999999998
 40
0.6874999999999999
 40
0.6874999999999999
 40
0.75
 40
0.75
 40
0.8750000000000003
 40
0.8750000000000003
 40
0.9375000000000002
 40
0.9375000000000002
 40
1.0
 40
1.0
 40
1.0
 40
1.0
 10
492.5052268776375
 20
430.6343549942464
 30
0.0
 10
492.7402695551814
 20
430.6343549942464
 30
0.0
 10
492.985387989692
 20
430.6980775489072
 30
0.0
 10
493.3665261015975
 20
430.8817605132824
 30
0.0
 10
493.4958128351096
 20
430.9577910303993
 30
0.0
 10
493.7585432228208
 20
431.1395631078977
 30
0.0
 10
493.8926474278927
 20
431.2459357311429
 30
0.0
 10
494.2946886013995
 20
431.6055712210768
 30
0.0
 10
494.5624021367136
 20
431.8982208793975
 30
0.0
 10
494.959370091311
 20
432.4157031112424
 30
0.0
 10
495.0909101709732
 20
432.6013827119025
 30
0.0
 10
495.3514780175321
 20
433.0002821999848
 30
0.0
 10
495.4804927902488
 20
433.2137085953588
 30
0.0
 10
495.85428469364
 20
433.883431395702
 30
0.0
 10
496.0887061520711
 20
434.372742242458
 30
0.0
 10
496.4105564187427
 20
435.1757230026857
 30
0.0
 10
496.512838568023
 20
435.4549734445322
 30
0.0
 10
496.7054893637117
 20
436.0387689202616
 30
0.0
 10
496.7942072524582
 20
436.3384556406132
 30
0.0
 10
497.0348847010662
 20
437.2571811189143
 30
0.0
 10
497.1621554055333
 20
437.8972952042428
 30
0.0
 10
497.2939576786324
 20
438.9032552644139
 30
0.0
 10
497.3279909483715
 20
439.2478896866432
 30
0.0
 10
497.3731779437431
 20
439.9381758445704
 30
0.0
 10
497.3846192173908
 20
440.2852701696704
 30
0.0
 10
497.3846192173908
 20
440.6343549942464
 30
0.0
  0
LINE
  5
1EB
330
1F
100
AcDbEntity
  8
0
  6
Continuous
 62
     7
370
    15
100
AcDbLine
 10
497.3846192174
 20
440.6343549942
 30
0.0
 11
499.6193573893
 21
440.6343549942
 31
0.0
  0
ARC
  5
1EC
330
1F
100
AcDbEntity
  8
0
  6
Continuous
 62
     7
370
    15
100
AcDbCircle
 10
492.4557443946
 20
428.1819174199
 30
0.0
 40
2.452936724018997
100
AcDbArc
 50
358.8889656145
 51
88.8441080722
  0
ARC
  5
1ED
330
1F
100
AcDbEntity
  8
0
  6
Continuous
 62
     7
370
    15
100
AcDbCircle
 10
631.9283080083
 20
493.0867925686
 30
0.0
 40
2.452936724019148
100
AcDbArc
 50
178.8889656145
 51
268.8441080722
  0
SPLINE
  5
1EE
330
1F
100
AcDbEntity
  8
0
  6
Continuous
 62
     7
370
    15
100
AcDbSpline
210
0.0
220
0.0
230
1.0
 70
     8
 71
     3
 72
    30
 73
    26
 74
     0
 42
0.000000001
 43
0.00000001
 40
0.0
 40
0.0
 40
0.0
 40
0.0
 40
0.1250000000000005
 40
0.1250000000000005
 40
0.1875000000000003
 40
0.1875000000000003
 40
0.2500000000000002
 40
0.2500000000000002
 40
0.3750000000000006
 40
0.3750000000000006
 40
0.4375000000000008
 40
0.4375000000000008
 40
0.500000000000001
 40
0.500000000000001
 40
0.6250000000000006
 40
0.6250000000000006
 40
0.6875000000000007
 40
0.6875000000000007
 40
0.7500000000000007
 40
0.7500000000000007
 40
0.8750000000000007
 40
0.8750000000000007
 40
0.9375000000000004
 40
0.9375000000000004
 40
1.0
 40
1.0
 40
1.0
 40
1.0
 10
631.8788255253012
 20
490.6343549942464
 30
0.0
 10
631.6437828477573
 20
490.6343549942464
 30
0.0
 10
631.3986644132468
 20
490.5706324395857
 30
0.0
 10
631.0175263013413
 20
490.3869494752104
 30
0.0
 10
630.8882395678291
 20
490.3109189580935
 30
0.0
 10
630.625509180118
 20
490.1291468805951
 30
0.0
 10
630.4914049750461
 20
490.02277425735
 30
0.0
 10
630.0893638015392
 20
489.6631387674161
 30
0.0
 10
629.8216502662251
 20
489.3704891090953
 30
0.0
 10
629.4246823116277
 20
488.8530068772505
 30
0.0
 10
629.2931422319655
 20
488.6673272765904
 30
0.0
 10
629.0325743854066
 20
488.2684277885081
 30
0.0
 10
628.9035596126898
 20
488.0550013931341
 30
0.0
 10
628.5297677092987
 20
487.3852785927908
 30
0.0
 10
628.2953462508676
 20
486.8959677460349
 30
0.0
 10
627.9734959841959
 20
486.0929869858072
 30
0.0
 10
627.8712138349157
 20
485.8137365439606
 30
0.0
 10
627.678563039227
 20
485.2299410682312
 30
0.0
 10
627.5898451504804
 20
484.9302543478796
 30
0.0
 10
627.3491677018726
 20
484.0115288695786
 30
0.0
 10
627.2218969974053
 20
483.3714147842501
 30
0.0
 10
627.0900947243064
 20
482.3654547240789
 30
0.0
 10
627.0560614545673
 20
482.0208203018497
 30
0.0
 10
627.0108744591955
 20
481.3305341439225
 30
0.0
 10
626.999433185548
 20
480.9834398188225
 30
0.0
 10
626.999433185548
 20
480.6343549942465
 30
0.0
  0
LINE
  5
1EF
330
1F
100
AcDbEntity
  8
0
  6
Continuous
 62
     7
370
    15
100
AcDbLine
 10
624.7646950137
 20
480.6343549942
 30
0.0
 11
626.9994331855
 21
480.6343549942
 31
0.0
  0
SPLINE
  5
1F0
330
1F
100
AcDbEntity
  8
0
  6
Continuous
 62
     7
370
    15
100
AcDbSpline
210
0.0
220
0.0
230
1.0
 70
     8
 71
     3
 72
    24
 73
    20
 74
     0
 42
0.000000001
 43
0.00000001
 40
0.0
 40
0.0
 40
0.0
 40
0.0
 40
0.1250000000000001
 40
0.1250000000000001
 40
0.2500000000000001
 40
0.2500000000000001
 40
0.3750000000000002
 40
0.3750000000000002
 40
0.5000000000000002
 40
0.5000000000000002
 40
0.5625
 40
0.5625
 40
0.6249999999999998
 40
0.6249999999999998
 40
0.7499999999999999
 40
0.7499999999999999
 40
0.8749999999999999
 40
0.8749999999999999
 40
1.0
 40
1.0
 40
1.0
 40
1.0
 10
497.3846192173908
 20
480.6343549942465
 30
0.0
 10
497.3846192173908
 20
481.3314616455306
 30
0.0
 10
497.3392306911393
 20
482.0127696837691
 30
0.0
 10
497.1663704760514
 20
483.3461650208889
 30
0.0
 10
497.0364934672419
 20
484.0043885235049
 30
0.0
 10
496.7154380786393
 20
485.2319256068624
 30
0.0
 10
496.5241330609267
 20
485.8082915158558
 30
0.0
 10
496.0911072929205
 20
486.8912849946062
 30
0.0
 10
495.8547109438019
 20
487.3842834030281
 30
0.0
 10
495.4821297124881
 20
488.0521833991842
 30
0.0
 10
495.3547203403821
 20
488.2631874111748
 30
0.0
 10
495.0944509960499
 20
488.6621763141175
 30
0.0
 10
494.9614507369154
 20
488.8501819968882
 30
0.0
 10
494.5628960985998
 20
489.3700683819479
 30
0.0
 10
494.2954645904535
 20
489.6621200932038
 30
0.0
 10
493.7627148407485
 20
490.1393236665116
 30
0.0
 10
493.4958499753521
 20
490.324449266867
 30
0.0
 10
492.9855153987793
 20
490.5707450044684
 30
0.0
 10
492.7400292306964
 20
490.6343549942464
 30
0.0
 10
492.5052268776375
 20
490.6343549942464
 30
0.0
  0
ARC
  5
1F1
330
1F
100
AcDbEntity
  8
0
  6
Continuous
 62
     7
370
    15
100
AcDbCircle
 10
492.4557443946
 20
493.0867925686
 30
0.0
 40
2.452936724019091
100
AcDbArc
 50
271.1558919278
 51
1.1110343855
  0
LINE
  5
1F2
330
1F
100
AcDbEntity
  8
0
  6
Continuous
 62
     7
370
    15
100
AcDbLine
 10
497.3846192174
 20
480.6343549942
 30
0.0
 11
499.6193573893
 21
480.6343549942
 31
0.0
  0
LINE
  5
1F3
330
1F
100
AcDbEntity
  8
0
  6
Continuous
 62
     7
370
    15
100
AcDbLine
 10
624.7646950137
 20
440.6343549942
 30
0.0
 11
626.9994331855
 21
440.6343549942
 31
0.0
  0
SPLINE
  5
1F4
330
1F
100
AcDbEntity
  8
0
  6
Continuous
 62
     7
370
    15
100
AcDbSpline
210
0.0
220
0.0
230
1.0
 70
     8
 71
     3
 72
    24
 73
    20
 74
     0
 42
0.000000001
 43
0.00000001
 40
0.0
 40
0.0
 40
0.0
 40
0.0
 40
0.1250000000000007
 40
0.1250000000000007
 40
0.2500000000000013
 40
0.2500000000000013
 40
0.375000000000002
 40
0.375000000000002
 40
0.5000000000000027
 40
0.5000000000000027
 40
0.5625000000000026
 40
0.5625000000000026
 40
0.6250000000000024
 40
0.6250000000000024
 40
0.7500000000000017
 40
0.7500000000000017
 40
0.8750000000000009
 40
0.8750000000000009
 40
1.0
 40
1.0
 40
1.0
 40
1.0
 10
626.999433185548
 20
440.6343549942464
 30
0.0
 10
626.999433185548
 20
439.9372483429623
 30
0.0
 10
627.0448217117994
 20
439.2559403047237
 30
0.0
 10
627.2176819268873
 20
437.922544967604
 30
0.0
 10
627.3475589356968
 20
437.264321464988
 30
0.0
 10
627.6686143242995
 20
436.0367843816305
 30
0.0
 10
627.8599193420122
 20
435.4604184726371
 30
0.0
 10
628.2929451100182
 20
434.3774249938867
 30
0.0
 10
628.5293414591367
 20
433.8844265854648
 30
0.0
 10
628.9019226904506
 20
433.2165265893087
 30
0.0
 10
629.0293320625566
 20
433.005522577318
 30
0.0
 10
629.2896014068888
 20
432.6065336743753
 30
0.0
 10
629.4226016660233
 20
432.4185279916046
 30
0.0
 10
629.821156304339
 20
431.898641606545
 30
0.0
 10
630.0885878124852
 20
431.6065898952891
 30
0.0
 10
630.6213375621902
 20
431.1293863219813
 30
0.0
 10
630.8882024275866
 20
430.9442607216259
 30
0.0
 10
631.3985370041594
 20
430.6979649840244
 30
0.0
 10
631.6440231722422
 20
430.6343549942464
 30
0.0
 10
631.8788255253012
 20
430.6343549942464
 30
0.0
  0
ARC
  5
1F5
330
1F
100
AcDbEntity
  8
0
  6
Continuous
 62
     7
370
    15
100
AcDbCircle
 10
631.9283080083
 20
428.1819174199
 30
0.0
 40
2.452936724019053
100
AcDbArc
 50
91.1558919278
 51
181.1110343855
  0
LINE
  5
1F6
330
1F
100
AcDbEntity
  8
0
  6
Continuous
 62
     7
370
    15
100
AcDbLine
 10
497.3846192174
 20
440.6343549942
 30
0.0
 11
497.3846192174
 21
480.6343549942
 31
0.0
  0
LINE
  5
1F7
330
1F
100
AcDbEntity
  8
0
  6
Continuous
 62
     7
370
    15
100
AcDbLine
 10
626.9994331855
 20
480.6343549942
 30
0.0
 11
626.9994331855
 21
440.6343549942
 31
0.0
  0
LINE
  5
1F8
330
1F
100
AcDbEntity
  8
0
  6
Continuous
 62
     7
370
    15
100
AcDbLine
 10
482.1920262015
 20
480.6343549942
 30
0.0
 11
482.1920262015
 21
490.6343549942
 31
0.0
  0
LINE
  5
1F9
330
1F
100
AcDbEntity
  8
0
  6
Continuous
 62
     7
370
    15
100
AcDbLine
 10
482.1920262015
 20
490.6343549942
 30
0.0
 11
492.5052268776
 21
490.6343549942
 31
0.0
  0
LINE
  5
1FA
330
1F
100
AcDbEntity
  8
0
  6
Continuous
 62
     7
370
    15
100
AcDbLine
 10
497.3846192174
 20
480.6343549942
 30
0.0
 11
482.1920262015
 21
480.6343549942
 31
0.0
  0
LINE
  5
1FB
330
1F
100
AcDbEntity
  8
0
  6
Continuous
 62
     7
370
    15
100
AcDbLine
 10
482.1920262015
 20
480.6343549942
 30
0.0
 11
482.1920262015
 21
440.6343549942
 31
0.0
  0
LINE
  5
1FC
330
1F
100
AcDbEntity
  8
0
  6
Continuous
 62
     7
370
    15
100
AcDbLine
 10
482.1920262015
 20
440.6343549942
 30
0.0
 11
497.3846192174
 21
440.6343549942
 31
0.0
  0
LINE
  5
1FD
330
1F
100
AcDbEntity
  8
0
  6
Continuous
 62
     7
370
    15
100
AcDbLine
 10
482.1920262015
 20
430.6343549942
 30
0.0
 11
482.1920262015
 21
440.6343549942
 31
0.0
  0
LINE
  5
1FE
330
1F
100
AcDbEntity
  8
0
  6
Continuous
 62
     7
370
    15
100
AcDbLine
 10
492.5052268776
 20
430.6343549942
 30
0.0
 11
482.1920262015
 21
430.6343549942
 31
0.0
  0
LINE
  5
1FF
330
1F
100
AcDbEntity
  8
0
  6
Continuous
 62
     7
370
    15
100
AcDbLine
 10
642.1920262015
 20
440.6343549942
 30
0.0
 11
642.1920262015
 21
430.6343549942
 31
0.0
  0
LINE
  5
200
330
1F
100
AcDbEntity
  8
0
  6
Continuous
 62
     7
370
    15
100
AcDbLine
 10
642.1920262015
 20
430.6343549942
 30
0.0
 11
631.8788255253
 21
430.6343549942
 31
0.0
  0
LINE
  5
201
330
1F
100
AcDbEntity
  8
0
  6
Continuous
 62
     7
370
    15
100
AcDbLine
 10
626.9994331855
 20
440.6343549942
 30
0.0
 11
642.1920262015
 21
440.6343549942
 31
0.0
  0
LINE
  5
202
330
1F
100
AcDbEntity
  8
0
  6
Continuous
 62
     7
370
    15
100
AcDbLine
 10
642.1920262015
 20
490.6343549942
 30
0.0
 11
642.1920262015
 21
480.6343549942
 31
0.0
  0
LINE
  5
203
330
1F
100
AcDbEntity
  8
0
  6
Continuous
 62
     7
370
    15
100
AcDbLine
 10
642.1920262015
 20
480.6343549942
 30
0.0
 11
626.9994331855
 21
480.6343549942
 31
0.0
  0
LINE
  5
204
330
1F
100
AcDbEntity
  8
0
  6
Continuous
 62
     7
370
    15
100
AcDbLine
 10
631.8788255253
 20
490.6343549942
 30
0.0
 11
642.1920262015
 21
490.6343549942
 31
0.0
  0
LINE
  5
205
330
1F
100
AcDbEntity
  8
0
  6
Continuous
 62
     7
370
    15
100
AcDbLine
 10
642.1920262015
 20
480.6343549942
 30
0.0
 11
642.1920262015
 21
440.6343549942
 31
0.0
  0
LINE
  5
206
330
1F
100
AcDbEntity
  8
0
  6
Continuous
 62
     8
370
    15
100
AcDbLine
 10
482.1920262015
 20
498.1343549942
 30
0.0
 11
642.1920262015
 21
498.1343549942
 31
0.0
  0
LINE
  5
207
330
1F
100
AcDbEntity
  8
0
  6
Continuous
 62
     8
370
    15
100
AcDbLine
 10
642.1920262015
 20
508.1343549942
 30
0.0
 11
482.1920262015
 21
508.1343549942
 31
0.0
  0
LINE
  5
208
330
1F
100
AcDbEntity
  8
0
  6
Continuous
 62
     8
370
    15
100
AcDbLine
 10
492.1920262015
 20
493.1343549942
 30
0.0
 11
494.9082199578
 21
493.1343549942
 31
0.0
  0
LINE
  5
209
330
1F
100
AcDbEntity
  8
0
  6
Continuous
 62
     8
370
    15
100
AcDbLine
 10
629.4758324452
 20
493.1343549942
 30
0.0
 11
632.1920262015
 21
493.1343549942
 31
0.0
  0
LINE
  5
20A
330
1F
100
AcDbEntity
  8
0
  6
Continuous
 62
     8
370
    15
100
AcDbLine
 10
492.1920262015
 20
422.6343549942
 30
0.0
 11
632.1920262015
 21
422.6343549942
 31
0.0
  0
LINE
  5
20B
330
1F
100
AcDbEntity
  8
0
  6
Continuous
 62
     8
370
    15
100
AcDbLine
 10
632.1920262015
 20
428.1343549942
 30
0.0
 11
629.4758324452
 21
428.1343549942
 31
0.0
  0
LINE
  5
20C
330
1F
100
AcDbEntity
  8
0
  6
Continuous
 62
     8
370
    15
100
AcDbLine
 10
494.9082199578
 20
428.1343549942
 30
0.0
 11
492.1920262015
 21
428.1343549942
 31
0.0
  0
LINE
  5
20D
330
1F
100
AcDbEntity
  8
0
  6
Continuous
 62
     7
370
    15
100
AcDbLine
 10
155.3854583246
 20
267.7743254922
 30
0.0
 11
149.3854583246
 21
271.2384271073
 31
0.0
  0
LINE
  5
20E
330
1F
100
AcDbEntity
  8
0
  6
Continuous
 62
     7
370
    15
100
AcDbLine
 10
155.3854583246
 20
260.8461222619
 30
0.0
 11
155.3854583246
 21
267.7743254922
 31
0.0
  0
LINE
  5
20F
330
1F
100
AcDbEntity
  8
0
  6
Continuous
 62
     7
370
    15
100
AcDbLine
 10
149.3854583246
 20
257.3820206467
 30
0.0
 11
155.3854583246
 21
260.8461222619
 31
0.0
  0
LINE
  5
210
330
1F
100
AcDbEntity
  8
0
  6
Continuous
 62
     7
370
    15
100
AcDbLine
 10
143.3854583246
 20
260.8461222619
 30
0.0
 11
149.3854583246
 21
257.3820206467
 31
0.0
  0
LINE
  5
211
330
1F
100
AcDbEntity
  8
0
  6
Continuous
 62
     7
370
    15
100
AcDbLine
 10
143.3854583246
 20
267.7743254922
 30
0.0
 11
143.3854583246
 21
260.8461222619
 31
0.0
  0
LINE
  5
212
330
1F
100
AcDbEntity
  8
0
  6
Continuous
 62
     7
370
    15
100
AcDbLine
 10
149.3854583246
 20
271.2384271073
 30
0.0
 11
143.3854583246
 21
267.7743254922
 31
0.0
  0
LINE
  5
213
330
1F
100
AcDbEntity
  8
0
  6
Continuous
 62
     7
370
    15
100
AcDbLine
 10
222.8854583246
 20
260.8461222619
 30
0.0
 11
222.8854583246
 21
267.7743254922
 31
0.0
  0
LINE
  5
214
330
1F
100
AcDbEntity
  8
0
  6
Continuous
 62
     7
370
    15
100
AcDbLine
 10
216.8854583246
 20
257.3820206467
 30
0.0
 11
222.8854583246
 21
260.8461222619
 31
0.0
  0
LINE
  5
215
330
1F
100
AcDbEntity
  8
0
  6
Continuous
 62
     7
370
    15
100
AcDbLine
 10
210.8854583246
 20
260.8461222619
 30
0.0
 11
216.8854583246
 21
257.3820206467
 31
0.0
  0
LINE
  5
216
330
1F
100
AcDbEntity
  8
0
  6
Continuous
 62
     7
370
    15
100
AcDbLine
 10
210.8854583246
 20
267.7743254922
 30
0.0
 11
210.8854583246
 21
260.8461222619
 31
0.0
  0
LINE
  5
217
330
1F
100
AcDbEntity
  8
0
  6
Continuous
 62
     7
370
    15
100
AcDbLine
 10
216.8854583246
 20
271.2384271073
 30
0.0
 11
210.8854583246
 21
267.7743254922
 31
0.0
  0
LINE
  5
218
330
1F
100
AcDbEntity
  8
0
  6
Continuous
 62
     7
370
    15
100
AcDbLine
 10
222.8854583246
 20
267.7743254922
 30
0.0
 11
216.8854583246
 21
271.2384271073
 31
0.0
  0
LINE
  5
219
330
1F
100
AcDbEntity
  8
0
  6
Continuous
 62
     7
370
    15
100
AcDbLine
 10
121.6354583246
 20
202.3894075064
 30
0.0
 11
121.6354583246
 21
209.3176107367
 31
0.0
  0
LINE
  5
21A
330
1F
100
AcDbEntity
  8
0
  6
Continuous
 62
     7
370
    15
100
AcDbLine
 10
115.6354583246
 20
198.9253058913
 30
0.0
 11
121.6354583246
 21
202.3894075064
 31
0.0
  0
LINE
  5
21B
330
1F
100
AcDbEntity
  8
0
  6
Continuous
 62
     7
370
    15
100
AcDbLine
 10
109.6354583246
 20
202.3894075064
 30
0.0
 11
115.6354583246
 21
198.9253058913
 31
0.0
  0
LINE
  5
21C
330
1F
100
AcDbEntity
  8
0
  6
Continuous
 62
     7
370
    15
100
AcDbLine
 10
109.6354583246
 20
209.3176107367
 30
0.0
 11
109.6354583246
 21
202.3894075064
 31
0.0
  0
LINE
  5
21D
330
1F
100
AcDbEntity
  8
0
  6
Continuous
 62
     7
370
    15
100
AcDbLine
 10
115.6354583246
 20
212.7817123518
 30
0.0
 11
109.6354583246
 21
209.3176107367
 31
0.0
  0
LINE
  5
21E
330
1F
100
AcDbEntity
  8
0
  6
Continuous
 62
     7
370
    15
100
AcDbLine
 10
121.6354583246
 20
209.3176107367
 30
0.0
 11
115.6354583246
 21
212.7817123518
 31
0.0
  0
LINE
  5
21F
330
1F
100
AcDbEntity
  8
0
  6
Continuous
 62
     7
370
    15
100
AcDbLine
 10
250.6354583246
 20
198.9253058913
 30
0.0
 11
256.6354583246
 21
202.3894075064
 31
0.0
  0
LINE
  5
220
330
1F
100
AcDbEntity
  8
0
  6
Continuous
 62
     7
370
    15
100
AcDbLine
 10
244.6354583246
 20
202.3894075064
 30
0.0
 11
250.6354583246
 21
198.9253058913
 31
0.0
  0
LINE
  5
221
330
1F
100
AcDbEntity
  8
0
  6
Continuous
 62
     7
370
    15
100
AcDbLine
 10
244.6354583246
 20
209.3176107367
 30
0.0
 11
244.6354583246
 21
202.3894075064
 31
0.0
  0
LINE
  5
222
330
1F
100
AcDbEntity
  8
0
  6
Continuous
 62
     7
370
    15
100
AcDbLine
 10
256.6354583246
 20
202.3894075064
 30
0.0
 11
256.6354583246
 21
209.3176107367
 31
0.0
  0
LINE
  5
223
330
1F
100
AcDbEntity
  8
0
  6
Continuous
 62
     7
370
    15
100
AcDbLine
 10
250.6354583246
 20
212.7817123518
 30
0.0
 11
244.6354583246
 21
209.3176107367
 31
0.0
  0
LINE
  5
224
330
1F
100
AcDbEntity
  8
0
  6
Continuous
 62
     7
370
    15
100
AcDbLine
 10
256.6354583246
 20
209.3176107367
 30
0.0
 11
250.6354583246
 21
212.7817123518
 31
0.0
  0
LINE
  5
225
330
1F
100
AcDbEntity
  8
0
  6
Continuous
 62
     7
370
    15
100
AcDbLine
 10
210.8854583246
 20
143.932692751
 30
0.0
 11
216.8854583246
 21
140.4685911358
 31
0.0
  0
LINE
  5
226
330
1F
100
AcDbEntity
  8
0
  6
Continuous
 62
     7
370
    15
100
AcDbLine
 10
210.8854583246
 20
150.8608959813
 30
0.0
 11
210.8854583246
 21
143.932692751
 31
0.0
  0
LINE
  5
227
330
1F
100
AcDbEntity
  8
0
  6
Continuous
 62
     7
370
    15
100
AcDbLine
 10
216.8854583246
 20
154.3249975964
 30
0.0
 11
210.8854583246
 21
150.8608959813
 31
0.0
  0
LINE
  5
228
330
1F
100
AcDbEntity
  8
0
  6
Continuous
 62
     7
370
    15
100
AcDbLine
 10
222.8854583246
 20
150.8608959813
 30
0.0
 11
216.8854583246
 21
154.3249975964
 31
0.0
  0
LINE
  5
229
330
1F
100
AcDbEntity
  8
0
  6
Continuous
 62
     7
370
    15
100
AcDbLine
 10
222.8854583246
 20
143.932692751
 30
0.0
 11
222.8854583246
 21
150.8608959813
 31
0.0
  0
LINE
  5
22A
330
1F
100
AcDbEntity
  8
0
  6
Continuous
 62
     7
370
    15
100
AcDbLine
 10
216.8854583246
 20
140.4685911358
 30
0.0
 11
222.8854583246
 21
143.932692751
 31
0.0
  0
LINE
  5
22B
330
1F
100
AcDbEntity
  8
0
  6
Continuous
 62
     7
370
    15
100
AcDbLine
 10
143.3854583246
 20
150.8608959813
 30
0.0
 11
143.3854583246
 21
143.932692751
 31
0.0
  0
LINE
  5
22C
330
1F
100
AcDbEntity
  8
0
  6
Continuous
 62
     7
370
    15
100
AcDbLine
 10
149.3854583246
 20
154.3249975964
 30
0.0
 11
143.3854583246
 21
150.8608959813
 31
0.0
  0
LINE
  5
22D
330
1F
100
AcDbEntity
  8
0
  6
Continuous
 62
     7
370
    15
100
AcDbLine
 10
155.3854583246
 20
150.8608959813
 30
0.0
 11
149.3854583246
 21
154.3249975964
 31
0.0
  0
LINE
  5
22E
330
1F
100
AcDbEntity
  8
0
  6
Continuous
 62
     7
370
    15
100
AcDbLine
 10
155.3854583246
 20
143.932692751
 30
0.0
 11
155.3854583246
 21
150.8608959813
 31
0.0
  0
LINE
  5
22F
330
1F
100
AcDbEntity
  8
0
  6
Continuous
 62
     7
370
    15
100
AcDbLine
 10
149.3854583246
 20
140.4685911358
 30
0.0
 11
155.3854583246
 21
143.932692751
 31
0.0
  0
LINE
  5
230
330
1F
100
AcDbEntity
  8
0
  6
Continuous
 62
     7
370
    15
100
AcDbLine
 10
143.3854583246
 20
143.932692751
 30
0.0
 11
149.3854583246
 21
140.4685911358
 31
0.0
  0
CIRCLE
  5
231
330
1F
100
AcDbEntity
  8
0
  6
Continuous
 62
     7
370
    15
100
AcDbCircle
 10
183.1354583246
 20
205.8535091216
 30
0.0
 40
77.49999999999997
  0
CIRCLE
  5
232
330
1F
100
AcDbEntity
  8
0
  6
Continuous
 62
     7
370
    15
100
AcDbCircle
 10
183.1354583246
 20
205.8535091216
 30
0.0
 40
79.99999999999999
  0
LINE
  5
233
330
1F
100
AcDbEntity
  8
0
  6
Continuous
 62
     7
370
    15
100
AcDbLine
 10
203.1354583246
 20
285.8535091216
 30
0.0
 11
213.1354583246
 21
285.8535091216
 31
0.0
  0
LINE
  5
234
330
1F
100
AcDbEntity
  8
0
  6
Continuous
 62
     7
370
    15
100
AcDbLine
 10
213.1354583246
 20
285.8535091216
 30
0.0
 11
213.1354583246
 21
280.0154939925
 31
0.0
  0
LINE
  5
235
330
1F
100
AcDbEntity
  8
0
  6
Continuous
 62
     7
370
    15
100
AcDbLine
 10
203.1354583246
 20
285.8535091216
 30
0.0
 11
163.1354583246
 21
285.8535091216
 31
0.0
  0
LINE
  5
236
330
1F
100
AcDbEntity
  8
0
  6
Continuous
 62
     7
370
    15
100
AcDbLine
 10
153.1354583246
 20
280.0154939925
 30
0.0
 11
153.1354583246
 21
285.8535091216
 31
0.0
  0
LINE
  5
237
330
1F
100
AcDbEntity
  8
0
  6
Continuous
 62
     7
370
    15
100
AcDbLine
 10
153.1354583246
 20
285.8535091216
 30
0.0
 11
163.1354583246
 21
285.8535091216
 31
0.0
  0
LINE
  5
238
330
1F
100
AcDbEntity
  8
0
  6
Continuous
 62
     7
370
    15
100
AcDbLine
 10
213.1354583246
 20
125.8535091216
 30
0.0
 11
203.1354583246
 21
125.8535091216
 31
0.0
  0
LINE
  5
239
330
1F
100
AcDbEntity
  8
0
  6
Continuous
 62
     7
370
    15
100
AcDbLine
 10
213.1354583246
 20
131.6915242506
 30
0.0
 11
213.1354583246
 21
125.8535091216
 31
0.0
  0
LINE
  5
23A
330
1F
100
AcDbEntity
  8
0
  6
Continuous
 62
     7
370
    15
100
AcDbLine
 10
163.1354583246
 20
125.8535091216
 30
0.0
 11
153.1354583246
 21
125.8535091216
 31
0.0
  0
LINE
  5
23B
330
1F
100
AcDbEntity
  8
0
  6
Continuous
 62
     7
370
    15
100
AcDbLine
 10
153.1354583246
 20
125.8535091216
 30
0.0
 11
153.1354583246
 21
131.6915242506
 31
0.0
  0
LINE
  5
23C
330
1F
100
AcDbEntity
  8
0
  6
Continuous
 62
     7
370
    15
100
AcDbLine
 10
203.1354583246
 20
125.8535091216
 30
0.0
 11
163.1354583246
 21
125.8535091216
 31
0.0
  0
LINE
  5
23D
330
1F
100
AcDbEntity
  8
0
  6
Continuous
 62
     8
370
    15
100
AcDbLine
 10
203.1354583246
 20
283.3131760457
 30
0.0
 11
203.1354583246
 21
285.8535091216
 31
0.0
  0
LINE
  5
23E
330
1F
100
AcDbEntity
  8
0
  6
Continuous
 62
     8
370
    15
100
AcDbLine
 10
163.1354583246
 20
285.8535091216
 30
0.0
 11
163.1354583246
 21
283.3131760457
 31
0.0
  0
LINE
  5
23F
330
1F
100
AcDbEntity
  8
0
  6
Continuous
 62
     8
370
    15
100
AcDbLine
 10
203.1354583246
 20
125.8535091216
 30
0.0
 11
203.1354583246
 21
128.3938421974
 31
0.0
  0
LINE
  5
240
330
1F
100
AcDbEntity
  8
0
  6
Continuous
 62
     8
370
    15
100
AcDbLine
 10
163.1354583246
 20
128.3938421974
 30
0.0
 11
163.1354583246
 21
125.8535091216
 31
0.0
  0
SPLINE
  5
241
330
1F
100
AcDbEntity
  8
0
  6
Continuous
 62
     7
370
    15
100
AcDbSpline
210
0.0
220
0.0
230
1.0
 70
     8
 71
     3
 72
    78
 73
    74
 74
     0
 42
0.000000001
 43
0.00000001
 40
0.0
 40
0.0
 40
0.0
 40
0.0
 40
0.0011561159427855
 40
0.0152577208053719
 40
0.0293722156410205
 40
0.0435124177131952
 40
0.0576889736772144
 40
0.0719096621968338
 40
0.0861790479334954
 40
0.1004985020075198
 40
0.1148665466723753
 40
0.1292794348396816
 40
0.1437318493000531
 40
0.1582176073259131
 40
0.1727302803228394
 40
0.1872636748522964
 40
0.2018121584283302
 40
0.2163708419701568
 40
0.2309356470923879
 40
0.2455032916208709
 40
0.2600706921922543
 40
0.2746359594241048
 40
0.2891978815166509
 40
0.3037556590196477
 40
0.3183088210306428
 40
0.3328571536824938
 40
0.3474006409654652
 40
0.3619394169060565
 40
0.3764737276661759
 40
0.3910039020049065
 40
0.4055303286115136
 40
0.4200534389756243
 40
0.4345736946500247
 40
0.4490915779500435
 40
0.4636075853042128
 40
0.4781222226163971
 40
0.4926360021181359
 40
0.5071494402822866
 40
0.5216630564371076
 40
0.5361771998088528
 40
0.5506923913275698
 40
0.5652091536486432
 40
0.5797280082823997
 40
0.5942494735061045
 40
0.6087740612063881
 40
0.6233022722147772
 40
0.637834589603358
 40
0.6523714692843937
 40
0.6669133271056831
 40
0.6814605214537275
 40
0.6960133301756067
 40
0.7105719204230757
 40
0.7251363098402919
 40
0.7397063174157009
 40
0.7542815023938584
 40
0.7688610900423082
 40
0.7834438840105924
 40
0.7980280076465829
 40
0.8126103430487308
 40
0.8271875510754988
 40
0.841755451192994
 40
0.856308992986311
 40
0.8708423102011816
 40
0.8853488940287884
 40
0.8998219188109599
 40
0.9142547373058955
 40
0.9286415320277447
 40
0.9429780668966525
 40
0.9572624396187239
 40
0.9714957053485073
 40
0.9856822408459455
 40
0.9998297512384574
 40
1.0
 40
1.0
 40
1.0
 40
1.0
 10
678.452093011937
 20
229.6610290180355
 30
0.0
 10
678.4492246190171
 20
229.7180581514433
 30
0.0
 10
678.4113692995696
 20
230.4706942522937
 30
0.0
 10
678.1944916124125
 20
231.9143988464511
 30
0.0
 10
677.7906961978499
 20
233.9861743737662
 30
0.0
 10
677.2180641774747
 20
236.0439445243265
 30
0.0
 10
676.4982785181232
 20
238.0849737615308
 30
0.0
 10
675.6265460840633
 20
240.1055604108703
 30
0.0
 10
674.6054697283788
 20
242.1020429537831
 30
0.0
 10
673.4360643387876
 20
244.0705227003326
 30
0.0
 10
672.1202779222841
 20
246.0069778350471
 30
0.0
 10
670.6603798355857
 20
247.907306913374
 30
0.0
 10
669.0591494249225
 20
249.7674096818047
 30
0.0
 10
667.3198087163184
 20
251.5832590787894
 30
0.0
 10
665.4459935333654
 20
253.3509630525984
 30
0.0
 10
663.4416968730909
 20
255.0668083621578
 30
0.0
 10
661.3112149030014
 20
256.7272861343685
 30
0.0
 10
659.05909692759
 20
258.329101491861
 30
0.0
 10
656.6901045394783
 20
259.8691714942837
 30
0.0
 10
654.2092107318725
 20
261.344597913303
 30
0.0
 10
651.6215522052639
 20
262.7526769732614
 30
0.0
 10
648.9324048918796
 20
264.0908906656219
 30
0.0
 10
646.1471379701006
 20
265.3569068913503
 30
0.0
 10
643.2712397178728
 20
266.5485491827866
 30
0.0
 10
640.3103236711847
 20
267.6637848051448
 30
0.0
 10
637.2701249147472
 20
268.7007207396819
 30
0.0
 10
634.156495987374
 20
269.6576016579071
 30
0.0
 10
630.975402021334
 20
270.5328094617472
 30
0.0
 10
627.7329149268469
 20
271.3248639798255
 30
0.0
 10
624.4352065625264
 20
272.0324244564853
 30
0.0
 10
621.0885409152955
 20
272.6542915278583
 30
0.0
 10
617.6992653623366
 20
273.1894094370562
 30
0.0
 10
614.2738011138463
 20
273.636868292813
 30
0.0
 10
610.8186329468789
 20
273.9959062203922
 30
0.0
 10
607.3402983431549
 20
274.2659112900139
 30
0.0
 10
603.845376141674
 20
274.4464231371479
 30
0.0
 10
600.3404748118089
 20
274.5371342118371
 30
0.0
 10
596.8322204503104
 20
274.5378906122509
 30
0.0
 10
593.3272584332988
 20
274.4486928234102
 30
0.0
 10
589.8322272378439
 20
274.2696968874498
 30
0.0
 10
586.3537456349735
 20
274.0012138315941
 30
0.0
 10
582.8983867125967
 20
273.6437066543813
 30
0.0
 10
579.4726795818925
 20
273.1977891220678
 30
0.0
 10
576.0830977562458
 20
272.6642237807312
 30
0.0
 10
572.7360477837118
 20
272.0439195321758
 30
0.0
 10
569.4378583647286
 20
271.3379288234165
 30
0.0
 10
566.1947700729631
 20
270.5474445140549
 30
0.0
 10
563.0129258059881
 20
269.6737965129206
 30
0.0
 10
559.898362098906
 20
268.7184483107824
 30
0.0
 10
556.857001436567
 20
267.6829935817719
 30
0.0
 10
553.8946456943268
 20
266.5691530843416
 30
0.0
 10
551.0169708173391
 20
265.3787721644167
 30
0.0
 10
548.2295228054102
 20
264.1138192486954
 30
0.0
 10
545.5377149922659
 20
262.776385811437
 30
0.0
 10
542.946826479279
 20
261.3686883948293
 30
0.0
 10
540.4620013849313
 20
259.8930733427351
 30
0.0
 10
538.0882569224532
 20
258.352030546883
 30
0.0
 10
535.8305113372602
 20
256.7482293471399
 30
0.0
 10
533.6935433157432
 20
255.0845213808841
 30
0.0
 10
531.6819729217004
 20
253.3639567966492
 30
0.0
 10
529.8002200999414
 20
251.5897825153806
 30
0.0
 10
528.0525041850119
 20
249.765484665612
 30
0.0
 10
526.4428048014454
 20
247.8948065636312
 30
0.0
 10
524.9748054440486
 20
245.9817566929169
 30
0.0
 10
523.6518457569796
 20
244.030599659069
 30
0.0
 10
522.4768004284938
 20
242.0458269639833
 30
0.0
 10
521.4522213790879
 20
240.0320950175231
 30
0.0
 10
520.5795401811205
 20
237.9941672491832
 30
0.0
 10
519.8618545775387
 20
235.936736841027
 30
0.0
 10
519.2935561797577
 20
233.8646293668783
 30
0.0
 10
518.8989916161794
 20
231.7815960112509
 30
0.0
 10
518.6909619086474
 20
230.3802043645312
 30
0.0
 10
518.6575104618133
 20
229.6739023308949
 30
0.0
 10
518.6571126993329
 20
229.6655038765552
 30
0.0
  0
LINE
  5
242
330
1F
100
AcDbEntity
  8
0
  6
Continuous
 62
     7
370
    15
100
AcDbLine
 10
518.5568546423
 20
227.2939703771
 30
0.0
 11
518.5568546423
 21
224.0278071296
 31
0.0
  0
LINE
  5
243
330
1F
100
AcDbEntity
  8
0
  6
Continuous
 62
     7
370
    15
100
AcDbLine
 10
678.5568546423
 20
224.0278071296
 30
0.0
 11
678.5568546423
 21
227.2939703771
 31
0.0
  0
LINE
  5
244
330
1F
100
AcDbEntity
  8
0
  6
Continuous
 62
     7
370
    15
100
AcDbLine
 10
541.9791204091
 20
191.3767897966
 30
0.0
 11
542.686342087
 21
190.9683867014
 31
0.0
  0
LINE
  5
245
330
1F
100
AcDbEntity
  8
0
  6
Continuous
 62
     7
370
    15
100
AcDbLine
 10
654.4273671976
 20
190.9683867014
 30
0.0
 11
655.1345888755
 21
191.3767897966
 31
0.0
  0
LINE
  5
246
330
1F
100
AcDbEntity
  8
0
  6
Continuous
 62
     7
370
    15
100
AcDbLine
 10
518.5568546423
 20
222.3947255058
 30
0.0
 11
518.5568546423
 21
219.1285622583
 31
0.0
  0
LINE
  5
247
330
1F
100
AcDbEntity
  8
0
  6
Continuous
 62
     7
370
    15
100
AcDbLine
 10
678.5568546423
 20
219.1285622583
 30
0.0
 11
678.5568546423
 21
222.3947255058
 31
0.0
  0
SPLINE
  5
248
330
1F
100
AcDbEntity
  8
0
  6
Continuous
 62
     7
370
    15
100
AcDbSpline
210
0.0
220
0.0
230
1.0
 70
     8
 71
     3
 72
    25
 73
    21
 74
     0
 42
0.000000001
 43
0.00000001
 40
0.0
 40
0.0
 40
0.0
 40
0.0
 40
0.0414904480778653
 40
0.099536376006717
 40
0.1576697590868767
 40
0.2159380458104646
 40
0.2743777706687841
 40
0.3330125854669672
 40
0.391852803936833
 40
0.4508963691275749
 40
0.5101309382882498
 40
0.5695366377401918
 40
0.629089003611038
 40
0.6887616922323727
 40
0.7485286818366328
 40
0.8083658444451002
 40
0.8682518997822973
 40
0.9281688486359655
 40
0.9849861240922579
 40
1.0
 40
1.0
 40
1.0
 40
1.0
 10
518.6720783611598
 20
216.754593276011
 30
0.0
 10
518.7151485121362
 20
216.2576737068529
 30
0.0
 10
518.8184746255158
 20
215.0655541860419
 30
0.0
 10
519.1601267149698
 20
213.1875996924113
 30
0.0
 10
519.6696881040964
 20
211.1242463972966
 30
0.0
 10
520.3366012585813
 20
209.0767667787985
 30
0.0
 10
521.1531198895393
 20
207.0483276495623
 30
0.0
 10
522.1201299538803
 20
205.0426512373761
 30
0.0
 10
523.2358369230834
 20
203.063539955431
 30
0.0
 10
524.498696342369
 20
201.1149807166891
 30
0.0
 10
525.9065431405536
 20
199.201053452052
 30
0.0
 10
527.4567869885751
 20
197.3258682157059
 30
0.0
 10
529.1463601684245
 20
195.4934855230037
 30
0.0
 10
530.9717772275491
 20
193.707856171739
 30
0.0
 10
532.929147651171
 20
191.9727486649829
 30
0.0
 10
535.0143568064891
 20
190.2917987423667
 30
0.0
 10
537.2226523292126
 20
188.6681895728449
 30
0.0
 10
539.5100738610917
 20
187.132874674014
 30
0.0
 10
541.2947845454672
 20
186.0318493799686
 30
0.0
 10
542.2967530192103
 20
185.4493728194995
 30
0.0
 10
542.5061806845418
 20
185.3276257692019
 30
0.0
  0
SPLINE
  5
249
330
1F
100
AcDbEntity
  8
0
  6
Continuous
 62
     7
370
    15
100
AcDbSpline
210
0.0
220
0.0
230
1.0
 70
     8
 71
     3
 72
    60
 73
    56
 74
     0
 42
0.000000001
 43
0.00000001
 40
0.0
 40
0.0
 40
0.0
 40
0.0
 40
0.0101606856289227
 40
0.0294043840246419
 40
0.0486438720525306
 40
0.0678785006523368
 40
0.0871073833592138
 40
0.1063300314912564
 40
0.1255462656820037
 40
0.144756143348531
 40
0.1639599005141889
 40
0.1831579059908589
 40
0.2023506258741105
 40
0.2215385964476961
 40
0.2407224038239936
 40
0.2599026689005128
 40
0.2790800364549501
 40
0.2982551674152215
 40
0.3174287335203351
 40
0.3366014137316795
 40
0.3557738918643547
 40
0.3749467736840374
 40
0.3941206005729836
 40
0.4132960629132327
 40
0.4324738508419989
 40
0.4516546521130087
 40
0.4708391488853942
 40
0.4900280129021157
 40
0.5092218984384904
 40
0.528421432261995
 40
0.547627199667928
 40
0.5668397254411185
 40
0.5860594483445172
 40
0.6052866874637655
 40
0.624521598468625
 40
0.6437641176398501
 40
0.6630138914435496
 40
0.6822701896629587
 40
0.7015318008467533
 40
0.7207969104289373
 40
0.7400623449015342
 40
0.7593239379361958
 40
0.7785768840161711
 40
0.7978152428193537
 40
0.8170319357288808
 40
0.8362188687716751
 40
0.855367230310351
 40
0.874468001758426
 40
0.8935126914799161
 40
0.9124942550570248
 40
0.9314081064888935
 40
0.950253071162546
 40
0.9690321038504341
 40
0.9877526096507978
 40
1.0
 40
1.0
 40
1.0
 40
1.0
 10
542.5061806845418
 20
185.3276257692019
 30
0.0
 10
542.9521120616092
 20
185.0738128650807
 30
0.0
 10
544.2426093704325
 20
184.3392943123223
 30
0.0
 10
546.4583778375414
 20
183.1761399073183
 30
0.0
 10
549.1819306770288
 20
181.8631652795812
 30
0.0
 10
552.0010727264834
 20
180.6241097110912
 30
0.0
 10
554.9084240647979
 20
179.4599424813921
 30
0.0
 10
557.8988302850323
 20
178.372949906628
 30
0.0
 10
560.9663782217372
 20
177.3648932467863
 30
0.0
 10
564.1052099598506
 20
176.4374998542077
 30
0.0
 10
567.3093111795666
 20
175.5923320037004
 30
0.0
 10
570.572575414566
 20
174.830820997421
 30
0.0
 10
573.8887956934898
 20
174.1542560587494
 30
0.0
 10
577.2516768692566
 20
173.5637847632366
 30
0.0
 10
580.6548435512736
 20
173.0604101126842
 30
0.0
 10
584.0918502320369
 20
172.644988480979
 30
0.0
 10
587.5561917027626
 20
172.3182274839924
 30
0.0
 10
591.0413141258532
 20
172.0806841674631
 30
0.0
 10
594.5406265264173
 20
171.932763511746
 30
0.0
 10
598.0475126324731
 20
171.8747173300666
 30
0.0
 10
601.555337998086
 20
171.9066435490328
 30
0.0
 10
605.0574582293945
 20
172.0284851497796
 30
0.0
 10
608.5472405620264
 20
172.2400297015515
 30
0.0
 10
612.0180813482641
 20
172.5409107367787
 30
0.0
 10
615.4634221713642
 20
172.9306102948026
 30
0.0
 10
618.8767527746039
 20
173.4084603137243
 30
0.0
 10
622.2516226770343
 20
173.9736447845044
 30
0.0
 10
625.5816523779546
 20
174.6252023214391
 30
0.0
 10
628.8605440342521
 20
175.3620290983784
 30
0.0
 10
632.0820914894948
 20
176.1828820773888
 30
0.0
 10
635.2401895254553
 20
177.0863824266921
 30
0.0
 10
638.3288422013786
 20
178.0710189857352
 30
0.0
 10
641.342170146204
 20
179.1351515851338
 30
0.0
 10
644.2744166789965
 20
180.2770139661895
 30
0.0
 10
647.1199526599684
 20
181.4947159677987
 30
0.0
 10
649.8732800286909
 20
182.7862445590392
 30
0.0
 10
652.5290340804468
 20
184.1494631982672
 30
0.0
 10
655.0819846845185
 20
185.5821089069046
 30
0.0
 10
657.5270368728936
 20
187.0817863766861
 30
0.0
 10
659.8592065498718
 20
188.6459416588917
 30
0.0
 10
662.0736251610567
 20
190.2718416187614
 30
0.0
 10
664.1655674515814
 20
191.9565629547959
 30
0.0
 10
666.1304854988442
 20
193.696987814039
 30
0.0
 10
667.9640283887117
 20
195.4897848604142
 30
0.0
 10
669.6620584599416
 20
197.3313762340323
 30
0.0
 10
671.2206973097426
 20
199.2179224624418
 30
0.0
 10
672.6363775022934
 20
201.1453200502424
 30
0.0
 10
673.9059252683671
 20
203.1092168266141
 30
0.0
 10
675.0265595679457
 20
205.1050546262698
 30
0.0
 10
675.9961956884654
 20
207.1281239270912
 30
0.0
 10
676.8125595099491
 20
209.1736898502526
 30
0.0
 10
677.4766023298514
 20
211.2369456862787
 30
0.0
 10
677.9797893829864
 20
213.3136488171634
 30
0.0
 10
678.3086128753353
 20
215.1597207246814
 30
0.0
 10
678.4036978317151
 20
216.3150719836408
 30
0.0
 10
678.441302665169
 20
216.7719980140879
 30
0.0
  0
LINE
  5
24A
330
1F
100
AcDbEntity
  8
0
  6
Continuous
 62
     7
370
    15
100
AcDbLine
 10
528.5568546423
 20
196.1651400961
 30
0.0
 11
528.5568546423
 21
192.3038130517
 31
0.0
  0
LINE
  5
24B
330
1F
100
AcDbEntity
  8
0
  6
Continuous
 62
     7
370
    15
100
AcDbLine
 10
668.5568546423
 20
157.4797309609
 30
0.0
 11
668.5568546423
 21
196.1653783073
 31
0.0
  0
SPLINE
  5
24C
330
1F
100
AcDbEntity
  8
0
  6
Continuous
 62
     7
370
    15
100
AcDbSpline
210
0.0
220
0.0
230
1.0
 70
     8
 71
     3
 72
    15
 73
    11
 74
     0
 42
0.000000001
 43
0.00000001
 40
0.0
 40
0.0
 40
0.0
 40
0.0
 40
0.0912580939294139
 40
0.2340694233631246
 40
0.3786769514296309
 40
0.5248847903958113
 40
0.6724414591074902
 40
0.8210632353176406
 40
0.9639606999579006
 40
1.0
 40
1.0
 40
1.0
 40
1.0
 10
537.7553126483647
 20
133.7993915791275
 30
0.0
 10
538.110216008731
 20
133.3806014628871
 30
0.0
 10
539.0205136199748
 20
132.3064396346287
 30
0.0
 10
540.6315114808668
 20
130.6601565429549
 30
0.0
 10
542.5745722260154
 20
128.8460826697549
 30
0.0
 10
544.6581835318041
 20
127.1009765589471
 30
0.0
 10
546.8700166955268
 20
125.4259170080619
 30
0.0
 10
549.1719809138876
 20
123.8515174222873
 30
0.0
 10
550.9610588669293
 20
122.7390384497075
 30
0.0
 10
551.9644917491084
 20
122.1553370875352
 30
0.0
 10
552.1665911822638
 20
122.0377749500748
 30
0.0
  0
SPLINE
  5
24D
330
1F
100
AcDbEntity
  8
0
  6
Continuous
 62
     7
370
    15
100
AcDbSpline
210
0.0
220
0.0
230
1.0
 70
     8
 71
     3
 72
    56
 73
    52
 74
     0
 42
0.000000001
 43
0.00000001
 40
0.0
 40
0.0
 40
0.0
 40
0.0
 40
0.0117627759875315
 40
0.0331733510092834
 40
0.0545670785250055
 40
0.0759473734500381
 40
0.0972994600631641
 40
0.1186139306401843
 40
0.1398857310684764
 40
0.1611132224625774
 40
0.182297355654318
 40
0.2034409917748058
 40
0.2245483688844282
 40
0.2456246980581188
 40
0.2666758662907175
 40
0.287708223267285
 40
0.3087284313072622
 40
0.3297433608150281
 40
0.3507600163976278
 40
0.3717836807682905
 40
0.3928209183661504
 40
0.4138788433836054
 40
0.4349645006319911
 40
0.4560847797645612
 40
0.477246291812742
 40
0.498455190866467
 40
0.5197169201652153
 40
0.5410358580118377
 40
0.5624148359925963
 40
0.5838545021894621
 40
0.6053525092545183
 40
0.6269025273432537
 40
0.6484931227735204
 40
0.6701056236132299
 40
0.6917060954154871
 40
0.7132595420928525
 40
0.7347242431358533
 40
0.7560538938345313
 40
0.7772010698381263
 40
0.7981215568311968
 40
0.8187787182019045
 40
0.8391469670478836
 40
0.8592136770123479
 40
0.8789793733448328
 40
0.8984565246169606
 40
0.9176675076744616
 40
0.9366423163128161
 40
0.9554164253850618
 40
0.9740290250259626
 40
0.9925216788252158
 40
1.0
 40
1.0
 40
1.0
 40
1.0
 10
552.1665911822638
 20
122.0377749500748
 30
0.0
 10
552.6340576074546
 20
121.7723977574552
 30
0.0
 10
553.9524052342686
 20
121.0239816718339
 30
0.0
 10
556.1968648716988
 20
119.8645617484002
 30
0.0
 10
558.9222495614491
 20
118.5878441989959
 30
0.0
 10
561.7316462885142
 20
117.4057736283631
 30
0.0
 10
564.6166333784051
 20
116.3176229178206
 30
0.0
 10
567.5703392057732
 20
115.3247668861693
 30
0.0
 10
570.5856025322079
 20
114.427752773714
 30
0.0
 10
573.6556807782653
 20
113.6270740360147
 30
0.0
 10
576.7739899487381
 20
112.9230531720029
 30
0.0
 10
579.9341056973132
 20
112.3159357717283
 30
0.0
 10
583.1297038048771
 20
111.8059063662229
 30
0.0
 10
586.3545290779498
 20
111.3931089050808
 30
0.0
 10
589.6023691952498
 20
111.077654771675
 30
0.0
 10
592.867038581989
 20
110.85962704928
 30
0.0
 10
596.1423690773585
 20
110.7390819019802
 30
0.0
 10
599.4222061328686
 20
110.7160491719115
 30
0.0
 10
602.7003152216494
 20
110.7905311291849
 30
0.0
 10
605.9704502284471
 20
110.9624924957626
 30
0.0
 10
609.2263895642
 20
111.2318616692811
 30
0.0
 10
612.4620332346364
 20
111.5985506799306
 30
0.0
 10
615.6713381152043
 20
112.0624651445793
 30
0.0
 10
618.8482854677482
 20
112.6235102737079
 30
0.0
 10
621.9868718068067
 20
113.2815982765996
 30
0.0
 10
625.0810922797368
 20
114.0366541069754
 30
0.0
 10
628.1249144964399
 20
114.8886172451312
 30
0.0
 10
631.1122408255252
 20
115.8374362359423
 30
0.0
 10
634.0368576218159
 20
116.8830515211619
 30
0.0
 10
636.8923709831773
 20
118.0253608304073
 30
0.0
 10
639.6721308782411
 20
119.2641603207018
 30
0.0
 10
642.3691493495627
 20
120.5990543873677
 30
0.0
 10
644.9759844636351
 20
122.0293067227796
 30
0.0
 10
647.4843855558997
 20
123.5534783209482
 30
0.0
 10
649.8856198322915
 20
125.1693265508834
 30
0.0
 10
652.1706390572488
 20
126.8736259146341
 30
0.0
 10
654.3305704018559
 20
128.6622553572829
 30
0.0
 10
656.3567999338087
 20
130.5299983702608
 30
0.0
 10
658.2413727948472
 20
132.470620811777
 30
0.0
 10
659.9773857776713
 20
134.4770787038935
 30
0.0
 10
661.5592856320583
 20
136.5418211281267
 30
0.0
 10
662.9830123953777
 20
138.6571230881757
 30
0.0
 10
664.2459560974827
 20
140.8153768731402
 30
0.0
 10
665.3468078749991
 20
143.0092918329114
 30
0.0
 10
666.2851890620266
 20
145.2319878166737
 30
0.0
 10
667.0617801527143
 20
147.4770033463704
 30
0.0
 10
667.6766000428375
 20
149.7382459732116
 30
0.0
 10
668.1342393032768
 20
152.0099524804683
 30
0.0
 10
668.423797931232
 20
154.2865697222447
 30
0.0
 10
668.5590869642697
 20
156.1145476183977
 30
0.0
 10
668.5429064495445
 20
157.1805819024897
 30
0.0
 10
668.5382472834559
 20
157.4875456097722
 30
0.0
  0
LINE
  5
24E
330
1F
100
AcDbEntity
  8
0
  6
Continuous
 62
     7
370
    15
100
AcDbLine
 10
561.1300414343
 20
122.6965713599
 30
0.0
 11
570.6566850422
 21
128.1961856522
 31
0.0
  0
LINE
  5
24F
330
1F
100
AcDbEntity
  8
0
  6
Continuous
 62
     7
370
    15
100
AcDbLine
 10
530.9976857227
 20
193.7128748417
 30
0.0
 11
522.8465828605
 21
189.0073433194
 31
0.0
  0
LINE
  5
250
330
1F
100
AcDbEntity
  8
0
  6
Continuous
 62
     7
370
    15
100
AcDbLine
 10
668.5568546423
 20
184.7127505734
 30
0.0
 11
674.2671264241
 21
188.0092203057
 31
0.0
  0
ARC
  5
251
330
1F
100
AcDbEntity
  8
0
  6
Continuous
 62
     7
370
    15
100
AcDbCircle
 10
545.2678181371
 20
227.2939716315
 30
0.0
 40
26.7108972279231
100
AcDbArc
 50
175.2054707371
 51
184.7826815329
  0
ARC
  5
252
330
1F
100
AcDbEntity
  8
0
  6
Continuous
 62
     7
370
    15
100
AcDbCircle
 10
651.8458219216
 20
227.2939696333
 30
0.0
 40
26.7109663062553
100
AcDbArc
 50
355.2025718416
 51
4.7904425193
  0
LWPOLYLINE
  5
253
330
1F
100
AcDbEntity
  8
0
  6
Continuous
 62
     7
370
    15
100
AcDbPolyline
 90
       69
 70
   128
 43
0.0
 10
678.5568546423
 20
224.0278071296
 10
678.4714926265
 20
221.8949156754
 10
678.2155887459
 20
219.766575919
 10
677.7896891123
 20
217.6473298448
 10
677.194702617
 20
215.5417000306
 10
676.4318989911
 20
213.4541799967
 10
675.5029060961
 20
211.3892246159
 10
674.4097064496
 20
209.3512406071
 10
673.1546329946
 20
207.3445771309
 10
671.7403641213
 20
205.3735165083
 10
670.1699179507
 20
203.442265082
 10
668.446645894
 20
201.5549442398
 10
666.5742255007
 20
199.7155816195
 10
664.5566526102
 20
197.9281025137
 10
662.3982328247
 20
196.1963214929
 10
660.1035723209
 20
194.523934265
 10
657.6775680199
 20
192.9145097886
 10
655.1253971372
 20
191.3714826567
 10
652.452506134
 20
189.8981457669
 10
649.6645990945
 20
188.4976432945
 10
646.7676255526
 20
187.1729639823
 10
643.7677677961
 20
185.9269347626
 10
640.6714276725
 20
184.7622147247
 10
637.4852129276
 20
183.6812894398
 10
634.2159231044
 20
182.6864656569
 10
630.870535032
 20
181.7798663801
 10
627.4561879373
 20
180.9634263379
 10
623.9801682088
 20
180.2388878546
 10
620.4498938481
 20
179.6077971318
 10
616.8728986383
 20
179.0715009489
 10
613.2568160676
 20
178.6311437889
 10
609.6093630384
 20
178.2876653963
 10
605.9383233994
 20
178.0417987713
 10
602.251531334
 20
177.8940686056
 10
598.5568546423
 20
177.8447901628
 10
594.8621779506
 20
177.8940686056
 10
591.1753858852
 20
178.0417987713
 10
587.5043462461
 20
178.2876653963
 10
583.856893217
 20
178.6311437889
 10
580.2408106463
 20
179.0715009489
 10
576.6638154365
 20
179.6077971318
 10
573.1335410757
 20
180.2388878546
 10
569.6575213473
 20
180.9634263379
 10
566.2431742525
 20
181.7798663801
 10
562.8977861802
 20
182.6864656569
 10
559.6284963569
 20
183.6812894398
 10
556.4422816121
 20
184.7622147247
 10
553.3459414885
 20
185.9269347626
 10
550.346083732
 20
187.1729639823
 10
547.4491101901
 20
188.4976432945
 10
544.6612031506
 20
189.8981457669
 10
541.9883121474
 20
191.3714826567
 10
539.4361412646
 20
192.9145097886
 10
537.0101369637
 20
194.523934265
 10
534.7154764599
 20
196.1963214929
 10
532.5570566744
 20
197.9281025137
 10
530.5394837839
 20
199.7155816195
 10
528.6670633906
 20
201.5549442398
 10
526.9437913339
 20
203.442265082
 10
525.3733451633
 20
205.3735165083
 10
523.9590762899
 20
207.3445771309
 10
522.704002835
 20
209.3512406071
 10
521.6108031885
 20
211.3892246159
 10
520.6818102934
 20
213.4541799967
 10
519.9190066676
 20
215.5417000306
 10
519.3240201723
 20
217.6473298448
 10
518.8981205387
 20
219.766575919
 10
518.6422166581
 20
221.8949156754
 10
518.5568546423
 20
224.0278071296
  0
LINE
  5
254
330
1F
100
AcDbEntity
  8
0
  6
Continuous
 62
     7
370
    15
100
AcDbLine
 10
609.3350097568
 20
268.0096413584
 30
0.0
 11
611.1281607011
 21
264.1463566935
 31
0.0
  0
LINE
  5
255
330
1F
100
AcDbEntity
  8
0
  6
Continuous
 62
     7
370
    15
100
AcDbLine
 10
611.1281607011
 20
264.1463566935
 30
0.0
 11
617.8202911311
 21
263.1111926874
 31
0.0
  0
LINE
  5
256
330
1F
100
AcDbEntity
  8
0
  6
Continuous
 62
     7
370
    15
100
AcDbLine
 10
617.8202911311
 20
263.1111926874
 30
0.0
 11
622.7192706166
 21
265.9393133462
 31
0.0
  0
LINE
  5
257
330
1F
100
AcDbEntity
  8
0
  6
Continuous
 62
     7
370
    15
100
AcDbLine
 10
657.0647174869
 20
240.4558675844
 30
0.0
 11
658.8578684312
 21
236.5925829195
 31
0.0
  0
LINE
  5
258
330
1F
100
AcDbEntity
  8
0
  6
Continuous
 62
     7
370
    15
100
AcDbLine
 10
658.8578684312
 20
236.5925829195
 30
0.0
 11
665.5499988611
 21
235.5574189134
 31
0.0
  0
LINE
  5
259
330
1F
100
AcDbEntity
  8
0
  6
Continuous
 62
     7
370
    15
100
AcDbLine
 10
665.5499988611
 20
235.5574189134
 30
0.0
 11
670.4489783467
 21
238.3855395722
 31
0.0
  0
LINE
  5
25A
330
1F
100
AcDbEntity
  8
0
  6
Continuous
 62
     7
370
    15
100
AcDbLine
 10
639.5944319425
 20
202.8167126389
 30
0.0
 11
641.3875828868
 21
198.9534279741
 31
0.0
  0
LINE
  5
25B
330
1F
100
AcDbEntity
  8
0
  6
Continuous
 62
     7
370
    15
100
AcDbLine
 10
641.3875828868
 20
198.9534279741
 30
0.0
 11
648.0797133167
 21
197.918263968
 31
0.0
  0
LINE
  5
25C
330
1F
100
AcDbEntity
  8
0
  6
Continuous
 62
     7
370
    15
100
AcDbLine
 10
648.0797133167
 20
197.918263968
 30
0.0
 11
652.9786928023
 21
200.7463846268
 31
0.0
  0
LINE
  5
25D
330
1F
100
AcDbEntity
  8
0
  6
Continuous
 62
     7
370
    15
100
AcDbLine
 10
574.394438668
 20
192.7313314675
 30
0.0
 11
576.1875896123
 21
188.8680468026
 31
0.0
  0
LINE
  5
25E
330
1F
100
AcDbEntity
  8
0
  6
Continuous
 62
     7
370
    15
100
AcDbLine
 10
576.1875896123
 20
188.8680468026
 30
0.0
 11
582.8797200422
 21
187.8328827966
 31
0.0
  0
LINE
  5
25F
330
1F
100
AcDbEntity
  8
0
  6
Continuous
 62
     7
370
    15
100
AcDbLine
 10
582.8797200422
 20
187.8328827966
 30
0.0
 11
587.7786995278
 21
190.6610034553
 31
0.0
  0
LINE
  5
260
330
1F
100
AcDbEntity
  8
0
  6
Continuous
 62
     7
370
    15
100
AcDbLine
 10
535.1500123121
 20
215.3866565706
 30
0.0
 11
540.0489917977
 21
218.2147772294
 31
0.0
  0
LINE
  5
261
330
1F
100
AcDbEntity
  8
0
  6
Continuous
 62
     7
370
    15
100
AcDbLine
 10
526.6647309379
 20
220.2851052415
 30
0.0
 11
528.4578818822
 21
216.4218205767
 31
0.0
  0
LINE
  5
262
330
1F
100
AcDbEntity
  8
0
  6
Continuous
 62
     7
370
    15
100
AcDbLine
 10
528.4578818822
 20
216.4218205767
 30
0.0
 11
535.1500123121
 21
215.3866565706
 31
0.0
  0
LINE
  5
263
330
1F
100
AcDbEntity
  8
0
  6
Continuous
 62
     7
370
    15
100
AcDbLine
 10
545.9281674266
 20
254.0609755221
 30
0.0
 11
552.6202978565
 21
253.025811516
 31
0.0
  0
LINE
  5
264
330
1F
100
AcDbEntity
  8
0
  6
Continuous
 62
     7
370
    15
100
AcDbLine
 10
552.6202978565
 20
253.025811516
 30
0.0
 11
557.5192773421
 21
255.8539321748
 31
0.0
  0
LINE
  5
265
330
1F
100
AcDbEntity
  8
0
  6
Continuous
 62
     7
370
    15
100
AcDbLine
 10
544.1350164823
 20
257.924260187
 30
0.0
 11
545.9281674266
 21
254.0609755221
 31
0.0
  0
LWPOLYLINE
  5
266
330
1F
100
AcDbEntity
  8
0
  6
Continuous
 62
     7
370
    15
100
AcDbPolyline
 90
       36
 70
   128
 43
0.0
 10
654.4273671976
 20
190.9683867014
 10
653.7645463314
 20
190.5901133877
 10
651.0757280258
 20
189.1426431722
 10
648.2731655352
 20
187.7689580081
 10
645.362928586
 20
186.4720329916
 10
642.3513201032
 20
185.2546769735
 10
639.2448625602
 20
184.1195264759
 10
636.0502838524
 20
183.0690399819
 10
632.7745027258
 20
182.1054926114
 10
629.4246137929
 20
181.2309711935
 10
626.0078721673
 20
180.4473697467
 10
622.5316777505
 20
179.7563853774
 10
619.0035592054
 20
179.1595146038
 10
615.4311576512
 20
178.6580501151
 10
611.8222101143
 20
178.2530779717
 10
608.1845327713
 20
177.9454752531
 10
604.5260040213
 20
177.7359081583
 10
600.854547423
 20
177.624830563
 10
597.1781145337
 20
177.6124830364
 10
593.5046676886
 20
177.6988923207
 10
589.8421627553
 20
177.8838712724
 10
586.1985319041
 20
178.1670192684
 10
582.5816664281
 20
178.5477230733
 10
578.9993996524
 20
179.0251581672
 10
575.4594899692
 20
179.5982905322
 10
571.9696040346
 20
180.2658788911
 10
568.5373001645
 20
181.0264773963
 10
565.1700119648
 20
181.8784387606
 10
561.8750322318
 20
182.8199178256
 10
558.6594971579
 20
183.8488755572
 10
555.5303708761
 20
184.9630834621
 10
552.4944303771
 20
186.160128414
 10
549.5582508321
 20
187.4374178802
 10
546.728191352
 20
188.7921855361
 10
544.0103812156
 20
190.2214972566
 10
542.686342087
 20
190.9683867014
  0
LWPOLYLINE
  5
267
330
1F
100
AcDbEntity
  8
0
  6
Continuous
 62
     7
370
    15
100
AcDbPolyline
 90
       71
 70
   128
 43
0.0
 10
678.5443496011
 20
223.2112663174
 10
678.5568546423
 20
222.3947255058
 10
678.4714926265
 20
220.2618340516
 10
678.2155887459
 20
218.1334942952
 10
677.7896891123
 20
216.014248221
 10
677.194702617
 20
213.9086184069
 10
676.4318989911
 20
211.8210983729
 10
675.5029060961
 20
209.7561429921
 10
674.4097064496
 20
207.7181589834
 10
673.1546329946
 20
205.7114955072
 10
671.7403641213
 20
203.7404348846
 10
670.1699179507
 20
201.8091834582
 10
668.446645894
 20
199.921862616
 10
666.5742255007
 20
198.0824999958
 10
664.5566526102
 20
196.29502089
 10
662.3982328247
 20
194.5632398691
 10
660.1035723209
 20
192.8908526412
 10
657.6775680199
 20
191.2814281648
 10
655.1253971372
 20
189.7384010329
 10
652.452506134
 20
188.2650641432
 10
649.6645990945
 20
186.8645616708
 10
646.7676255526
 20
185.5398823585
 10
643.7677677961
 20
184.2938531389
 10
640.6714276725
 20
183.1291331009
 10
637.4852129276
 20
182.048207816
 10
634.2159231044
 20
181.0533840331
 10
630.870535032
 20
180.1467847563
 10
627.4561879373
 20
179.3303447141
 10
623.9801682088
 20
178.6058062308
 10
620.4498938481
 20
177.974715508
 10
616.8728986383
 20
177.4384193251
 10
613.2568160676
 20
176.9980621652
 10
609.6093630384
 20
176.6545837726
 10
605.9383233994
 20
176.4087171475
 10
602.251531334
 20
176.2609869818
 10
598.5568546423
 20
176.211708539
 10
594.8621779506
 20
176.2609869818
 10
591.1753858852
 20
176.4087171475
 10
587.5043462461
 20
176.6545837726
 10
583.856893217
 20
176.9980621652
 10
580.2408106463
 20
177.4384193251
 10
576.6638154365
 20
177.974715508
 10
573.1335410757
 20
178.6058062308
 10
569.6575213473
 20
179.3303447141
 10
566.2431742525
 20
180.1467847563
 10
562.8977861802
 20
181.0533840331
 10
559.6284963569
 20
182.048207816
 10
556.4422816121
 20
183.1291331009
 10
553.3459414885
 20
184.2938531389
 10
550.346083732
 20
185.5398823585
 10
547.4491101901
 20
186.8645616708
 10
544.6612031506
 20
188.2650641432
 10
541.9883121474
 20
189.7384010329
 10
539.4361412646
 20
191.2814281648
 10
537.0101369637
 20
192.8908526412
 10
534.7154764599
 20
194.5632398691
 10
532.5570566744
 20
196.29502089
 10
530.5394837839
 20
198.0824999958
 10
528.6670633906
 20
199.921862616
 10
526.9437913339
 20
201.8091834582
 10
525.3733451633
 20
203.7404348846
 10
523.9590762899
 20
205.7114955072
 10
522.704002835
 20
207.7181589834
 10
521.6108031885
 20
209.7561429921
 10
520.6818102934
 20
211.8210983729
 10
519.9190066676
 20
213.9086184069
 10
519.3240201723
 20
216.014248221
 10
518.8981205387
 20
218.1334942952
 10
518.6422166581
 20
220.2618340516
 10
518.5568546423
 20
222.3947255058
 10
518.5693596835
 20
223.2112663174
  0
LWPOLYLINE
  5
268
330
1F
100
AcDbEntity
  8
0
  6
Continuous
 62
     7
370
    15
100
AcDbPolyline
 90
        3
 70
   128
 43
0.0
 10
678.4644077309
 20
216.9089710024
 10
678.4714926265
 20
216.9956708041
 10
678.5568546423
 20
219.1285622583
  0
LWPOLYLINE
  5
269
330
1F
100
AcDbEntity
  8
0
  6
Continuous
 62
     7
370
    15
100
AcDbPolyline
 90
        3
 70
   128
 43
0.0
 10
518.5568546423
 20
219.1285622583
 10
518.6422166581
 20
216.9956708041
 10
518.6506488928
 20
216.8928645522
  0
LINE
  5
26A
330
1F
100
AcDbEntity
  8
0
  6
Continuous
 62
     7
370
    15
100
AcDbLine
 10
576.499819342
 20
166.4875190975
 30
0.0
 11
576.499819342
 21
133.825886622
 31
0.0
  0
LINE
  5
26B
330
1F
100
AcDbEntity
  8
0
  6
Continuous
 62
     7
370
    15
100
AcDbLine
 10
574.394438668
 20
195.1809539032
 30
0.0
 11
576.1875896123
 21
191.3176692383
 31
0.0
  0
LINE
  5
26C
330
1F
100
AcDbEntity
  8
0
  6
Continuous
 62
     7
370
    15
100
AcDbLine
 10
579.2934181535
 20
198.0090745619
 30
0.0
 11
574.394438668
 21
195.1809539032
 31
0.0
  0
LINE
  5
26D
330
1F
100
AcDbEntity
  8
0
  6
Continuous
 62
     7
370
    15
100
AcDbLine
 10
585.9855485834
 20
196.9739105559
 30
0.0
 11
579.2934181535
 21
198.0090745619
 31
0.0
  0
LINE
  5
26E
330
1F
100
AcDbEntity
  8
0
  6
Continuous
 62
     7
370
    15
100
AcDbLine
 10
587.7786995278
 20
193.110625891
 30
0.0
 11
585.9855485834
 21
196.9739105559
 31
0.0
  0
LINE
  5
26F
330
1F
100
AcDbEntity
  8
0
  6
Continuous
 62
     7
370
    15
100
AcDbLine
 10
582.8797200422
 20
190.2825052322
 30
0.0
 11
587.7786995278
 21
193.110625891
 31
0.0
  0
LINE
  5
270
330
1F
100
AcDbEntity
  8
0
  6
Continuous
 62
     7
370
    15
100
AcDbLine
 10
576.1875896123
 20
191.3176692383
 30
0.0
 11
582.8797200422
 21
190.2825052322
 31
0.0
  0
LINE
  5
271
330
1F
100
AcDbEntity
  8
0
  6
Continuous
 62
     7
370
    15
100
AcDbLine
 10
576.1875896123
 20
191.3176692383
 30
0.0
 11
576.1875896123
 21
188.8680468026
 31
0.0
  0
LINE
  5
272
330
1F
100
AcDbEntity
  8
0
  6
Continuous
 62
     7
370
    15
100
AcDbLine
 10
582.8797200422
 20
190.2825052322
 30
0.0
 11
582.8797200422
 21
187.8328827966
 31
0.0
  0
LINE
  5
273
330
1F
100
AcDbEntity
  8
0
  6
Continuous
 62
     7
370
    15
100
AcDbLine
 10
587.7786995278
 20
193.110625891
 30
0.0
 11
587.7786995278
 21
190.6610034553
 31
0.0
  0
LINE
  5
274
330
1F
100
AcDbEntity
  8
0
  6
Continuous
 62
     7
370
    15
100
AcDbLine
 10
574.394438668
 20
195.1809539032
 30
0.0
 11
574.394438668
 21
192.7313314675
 31
0.0
  0
ARC
  5
275
330
1F
100
AcDbEntity
  8
0
  6
Continuous
 62
     7
370
    15
100
AcDbCircle
 10
547.8493545693
 20
159.2380433774
 30
0.0
 40
15.36804807572068
100
AcDbArc
 50
2.6054784857
 51
57.39452166
  0
LINE
  5
276
330
1F
100
AcDbEntity
  8
0
  6
Continuous
 62
     7
370
    15
100
AcDbLine
 10
563.201515583
 20
127.2750194246
 30
0.0
 11
563.201515583
 21
159.9366519
 31
0.0
  0
LWPOLYLINE
  5
277
330
1F
100
AcDbEntity
  8
0
  6
Continuous
 62
     7
370
    15
100
AcDbPolyline
 90
       13
 70
   128
 43
0.0
 10
556.1304477711
 20
123.1916518649
 10
557.0534073275
 20
122.7286948526
 10
557.96057479
 20
122.4133715599
 10
558.8364282718
 20
122.2510772559
 10
559.665981677
 20
122.244588841
 10
560.4350411169
 20
122.3940173337
 10
561.1304477711
 20
122.6968059713
 10
561.7403030391
 20
123.1477739561
 10
562.2541721281
 20
123.7392051008
 10
562.6632625955
 20
124.4609798547
 10
562.96057479
 20
125.3007484515
 10
563.1410216176
 20
126.2441422178
 10
563.201515583
 20
127.2750194246
  0
LINE
  5
278
330
1F
100
AcDbEntity
  8
0
  6
Continuous
 62
     7
370
    15
100
AcDbLine
 10
527.8461765236
 20
139.5198141013
 30
0.0
 11
556.1304477711
 21
123.1916518649
 31
0.0
  0
ARC
  5
279
330
1F
100
AcDbEntity
  8
0
  6
Continuous
 62
     7
370
    15
100
AcDbCircle
 10
536.1272697254
 20
152.4658713019
 30
0.0
 40
15.36804807572056
100
AcDbArc
 50
182.6054784857
 51
237.39452166
  0
LINE
  5
27A
330
1F
100
AcDbEntity
  8
0
  6
Continuous
 62
     7
370
    15
100
AcDbLine
 10
520.7751087118
 20
184.4288952547
 30
0.0
 11
520.7751087118
 21
151.7672627793
 31
0.0
  0
LWPOLYLINE
  5
27B
330
1F
100
AcDbEntity
  8
0
  6
Continuous
 62
     7
370
    15
100
AcDbPolyline
 90
       13
 70
   128
 43
0.0
 10
527.8461765236
 20
188.5122628145
 10
526.9232169672
 20
188.9752198267
 10
526.0160495047
 20
189.2905431194
 10
525.1401960229
 20
189.4528374234
 10
524.3106426177
 20
189.4593258384
 10
523.5415831779
 20
189.3098973456
 10
522.8461765236
 20
189.007108708
 10
522.2363212557
 20
188.5561407233
 10
521.7224521667
 20
187.9647095785
 10
521.3133616993
 20
187.2429348246
 10
521.0160495047
 20
186.4031662278
 10
520.8356026771
 20
185.4597724615
 10
520.7751087118
 20
184.4288952547
  0
LINE
  5
27C
330
1F
100
AcDbEntity
  8
0
  6
Continuous
 62
     7
370
    15
100
AcDbLine
 10
556.1304477711
 20
172.184100578
 30
0.0
 11
527.8461765236
 21
188.5122628145
 31
0.0
  0
LWPOLYLINE
  5
27D
330
1F
100
AcDbEntity
  8
0
  6
Continuous
 62
     7
370
    15
100
AcDbPolyline
 90
       60
 70
   128
 43
0.0
 10
531.1165453866
 20
162.1280946993
 10
531.1781361174
 20
163.4269810267
 10
531.3622104621
 20
164.6400393089
 10
531.6666827849
 20
165.7535251108
 10
532.0881032927
 20
166.7548221934
 10
532.6216971227
 20
167.6325854607
 10
533.2614184437
 20
168.376869504
 10
534.0000189574
 20
168.9792412878
 10
534.8291300249
 20
169.4328756991
 10
535.7393574865
 20
169.7326328788
 10
536.7203881014
 20
169.8751164581
 10
537.7611064007
 20
169.8587120412
 10
538.8497206302
 20
169.6836054968
 10
539.9738963557
 20
169.3517808519
 10
541.120896217
 20
168.8669978123
 10
542.2777242475
 20
168.2347491637
 10
543.4312731232
 20
167.4621985358
 10
544.5684726745
 20
166.5580992359
 10
545.676437976
 20
165.5326950703
 10
546.7426153382
 20
164.3976042781
 10
547.7549245455
 20
163.1656878913
 10
548.7018957301
 20
161.850904015
 10
549.5727993301
 20
160.4681496758
 10
550.3577676597
 20
159.0330920329
 10
551.0479067141
 20
157.5619908628
 10
551.635396942
 20
156.0715143296
 10
552.1135818445
 20
154.578550128
 10
552.4770433954
 20
153.1000141389
 10
552.7216634302
 20
151.6526587659
 10
552.8446703061
 20
150.2528831237
 10
552.8446703061
 20
148.9165472296
 10
552.7216634302
 20
147.6587923033
 10
552.4770433954
 20
146.4938692107
 10
552.1135818445
 20
145.4349769959
 10
551.635396942
 20
144.4941133309
 10
551.0479067141
 20
143.6819385768
 10
550.3577676597
 20
143.0076549982
 10
549.5727993301
 20
142.4789024974
 10
548.7018957301
 20
142.1016720516
 10
547.7549245455
 20
141.8802378324
 10
546.7426153382
 20
141.8171087781
 10
545.676437976
 20
141.913000166
 10
544.5684726745
 20
142.1668255085
 10
543.4312731232
 20
142.5757088628
 10
542.2777242475
 20
143.1350174174
 10
541.120896217
 20
143.8384139827
 10
539.9738963557
 20
144.6779287945
 10
538.8497206302
 20
145.6440498148
 10
537.7611064007
 20
146.7258305061
 10
536.7203881014
 20
147.9110138611
 10
535.7393574865
 20
149.1861712788
 10
534.8291300249
 20
150.536854716
 10
534.0000189574
 20
151.9477603897
 10
533.2614184437
 20
153.402902175
 10
532.6216971227
 20
154.8857927338
 10
532.0881032927
 20
156.3796303237
 10
531.6666827849
 20
157.8674891679
 10
531.3622104621
 20
159.332511231
 10
531.1781361174
 20
160.7580972278
 10
531.1165453866
 20
162.1280946993
  0
LINE
  5
27E
330
1F
100
AcDbEntity
  8
0
  6
Continuous
 62
     7
370
    15
100
AcDbLine
 10
556.1304477711
 20
172.184100578
 30
0.0
 11
563.422981905
 21
176.3939909234
 31
0.0
  0
SPLINE
  5
27F
330
1F
100
AcDbEntity
  8
0
  6
Continuous
 62
     7
370
    15
100
AcDbSpline
210
0.0
220
0.0
230
1.0
 70
     8
 71
     3
 72
    24
 73
    20
 74
     0
 42
0.000000001
 43
0.00000001
 40
0.0
 40
0.0
 40
0.0
 40
0.0
 40
0.1250000000000007
 40
0.1250000000000007
 40
0.2500000000000013
 40
0.2500000000000013
 40
0.375000000000002
 40
0.375000000000002
 40
0.5000000000000027
 40
0.5000000000000027
 40
0.5625000000000026
 40
0.5625000000000026
 40
0.6250000000000024
 40
0.6250000000000024
 40
0.7500000000000017
 40
0.7500000000000017
 40
0.8750000000000009
 40
0.8750000000000009
 40
1.0
 40
1.0
 40
1.0
 40
1.0
 10
573.9443011283324
 20
166.1383299889436
 30
0.0
 10
573.9443011283324
 20
166.7075460199541
 30
0.0
 10
573.8612477823913
 20
167.2747519536859
 30
0.0
 10
573.5420296584227
 20
168.406679883455
 30
0.0
 10
573.3012996987918
 20
168.9770840407778
 30
0.0
 10
572.6972772304616
 20
170.0660006926334
 30
0.0
 10
572.3337912746595
 20
170.5902799874135
 30
0.0
 10
571.494207663693
 20
171.6057439140701
 30
0.0
 10
571.0282917321664
 20
172.0842688798508
 30
0.0
 10
570.2755269717999
 20
172.7600199916638
 30
0.0
 10
570.0151975390534
 20
172.9785803166349
 30
0.0
 10
569.4762133528163
 20
173.4030339831287
 30
0.0
 10
569.1972172888088
 20
173.6090268050173
 30
0.0
 10
568.3487683612423
 20
174.1979511564531
 30
0.0
 10
567.7631383612029
 20
174.5561670481184
 30
0.0
 10
566.5547425238158
 20
175.2084740923301
 30
0.0
 10
565.9278857876036
 20
175.5036427505285
 30
0.0
 10
564.6785661448882
 20
176.0093288622226
 30
0.0
 10
564.0518171495452
 20
176.2226666095302
 30
0.0
 10
563.4229819049577
 20
176.3939909234446
 30
0.0
  0
LINE
  5
280
330
1F
100
AcDbEntity
  8
0
  6
Continuous
 62
     7
370
    15
100
AcDbLine
 10
573.9443011283
 20
166.1383299889
 30
0.0
 11
563.201515583
 21
159.9366519
 31
0.0
  0
ARC
  5
281
330
1F
100
AcDbEntity
  8
0
  6
Continuous
 62
     7
370
    15
100
AcDbCircle
 10
575.7159646644
 20
162.6983164875
 30
0.0
 40
3.869429489573603
100
AcDbArc
 50
78.3123458519
 51
117.2492122898
  0
LINE
  5
282
330
1F
100
AcDbEntity
  8
0
  6
Continuous
 62
     7
370
    15
100
AcDbLine
 10
641.3875828868
 20
201.4030504097
 30
0.0
 11
648.0797133167
 21
200.3678864036
 31
0.0
  0
LINE
  5
283
330
1F
100
AcDbEntity
  8
0
  6
Continuous
 62
     7
370
    15
100
AcDbLine
 10
639.5944319425
 20
205.2663350746
 30
0.0
 11
641.3875828868
 21
201.4030504097
 31
0.0
  0
LINE
  5
284
330
1F
100
AcDbEntity
  8
0
  6
Continuous
 62
     7
370
    15
100
AcDbLine
 10
644.4934114281
 20
208.0944557334
 30
0.0
 11
639.5944319425
 21
205.2663350746
 31
0.0
  0
LINE
  5
285
330
1F
100
AcDbEntity
  8
0
  6
Continuous
 62
     7
370
    15
100
AcDbLine
 10
651.185541858
 20
207.0592917273
 30
0.0
 11
644.4934114281
 21
208.0944557334
 31
0.0
  0
LINE
  5
286
330
1F
100
AcDbEntity
  8
0
  6
Continuous
 62
     7
370
    15
100
AcDbLine
 10
652.9786928023
 20
203.1960070624
 30
0.0
 11
651.185541858
 21
207.0592917273
 31
0.0
  0
LINE
  5
287
330
1F
100
AcDbEntity
  8
0
  6
Continuous
 62
     7
370
    15
100
AcDbLine
 10
648.0797133167
 20
200.3678864036
 30
0.0
 11
652.9786928023
 21
203.1960070624
 31
0.0
  0
LINE
  5
288
330
1F
100
AcDbEntity
  8
0
  6
Continuous
 62
     7
370
    15
100
AcDbLine
 10
641.3875828868
 20
201.4030504097
 30
0.0
 11
641.3875828868
 21
198.9534279741
 31
0.0
  0
LINE
  5
289
330
1F
100
AcDbEntity
  8
0
  6
Continuous
 62
     7
370
    15
100
AcDbLine
 10
648.0797133167
 20
200.3678864036
 30
0.0
 11
648.0797133167
 21
197.918263968
 31
0.0
  0
LINE
  5
28A
330
1F
100
AcDbEntity
  8
0
  6
Continuous
 62
     7
370
    15
100
AcDbLine
 10
573.9443011283
 20
133.4766975135
 30
0.0
 11
573.9443011283
 21
166.1383299889
 31
0.0
  0
LINE
  5
28B
330
1F
100
AcDbEntity
  8
0
  6
Continuous
 62
     7
370
    15
100
AcDbLine
 10
563.201515583
 20
127.2750194246
 30
0.0
 11
573.9443011283
 21
133.4766975135
 31
0.0
  0
LINE
  5
28C
330
1F
100
AcDbEntity
  8
0
  6
Continuous
 62
     7
370
    15
100
AcDbLine
 10
652.9786928023
 20
203.1960070624
 30
0.0
 11
652.9786928023
 21
200.7463846268
 31
0.0
  0
LINE
  5
28D
330
1F
100
AcDbEntity
  8
0
  6
Continuous
 62
     7
370
    15
100
AcDbLine
 10
639.5944319425
 20
205.2663350746
 30
0.0
 11
639.5944319425
 21
202.8167126389
 31
0.0
  0
ARC
  5
28E
330
1F
100
AcDbEntity
  8
0
  6
Continuous
 62
     7
370
    15
100
AcDbCircle
 10
575.7159646644
 20
130.0366840121
 30
0.0
 40
3.869429489574215
100
AcDbArc
 50
78.3123458519
 51
117.2492122898
  0
LINE
  5
28F
330
1F
100
AcDbEntity
  8
0
  6
Continuous
 62
     7
370
    15
100
AcDbLine
 10
528.4578818822
 20
218.8714430123
 30
0.0
 11
528.4578818822
 21
216.4218205767
 31
0.0
  0
LINE
  5
290
330
1F
100
AcDbEntity
  8
0
  6
Continuous
 62
     7
370
    15
100
AcDbLine
 10
528.4578818822
 20
218.8714430123
 30
0.0
 11
535.1500123121
 21
217.8362790062
 31
0.0
  0
LINE
  5
291
330
1F
100
AcDbEntity
  8
0
  6
Continuous
 62
     7
370
    15
100
AcDbLine
 10
535.1500123121
 20
217.8362790062
 30
0.0
 11
535.1500123121
 21
215.3866565706
 31
0.0
  0
LINE
  5
292
330
1F
100
AcDbEntity
  8
0
  6
Continuous
 62
     7
370
    15
100
AcDbLine
 10
531.5637104234
 20
225.5628483359
 30
0.0
 11
526.6647309379
 21
222.7347276772
 31
0.0
  0
LINE
  5
293
330
1F
100
AcDbEntity
  8
0
  6
Continuous
 62
     7
370
    15
100
AcDbLine
 10
538.2558408533
 20
224.5276843299
 30
0.0
 11
531.5637104234
 21
225.5628483359
 31
0.0
  0
LINE
  5
294
330
1F
100
AcDbEntity
  8
0
  6
Continuous
 62
     7
370
    15
100
AcDbLine
 10
540.0489917977
 20
220.664399665
 30
0.0
 11
538.2558408533
 21
224.5276843299
 31
0.0
  0
LINE
  5
295
330
1F
100
AcDbEntity
  8
0
  6
Continuous
 62
     7
370
    15
100
AcDbLine
 10
535.1500123121
 20
217.8362790062
 30
0.0
 11
540.0489917977
 21
220.664399665
 31
0.0
  0
LINE
  5
296
330
1F
100
AcDbEntity
  8
0
  6
Continuous
 62
     7
370
    15
100
AcDbLine
 10
526.6647309379
 20
222.7347276772
 30
0.0
 11
528.4578818822
 21
218.8714430123
 31
0.0
  0
LINE
  5
297
330
1F
100
AcDbEntity
  8
0
  6
Continuous
 62
     7
370
    15
100
AcDbLine
 10
540.0489917977
 20
220.664399665
 30
0.0
 11
540.0489917977
 21
218.2147772294
 31
0.0
  0
LINE
  5
298
330
1F
100
AcDbEntity
  8
0
  6
Continuous
 62
     7
370
    15
100
AcDbLine
 10
526.6647309379
 20
222.7347276772
 30
0.0
 11
526.6647309379
 21
220.2851052415
 31
0.0
  0
LINE
  5
299
330
1F
100
AcDbEntity
  8
0
  6
Continuous
 62
     7
370
    15
100
AcDbLine
 10
665.5499988611
 20
238.0070413491
 30
0.0
 11
670.4489783467
 21
240.8351620079
 31
0.0
  0
LINE
  5
29A
330
1F
100
AcDbEntity
  8
0
  6
Continuous
 62
     7
370
    15
100
AcDbLine
 10
658.8578684312
 20
239.0422053552
 30
0.0
 11
665.5499988611
 21
238.0070413491
 31
0.0
  0
LINE
  5
29B
330
1F
100
AcDbEntity
  8
0
  6
Continuous
 62
     7
370
    15
100
AcDbLine
 10
657.0647174869
 20
242.90549002
 30
0.0
 11
658.8578684312
 21
239.0422053552
 31
0.0
  0
LINE
  5
29C
330
1F
100
AcDbEntity
  8
0
  6
Continuous
 62
     7
370
    15
100
AcDbLine
 10
661.9636969725
 20
245.7336106788
 30
0.0
 11
657.0647174869
 21
242.90549002
 31
0.0
  0
LINE
  5
29D
330
1F
100
AcDbEntity
  8
0
  6
Continuous
 62
     7
370
    15
100
AcDbLine
 10
668.6558274024
 20
244.6984466727
 30
0.0
 11
661.9636969725
 21
245.7336106788
 31
0.0
  0
LINE
  5
29E
330
1F
100
AcDbEntity
  8
0
  6
Continuous
 62
     7
370
    15
100
AcDbLine
 10
670.4489783467
 20
240.8351620079
 30
0.0
 11
668.6558274024
 21
244.6984466727
 31
0.0
  0
LINE
  5
29F
330
1F
100
AcDbEntity
  8
0
  6
Continuous
 62
     7
370
    15
100
AcDbLine
 10
658.8578684312
 20
239.0422053552
 30
0.0
 11
658.8578684312
 21
236.5925829195
 31
0.0
  0
LINE
  5
2A0
330
1F
100
AcDbEntity
  8
0
  6
Continuous
 62
     7
370
    15
100
AcDbLine
 10
665.5499988611
 20
238.0070413491
 30
0.0
 11
665.5499988611
 21
235.5574189134
 31
0.0
  0
LINE
  5
2A1
330
1F
100
AcDbEntity
  8
0
  6
Continuous
 62
     7
370
    15
100
AcDbLine
 10
670.4489783467
 20
240.8351620079
 30
0.0
 11
670.4489783467
 21
238.3855395722
 31
0.0
  0
LINE
  5
2A2
330
1F
100
AcDbEntity
  8
0
  6
Continuous
 62
     7
370
    15
100
AcDbLine
 10
657.0647174869
 20
242.90549002
 30
0.0
 11
657.0647174869
 21
240.4558675844
 31
0.0
  0
LINE
  5
2A3
330
1F
100
AcDbEntity
  8
0
  6
Continuous
 62
     7
370
    15
100
AcDbLine
 10
545.9281674266
 20
256.5105979578
 30
0.0
 11
545.9281674266
 21
254.0609755221
 31
0.0
  0
LINE
  5
2A4
330
1F
100
AcDbEntity
  8
0
  6
Continuous
 62
     7
370
    15
100
AcDbLine
 10
545.9281674266
 20
256.5105979578
 30
0.0
 11
552.6202978565
 21
255.4754339517
 31
0.0
  0
LINE
  5
2A5
330
1F
100
AcDbEntity
  8
0
  6
Continuous
 62
     7
370
    15
100
AcDbLine
 10
552.6202978565
 20
255.4754339517
 30
0.0
 11
552.6202978565
 21
253.025811516
 31
0.0
  0
LINE
  5
2A6
330
1F
100
AcDbEntity
  8
0
  6
Continuous
 62
     7
370
    15
100
AcDbLine
 10
555.7261263978
 20
262.1668392753
 30
0.0
 11
549.0339959679
 21
263.2020032814
 31
0.0
  0
LINE
  5
2A7
330
1F
100
AcDbEntity
  8
0
  6
Continuous
 62
     7
370
    15
100
AcDbLine
 10
557.5192773421
 20
258.3035546104
 30
0.0
 11
555.7261263978
 21
262.1668392753
 31
0.0
  0
LINE
  5
2A8
330
1F
100
AcDbEntity
  8
0
  6
Continuous
 62
     7
370
    15
100
AcDbLine
 10
552.6202978565
 20
255.4754339517
 30
0.0
 11
557.5192773421
 21
258.3035546104
 31
0.0
  0
LINE
  5
2A9
330
1F
100
AcDbEntity
  8
0
  6
Continuous
 62
     7
370
    15
100
AcDbLine
 10
544.1350164823
 20
260.3738826226
 30
0.0
 11
545.9281674266
 21
256.5105979578
 31
0.0
  0
LINE
  5
2AA
330
1F
100
AcDbEntity
  8
0
  6
Continuous
 62
     7
370
    15
100
AcDbLine
 10
549.0339959679
 20
263.2020032814
 30
0.0
 11
544.1350164823
 21
260.3738826226
 31
0.0
  0
LINE
  5
2AB
330
1F
100
AcDbEntity
  8
0
  6
Continuous
 62
     7
370
    15
100
AcDbLine
 10
557.5192773421
 20
258.3035546104
 30
0.0
 11
557.5192773421
 21
255.8539321748
 31
0.0
  0
LINE
  5
2AC
330
1F
100
AcDbEntity
  8
0
  6
Continuous
 62
     7
370
    15
100
AcDbLine
 10
544.1350164823
 20
260.3738826226
 30
0.0
 11
544.1350164823
 21
257.924260187
 31
0.0
  0
LINE
  5
2AD
330
1F
100
AcDbEntity
  8
0
  6
Continuous
 62
     7
370
    15
100
AcDbLine
 10
676.3386005728
 20
192.5876683704
 30
0.0
 11
676.3386005728
 21
208.0532754806
 31
0.0
  0
LINE
  5
2AE
330
1F
100
AcDbEntity
  8
0
  6
Continuous
 62
     7
370
    15
100
AcDbLine
 10
611.1281607011
 20
266.5959791292
 30
0.0
 11
611.1281607011
 21
264.1463566935
 31
0.0
  0
LINE
  5
2AF
330
1F
100
AcDbEntity
  8
0
  6
Continuous
 62
     7
370
    15
100
AcDbLine
 10
611.1281607011
 20
266.5959791292
 30
0.0
 11
617.8202911311
 21
265.5608151231
 31
0.0
  0
LINE
  5
2B0
330
1F
100
AcDbEntity
  8
0
  6
Continuous
 62
     7
370
    15
100
AcDbLine
 10
617.8202911311
 20
265.5608151231
 30
0.0
 11
617.8202911311
 21
263.1111926874
 31
0.0
  0
LINE
  5
2B1
330
1F
100
AcDbEntity
  8
0
  6
Continuous
 62
     7
370
    15
100
AcDbLine
 10
622.7192706166
 20
268.3889357819
 30
0.0
 11
620.9261196723
 21
272.2522204467
 31
0.0
  0
LINE
  5
2B2
330
1F
100
AcDbEntity
  8
0
  6
Continuous
 62
     7
370
    15
100
AcDbLine
 10
617.8202911311
 20
265.5608151231
 30
0.0
 11
622.7192706166
 21
268.3889357819
 31
0.0
  0
LINE
  5
2B3
330
1F
100
AcDbEntity
  8
0
  6
Continuous
 62
     7
370
    15
100
AcDbLine
 10
609.3350097568
 20
270.459263794
 30
0.0
 11
611.1281607011
 21
266.5959791292
 31
0.0
  0
LINE
  5
2B4
330
1F
100
AcDbEntity
  8
0
  6
Continuous
 62
     7
370
    15
100
AcDbLine
 10
614.2339892424
 20
273.2873844528
 30
0.0
 11
609.3350097568
 21
270.459263794
 31
0.0
  0
LINE
  5
2B5
330
1F
100
AcDbEntity
  8
0
  6
Continuous
 62
     7
370
    15
100
AcDbLine
 10
620.9261196723
 20
272.2522204467
 30
0.0
 11
614.2339892424
 21
273.2873844528
 31
0.0
  0
LINE
  5
2B6
330
1F
100
AcDbEntity
  8
0
  6
Continuous
 62
     7
370
    15
100
AcDbLine
 10
622.7192706166
 20
268.3889357819
 30
0.0
 11
622.7192706166
 21
265.9393133462
 31
0.0
  0
LINE
  5
2B7
330
1F
100
AcDbEntity
  8
0
  6
Continuous
 62
     7
370
    15
100
AcDbLine
 10
609.3350097568
 20
270.459263794
 30
0.0
 11
609.3350097568
 21
268.0096413584
 31
0.0
  0
ARC
  5
2B8
330
1F
100
AcDbEntity
  8
0
  6
Continuous
 62
     7
370
    15
100
AcDbCircle
 10
671.5990942069
 20
191.9741786113
 30
0.0
 40
4.779047005141182
100
AcDbArc
 50
303.9367271484
 51
7.375453245
  0
LWPOLYLINE
  5
2B9
330
1F
100
AcDbEntity
  8
0
  6
Continuous
 62
     8
370
    15
100
AcDbPolyline
 90
       78
 70
   128
 43
0.0
 10
543.7560791003
 20
197.6995080737
 10
546.4051551534
 20
196.240820892
 10
549.1706020405
 20
194.8559804839
 10
552.0462489684
 20
193.5480769698
 10
555.0256792442
 20
192.3200287939
 10
558.102244594
 20
191.1745762119
 10
561.2690799975
 20
190.1142751764
 10
564.5191190066
 20
189.1414916335
 10
567.8451095135
 20
188.2583962438
 10
571.2396299327
 20
187.4669595385
 10
574.6951057619
 20
186.7689475221
 10
578.2038264833
 20
186.1659177326
 10
581.7579627691
 20
185.6592157651
 10
585.3495839514
 20
185.2499722698
 10
588.9706757189
 20
184.9391004291
 10
592.6131580001
 20
184.7272939196
 10
596.2689029925
 20
184.6150253644
 10
599.9297532998
 20
184.6025452786
 10
603.5875401332
 20
184.68988151
 10
607.2341015403
 20
184.8768391775
 10
610.8613006165
 20
185.1630011054
 10
614.4610436625
 20
185.5477287544
 10
618.0252982438
 20
186.0301636469
 10
621.5461111148
 20
186.6092292818
 10
625.0156259654
 20
187.2836335374
 10
628.4261009511
 20
188.051871554
 10
631.7699259687
 20
188.9122290923
 10
635.0396396372
 20
189.8627863581
 10
638.2279459467
 20
190.9014222864
 10
641.3277305393
 20
192.0258192745
 10
644.3320765833
 20
193.233468353
 10
647.234280208
 20
194.5216747844
 10
650.0278654623
 20
195.8875640767
 10
652.7065987651
 20
197.3280883966
 10
655.264502815
 20
198.8400333712
 10
657.6958699278
 20
200.4200252599
 10
659.9952747728
 20
202.0645384832
 10
662.1575864787
 20
203.7699034888
 10
664.1779800825
 20
205.5323149408
 10
666.0519472961
 20
207.3478402099
 10
667.7753065658
 20
209.2124281494
 10
669.3442124034
 20
211.1219181345
 10
670.7551639663
 20
213.0720493464
 10
672.0050128699
 20
215.0584702797
 10
673.0909702126
 20
217.0767484528
 10
674.0106127989
 20
219.1223802978
 10
674.7618885466
 20
221.19080121
 10
675.3431210658
 20
223.2773957338
 10
675.7530133994
 20
225.3775078608
 10
675.9906509173
 20
227.4864514196
 10
676.0555033574
 20
229.5995205325
 10
675.9474260084
 20
231.7120001161
 10
675.6666600333
 20
233.8191764024
 10
675.2138319306
 20
235.9163474571
 10
674.589952137
 20
237.9988336717
 10
673.7964127722
 20
240.0619882049
 10
672.8349845328
 20
242.1012073524
 10
671.7078127412
 20
244.1119408189
 10
670.4174125584
 20
246.0897018716
 10
668.9666633717
 20
248.0300773524
 10
667.3588023699
 20
249.9287375249
 10
665.5974173196
 20
251.7814457358
 10
663.6864385596
 20
253.5840678685
 10
661.6301302307
 20
255.3325815683
 10
659.4330807609
 20
257.0230852174
 10
657.1001926266
 20
258.6518066412
 10
654.6366714135
 20
260.2151115251
 10
652.0480142007
 20
261.7095115249
 10
649.3399972947
 20
263.1316720497
 10
646.51866334
 20
264.4784197033
 10
643.5903078359
 20
265.746749365
 10
640.5614650887
 20
266.9338308956
 10
637.4388936308
 20
268.0370154518
 10
634.2295611402
 20
269.0538413976
 10
630.9406288925
 20
269.9820397966
 10
627.5794357817
 20
270.8195394754
 10
624.1534819438
 20
271.5644716446
 10
620.9671601025
 20
272.1638001911
  0
LWPOLYLINE
  5
2BA
330
1F
100
AcDbEntity
  8
0
  6
Continuous
 62
     8
370
    15
100
AcDbPolyline
 90
       56
 70
   128
 43
0.0
 10
614.0368067707
 20
273.1735534349
 10
613.5641223936
 20
273.2282953024
 10
609.9567595987
 20
273.588453441
 10
606.3239591582
 20
273.8498655404
 10
602.6738272705
 20
274.0119482878
 10
599.0145088069
 20
274.0743400133
 10
595.354169138
 20
274.0369014966
 10
591.7009759128
 20
273.8997162775
 10
588.0630808338
 20
273.66309047
 10
584.4486014675
 20
273.3275520789
 10
580.8656031306
 20
272.8938498213
 10
577.3220808936
 20
272.3629514567
 10
573.8259417401
 20
271.7360416269
 10
570.3849869236
 20
271.0145192129
 10
567.0068945598
 20
270.1999942133
 10
563.6992024938
 20
269.2942841519
 10
560.4692914798
 20
268.299410022
 10
557.3243687124
 20
267.2175917767
 10
554.2714517439
 20
266.0512433756
 10
551.3173528258
 20
264.8029673981
 10
548.4686637081
 20
263.475549236
 10
545.7317409299
 20
262.0719508782
 10
543.1126916363
 20
260.5953043015
 10
540.6173599502
 20
259.0489044819
 10
538.2513139325
 20
257.4362020419
 10
536.019833157
 20
255.7607955514
 10
533.9278969298
 20
254.0264234973
 10
531.9801731786
 20
252.2369559419
 10
530.1810080368
 20
250.3963858871
 10
528.5344161453
 20
248.5088203642
 10
527.0440716945
 20
246.5784712702
 10
525.7133002255
 20
244.6096459685
 10
524.5450712099
 20
242.6067376784
 10
523.5419914235
 20
240.5742156714
 10
522.7062991294
 20
238.5166152989
 10
522.039859084
 20
236.4385278718
 10
521.5441583756
 20
234.3445904158
 10
521.2203031062
 20
232.2394753241
 10
521.0690159237
 20
230.1278799317
 10
521.0906344089
 20
228.0145160336
 10
521.2851103225
 20
225.9040993709
 10
521.6520097127
 20
223.8013391085
 10
522.1905138834
 20
221.7109273268
 10
522.8994212214
 20
219.6375285518
 10
523.7771498772
 20
217.585769347
 10
524.8217412948
 20
215.5602279893
 10
526.0308645824
 20
213.5654242537
 10
527.4018217132
 20
211.6058093273
 10
528.9315535457
 20
209.6857558772
 10
530.61664665
 20
207.8095482934
 10
532.4533409245
 20
205.9813731288
 10
534.4375379861
 20
204.2053097569
 10
536.5648103152
 20
202.4853212697
 10
538.8304111356
 20
200.8252456339
 10
541.2292850059
 20
199.2287871275
 10
543.7560791003
 20
197.6995080737
  0
LWPOLYLINE
  5
2BB
330
1F
100
AcDbEntity
  8
0
  6
Continuous
 62
     8
370
    15
100
AcDbPolyline
 90
       17
 70
   128
 43
0.0
 10
541.9883121474
 20
194.6376459042
 10
539.4361412646
 20
196.1806730361
 10
537.0101369637
 20
197.7900975125
 10
534.7154764599
 20
199.4624847404
 10
532.5570566744
 20
201.1942657613
 10
530.5394837839
 20
202.9817448671
 10
528.6670633906
 20
204.8211074873
 10
526.9437913339
 20
206.7084283295
 10
525.3733451633
 20
208.6396797559
 10
523.9590762899
 20
210.6107403785
 10
522.704002835
 20
212.6174038547
 10
521.6108031885
 20
214.6553878634
 10
520.6818102934
 20
216.7203432442
 10
519.9190066676
 20
218.8078632782
 10
519.3240201723
 20
220.9134930923
 10
518.8981205387
 20
223.0327391665
 10
518.6499254073
 20
225.0669068941
  0
LWPOLYLINE
  5
2BC
330
1F
100
AcDbEntity
  8
0
  6
Continuous
 62
     8
370
    15
100
AcDbPolyline
 90
       51
 70
   128
 43
0.0
 10
678.4632094105
 20
225.0600483547
 10
678.2155887459
 20
223.0327391665
 10
677.7896891123
 20
220.9134930923
 10
677.194702617
 20
218.8078632782
 10
676.4318989911
 20
216.7203432442
 10
675.5029060961
 20
214.6553878634
 10
674.4097064496
 20
212.6174038547
 10
673.1546329946
 20
210.6107403785
 10
671.7403641213
 20
208.6396797559
 10
670.1699179507
 20
206.7084283295
 10
668.446645894
 20
204.8211074873
 10
666.5742255007
 20
202.9817448671
 10
664.5566526102
 20
201.1942657613
 10
662.3982328247
 20
199.4624847404
 10
660.1035723209
 20
197.7900975125
 10
657.6775680199
 20
196.1806730361
 10
655.1253971372
 20
194.6376459042
 10
652.452506134
 20
193.1643090145
 10
649.6645990945
 20
191.7638065421
 10
646.7676255526
 20
190.4391272298
 10
643.7677677961
 20
189.1930980102
 10
640.6714276725
 20
188.0283779722
 10
637.4852129276
 20
186.9474526873
 10
634.2159231044
 20
185.9526289044
 10
630.870535032
 20
185.0460296276
 10
627.4561879373
 20
184.2295895854
 10
623.9801682088
 20
183.5050511022
 10
620.4498938481
 20
182.8739603793
 10
616.8728986383
 20
182.3376641964
 10
613.2568160676
 20
181.8973070365
 10
609.6093630384
 20
181.5538286439
 10
605.9383233994
 20
181.3079620188
 10
602.251531334
 20
181.1602318531
 10
598.5568546423
 20
181.1109534103
 10
594.8621779506
 20
181.1602318531
 10
591.1753858852
 20
181.3079620188
 10
587.5043462461
 20
181.5538286439
 10
583.856893217
 20
181.8973070365
 10
580.2408106463
 20
182.3376641964
 10
576.6638154365
 20
182.8739603793
 10
573.1335410757
 20
183.5050511022
 10
569.6575213473
 20
184.2295895854
 10
566.2431742525
 20
185.0460296276
 10
562.8977861802
 20
185.9526289044
 10
559.6284963569
 20
186.9474526873
 10
556.4422816121
 20
188.0283779722
 10
553.3459414885
 20
189.1930980102
 10
550.346083732
 20
190.4391272298
 10
547.4491101901
 20
191.7638065421
 10
544.6612031506
 20
193.1643090145
 10
541.9883121474
 20
194.6376459042
  0
LWPOLYLINE
  5
2BD
330
1F
100
AcDbEntity
  8
0
  6
Continuous
 62
     8
370
    15
100
AcDbPolyline
 90
       51
 70
   128
 43
0.0
 10
541.9883121474
 20
186.4722377854
 10
544.6612031506
 20
184.9989008956
 10
547.4491101901
 20
183.5983984232
 10
550.346083732
 20
182.273719111
 10
553.3459414885
 20
181.0276898913
 10
556.4422816121
 20
179.8629698534
 10
559.6284963569
 20
178.7820445684
 10
562.8977861802
 20
177.7872207855
 10
566.2431742525
 20
176.8806215087
 10
569.6575213473
 20
176.0641814666
 10
573.1335410757
 20
175.3396429833
 10
576.6638154365
 20
174.7085522605
 10
580.2408106463
 20
174.1722560776
 10
583.856893217
 20
173.7318989176
 10
587.5043462461
 20
173.388420525
 10
591.1753858852
 20
173.1425539
 10
594.8621779506
 20
172.9948237342
 10
598.5568546423
 20
172.9455452914
 10
602.251531334
 20
172.9948237342
 10
605.9383233994
 20
173.1425539
 10
609.6093630384
 20
173.388420525
 10
613.2568160676
 20
173.7318989176
 10
616.8728986383
 20
174.1722560776
 10
620.4498938481
 20
174.7085522605
 10
623.9801682088
 20
175.3396429833
 10
627.4561879373
 20
176.0641814666
 10
630.870535032
 20
176.8806215087
 10
634.2159231044
 20
177.7872207855
 10
637.4852129276
 20
178.7820445684
 10
640.6714276725
 20
179.8629698534
 10
643.7677677961
 20
181.0276898913
 10
646.7676255526
 20
182.273719111
 10
649.6645990945
 20
183.5983984232
 10
652.452506134
 20
184.9989008956
 10
655.1253971372
 20
186.4722377854
 10
657.6775680199
 20
188.0152649173
 10
660.1035723209
 20
189.6246893936
 10
662.3982328247
 20
191.2970766216
 10
664.5566526102
 20
193.0288576424
 10
666.5742255007
 20
194.8163367482
 10
668.446645894
 20
196.6556993685
 10
670.1699179507
 20
198.5430202107
 10
671.7403641213
 20
200.474271637
 10
673.1546329946
 20
202.4453322596
 10
674.4097064496
 20
204.4519957358
 10
675.5029060961
 20
206.4899797446
 10
676.4318989911
 20
208.5549351254
 10
677.194702617
 20
210.6424551593
 10
677.7896891123
 20
212.7480849735
 10
678.2155887459
 20
214.8673310477
 10
678.4644077309
 20
216.9089710024
  0
LWPOLYLINE
  5
2BE
330
1F
100
AcDbEntity
  8
0
  6
Continuous
 62
     8
370
    15
100
AcDbPolyline
 90
       17
 70
   128
 43
0.0
 10
518.6506488928
 20
216.8928645522
 10
518.8981205387
 20
214.8673310477
 10
519.3240201723
 20
212.7480849735
 10
519.9190066676
 20
210.6424551593
 10
520.6818102934
 20
208.5549351254
 10
521.6108031885
 20
206.4899797446
 10
522.704002835
 20
204.4519957358
 10
523.9590762899
 20
202.4453322596
 10
525.3733451633
 20
200.474271637
 10
526.9437913339
 20
198.5430202107
 10
528.6670633906
 20
196.6556993685
 10
530.5394837839
 20
194.8163367482
 10
532.5570566744
 20
193.0288576424
 10
534.7154764599
 20
191.2970766216
 10
537.0101369637
 20
189.6246893936
 10
539.4361412646
 20
188.0152649173
 10
541.9883121474
 20
186.4722377854
  0
LWPOLYLINE
  5
2BF
330
1F
100
AcDbEntity
  8
0
  6
Continuous
 62
     8
370
    15
100
AcDbPolyline
 90
       45
 70
   128
 43
0.0
 10
561.8060871778
 20
123.0868442604
 10
562.6857633738
 20
122.778713473
 10
565.7023394472
 20
121.7970884001
 10
568.7993160248
 20
120.9027847329
 10
571.9691142859
 20
120.0979909824
 10
575.203977203
 20
119.3846766138
 10
578.4959885245
 20
118.7645872268
 10
581.8370921469
 20
118.239240284
 10
585.21911183
 20
117.8099213976
 10
588.6337712048
 20
117.4776811826
 10
592.0727140275
 20
117.2433326867
 10
595.5275246289
 20
117.1074493998
 10
598.9897485085
 20
117.0703638512
 10
602.4509130242
 20
117.1321667953
 10
605.9025481265
 20
117.29270699
 10
609.336207086
 20
117.5515915666
 10
612.7434871637
 20
117.9081869911
 10
616.1160501743
 20
118.3616206148
 10
619.4456428911
 20
118.9107828096
 10
622.7241172427
 20
119.5543296835
 10
625.9434502529
 20
120.2906863696
 10
629.0957636745
 20
121.1180508796
 10
632.1733432682
 20
122.034398514
 10
635.1686576811
 20
123.0374868164
 10
638.0743768768
 20
124.1248610619
 10
640.8833900736
 20
125.2938602633
 10
643.5888231455
 20
126.5416236837
 10
646.1840554444
 20
127.865097837
 10
648.662736002
 20
129.2610439601
 10
651.0187990716
 20
130.726045939
 10
653.246478972
 20
132.2565186683
 10
655.3403241973
 20
133.8487168247
 10
657.2952107573
 20
135.4987440326
 10
659.106354717
 20
137.2025623989
 10
660.7693239037
 20
138.9560023945
 10
662.280048753
 20
140.754773058
 10
663.6348322682
 20
142.5944724961
 10
664.8303590669
 20
144.4705986561
 10
665.8637034947
 20
146.3785603427
 10
666.7323367846
 20
148.3136884541
 10
667.4341332455
 20
150.2712474074
 10
667.9673754638
 20
152.246446728
 10
668.3307585064
 20
154.234452772
 10
668.5233931142
 20
156.2304005555
 10
668.5568546423
 20
157.4797309609
  0
SPLINE
  5
2C0
330
1F
100
AcDbEntity
  8
0
  6
Continuous
 62
     8
370
    15
100
AcDbSpline
210
0.0
220
0.0
230
1.0
 70
     8
 71
     3
 72
    15
 73
    11
 74
     0
 42
0.000000001
 43
0.00000001
 40
0.0
 40
0.0
 40
0.0
 40
0.0
 40
0.1144666343713842
 40
0.243483121390583
 40
0.3725497151781152
 40
0.5073509697894516
 40
0.6421944309203831
 40
0.7736234467580958
 40
0.9050440655032854
 40
1.0
 40
1.0
 40
1.0
 40
1.0
 10
576.4998193420228
 20
133.8258866220496
 30
0.0
 10
576.469403962138
 20
133.2987415985745
 30
0.0
 10
576.4047071037629
 20
132.1774461534335
 30
0.0
 10
575.8538007380914
 20
130.6023969665915
 30
0.0
 10
574.9457177643911
 20
129.126954285199
 30
0.0
 10
573.6831229321657
 20
127.8877952528837
 30
0.0
 10
572.1471073473107
 20
126.9297255905513
 30
0.0
 10
570.4096147308127
 20
126.3217841312414
 30
0.0
 10
568.720986258974
 20
126.0347891483711
 30
0.0
 10
567.5959337471666
 20
126.1207597648835
 30
0.0
 10
567.124019093963
 20
126.1568210093599
 30
0.0
  0
SPLINE
  5
2C1
330
1F
100
AcDbEntity
  8
0
  6
Continuous
 62
     8
370
    15
100
AcDbSpline
210
0.0
220
0.0
230
1.0
 70
     8
 71
     3
 72
    12
 73
     8
 74
     0
 42
0.000000001
 43
0.00000001
 40
0.0
 40
0.0
 40
0.0
 40
0.0
 40
0.202600323151657
 40
0.4010277825791635
 40
0.5994003283562375
 40
0.7997166728500602
 40
1.0
 40
1.0
 40
1.0
 40
1.0
 10
572.929700564429
 20
174.3658719683798
 30
0.0
 10
573.3542247988241
 20
173.8793181815154
 30
0.0
 10
574.1945295412954
 20
172.9162319276712
 30
0.0
 10
575.1812778193029
 20
171.3545623640283
 30
0.0
 10
575.9272800531609
 20
169.7493646837268
 30
0.0
 10
576.4060976884391
 20
168.105186394337
 30
0.0
 10
576.4685805074353
 20
167.0267119005489
 30
0.0
 10
576.4998193420226
 20
166.4875190974796
 30
0.0
  0
LINE
  5
2C2
330
1F
100
AcDbEntity
  8
0
  6
Continuous
 62
     8
370
    15
100
AcDbLine
 10
563.422981905
 20
176.3939909234
 30
0.0
 11
563.5827597373
 21
176.5783146553
 31
0.0
  0
LINE
  5
2C3
330
1F
100
AcDbEntity
  8
0
  6
Continuous
 62
     8
370
    15
100
AcDbLine
 10
533.3284245564
 20
191.6770972384
 30
0.0
 11
527.8461765236
 21
188.5122628145
 31
0.0
  0
ARC
  5
2C4
330
1F
100
AcDbEntity
  8
0
  6
Continuous
 62
     8
370
    15
100
AcDbCircle
 10
591.1351249585
 20
263.345133684
 30
0.0
 40
91.26041913115743
100
AcDbArc
 50
248.1091767922
 51
252.3224327927
  0
SPLINE
  5
2C5
330
1F
100
AcDbEntity
  8
0
  6
Continuous
 62
     8
370
    15
100
AcDbSpline
210
0.0
220
0.0
230
1.0
 70
     8
 71
     3
 72
    12
 73
     8
 74
     0
 42
0.000000001
 43
0.00000001
 40
0.0
 40
0.0
 40
0.0
 40
0.0
 40
0.1242076113446257
 40
0.3643153802284439
 40
0.5811480120259269
 40
0.8061787399770844
 40
1.0
 40
1.0
 40
1.0
 40
1.0
 10
570.6373282815443
 20
128.2294539807699
 30
0.0
 10
570.8823653230501
 20
128.3634424375309
 30
0.0
 10
571.6010874849192
 20
128.7564461757291
 30
0.0
 10
572.5232544385768
 20
129.648967640241
 30
0.0
 10
573.3597413398334
 20
130.8554634895168
 30
0.0
 10
573.8565985575032
 20
132.1398294252119
 30
0.0
 10
573.9165561225875
 20
133.0537747594907
 30
0.0
 10
573.9443011283324
 20
133.4766975135136
 30
0.0
  0
LINE
  5
2C6
330
1F
100
AcDbEntity
  8
0
  6
Continuous
 62
     8
370
    15
100
AcDbLine
 10
668.5568546423
 20
188.0953620662
 30
0.0
 11
676.3386005728
 21
192.5876683704
 31
0.0
  0
ENDSEC
  0
SECTION
  2
OBJECTS
  0
DICTIONARY
  5
C
330
0
100
AcDbDictionary
281
     1
  3
ACAD_GROUP
350
D
  3
ACAD_LAYOUT
350
1A
  3
ACAD_MLINESTYLE
350
17
  3
ACAD_PLOTSETTINGS
350
19
  3
ACAD_PLOTSTYLENAME
350
E
  3
ACAD_SCALELIST
350
47
  0
DICTIONARY
  5
D
102
{ACAD_REACTORS
330
C
102
}
330
C
100
AcDbDictionary
281
     1
  0
DICTIONARY
  5
1A
102
{ACAD_REACTORS
330
C
102
}
330
C
100
AcDbDictionary
281
     1
  3
Layout1
350
1E
  3
Layout2
350
26
  3
Model
350
22
  0
DICTIONARY
  5
17
102
{ACAD_REACTORS
330
C
102
}
330
C
100
AcDbDictionary
281
     1
  3
Standard
350
18
  0
DICTIONARY
  5
19
102
{ACAD_REACTORS
330
C
102
}
330
C
100
AcDbDictionary
281
     1
  0
ACDBDICTIONARYWDFLT
  5
E
102
{ACAD_REACTORS
330
C
102
}
330
C
100
AcDbDictionary
281
     1
  3
Normal
350
F
100
AcDbDictionaryWithDefault
340
F
  0
DICTIONARY
  5
47
102
{ACAD_REACTORS
330
C
102
}
330
C
100
AcDbDictionary
281
     1
  3
A0
350
48
  3
A1
350
49
  3
A2
350
4A
  3
A3
350
4B
  3
A4
350
4C
  3
A5
350
4D
  3
A6
350
4E
  3
A7
350
4F
  3
A8
350
50
  3
A9
350
51
  3
B0
350
52
  3
B1
350
53
  3
B2
350
54
  3
B3
350
55
  3
B4
350
56
  3
B5
350
57
  3
B6
350
58
  3
B7
350
59
  3
B8
350
5A
  3
B9
350
5B
  3
C0
350
5C
  3
C1
350
5D
  3
C2
350
5E
  3
C3
350
5F
  3
C4
350
60
  3
C5
350
61
  3
C6
350
62
  3
C7
350
63
  3
C8
350
64
  3
C9
350
65
  3
D0
350
66
  3
D1
350
67
  3
D2
350
68
  0
LAYOUT
  5
1E
102
{ACAD_REACTORS
330
1A
102
}
330
1A
100
AcDbPlotSettings
  1

  2
none_device
  4

  6

 40
0.0
 41
0.0
 42
0.0
 43
0.0
 44
0.0
 45
0.0
 46
0.0
 47
0.0
 48
0.0
 49
0.0
140
0.0
141
0.0
142
1.0
143
1.0
 70
   688
 72
     1
 73
     0
 74
     5
  7

 75
    16
147
1.0
148
0.0
149
0.0
100
AcDbLayout
  1
Layout1
 70
     1
 71
     1
 10
0.0
 20
0.0
 11
420.0
 21
297.0
 12
0.0
 22
0.0
 32
0.0
 14
1.0000000000E+20
 24
1.0000000000E+20
 34
1.0000000000E+20
 15
-1.0000000000E+20
 25
-1.0000000000E+20
 35
-1.0000000000E+20
146
0.0
 13
0.0
 23
0.0
 33
0.0
 16
1.0
 26
0.0
 36
0.0
 17
0.0
 27
1.0
 37
0.0
 76
     0
330
1B
  0
LAYOUT
  5
26
102
{ACAD_REACTORS
330
1A
102
}
330
1A
100
AcDbPlotSettings
  1

  2
none_device
  4

  6

 40
0.0
 41
0.0
 42
0.0
 43
0.0
 44
0.0
 45
0.0
 46
0.0
 47
0.0
 48
0.0
 49
0.0
140
0.0
141
0.0
142
1.0
143
1.0
 70
   688
 72
     1
 73
     0
 74
     5
  7

 75
    16
147
1.0
148
0.0
149
0.0
100
AcDbLayout
  1
Layout2
 70
     1
 71
     2
 10
0.0
 20
0.0
 11
0.0
 21
0.0
 12
0.0
 22
0.0
 32
0.0
 14
0.0
 24
0.0
 34
0.0
 15
0.0
 25
0.0
 35
0.0
146
0.0
 13
0.0
 23
0.0
 33
0.0
 16
1.0
 26
0.0
 36
0.0
 17
0.0
 27
1.0
 37
0.0
 76
     0
330
23
  0
LAYOUT
  5
22
102
{ACAD_REACTORS
330
1A
102
}
330
1A
100
AcDbPlotSettings
  1

  2
none_device
  4
Letter_(8.50_x_11.00_Inches)
  6

 40
6.35
 41
6.35
 42
6.35000508
 43
6.35000508
 44
215.9
 45
279.4
 46
0.0
 47
0.0
 48
0.0
 49
0.0
140
0.0
141
0.0
142
1.0
143
1.0
 70
  1712
 72
     1
 73
     0
 74
     0
  7

 75
     0
147
1.0
148
0.0
149
0.0
100
AcDbLayout
  1
Model
 70
     1
 71
     0
 10
0.0
 20
0.0
 11
841.0
 21
594.0
 12
0.0
 22
0.0
 32
0.0
 14
0.0
 24
0.0
 34
0.0
 15
841.0
 25
594.0
 35
0.0
146
0.0
 13
0.0
 23
0.0
 33
0.0
 16
1.0
 26
0.0
 36
0.0
 17
0.0
 27
1.0
 37
0.0
 76
     0
330
1F
331
29
  0
MLINESTYLE
  5
18
102
{ACAD_REACTORS
330
17
102
}
330
17
100
AcDbMlineStyle
  2
Standard
 70
     0
  3

 62
   256
 51
90.0
 52
90.0
 71
     2
 49
0.5
 62
   256
  6
BYLAYER
 49
-0.5
 62
   256
  6
BYLAYER
  0
ACDBPLACEHOLDER
  5
F
102
{ACAD_REACTORS
330
E
102
}
330
E
  0
SCALE
  5
48
102
{ACAD_REACTORS
330
47
102
}
330
47
100
AcDbScale
 70
     0
300
1:1
140
1.0
141
1.0
290
     1
  0
SCALE
  5
49
102
{ACAD_REACTORS
330
47
102
}
330
47
100
AcDbScale
 70
     0
300
1:2
140
1.0
141
2.0
290
     0
  0
SCALE
  5
4A
102
{ACAD_REACTORS
330
47
102
}
330
47
100
AcDbScale
 70
     0
300
1:4
140
1.0
141
4.0
290
     0
  0
SCALE
  5
4B
102
{ACAD_REACTORS
330
47
102
}
330
47
100
AcDbScale
 70
     0
300
1:5
140
1.0
141
5.0
290
     0
  0
SCALE
  5
4C
102
{ACAD_REACTORS
330
47
102
}
330
47
100
AcDbScale
 70
     0
300
1:8
140
1.0
141
8.0
290
     0
  0
SCALE
  5
4D
102
{ACAD_REACTORS
330
47
102
}
330
47
100
AcDbScale
 70
     0
300
1:10
140
1.0
141
10.0
290
     0
  0
SCALE
  5
4E
102
{ACAD_REACTORS
330
47
102
}
330
47
100
AcDbScale
 70
     0
300
1:16
140
1.0
141
16.0
290
     0
  0
SCALE
  5
4F
102
{ACAD_REACTORS
330
47
102
}
330
47
100
AcDbScale
 70
     0
300
1:20
140
1.0
141
20.0
290
     0
  0
SCALE
  5
50
102
{ACAD_REACTORS
330
47
102
}
330
47
100
AcDbScale
 70
     0
300
1:30
140
1.0
141
30.0
290
     0
  0
SCALE
  5
51
102
{ACAD_REACTORS
330
47
102
}
330
47
100
AcDbScale
 70
     0
300
1:40
140
1.0
141
40.0
290
     0
  0
SCALE
  5
52
102
{ACAD_REACTORS
330
47
102
}
330
47
100
AcDbScale
 70
     0
300
1:50
140
1.0
141
50.0
290
     0
  0
SCALE
  5
53
102
{ACAD_REACTORS
330
47
102
}
330
47
100
AcDbScale
 70
     0
300
1:100
140
1.0
141
100.0
290
     0
  0
SCALE
  5
54
102
{ACAD_REACTORS
330
47
102
}
330
47
100
AcDbScale
 70
     0
300
2:1
140
2.0
141
1.0
290
     0
  0
SCALE
  5
55
102
{ACAD_REACTORS
330
47
102
}
330
47
100
AcDbScale
 70
     0
300
4:1
140
4.0
141
1.0
290
     0
  0
SCALE
  5
56
102
{ACAD_REACTORS
330
47
102
}
330
47
100
AcDbScale
 70
     0
300
8:1
140
8.0
141
1.0
290
     0
  0
SCALE
  5
57
102
{ACAD_REACTORS
330
47
102
}
330
47
100
AcDbScale
 70
     0
300
10:1
140
10.0
141
1.0
290
     0
  0
SCALE
  5
58
102
{ACAD_REACTORS
330
47
102
}
330
47
100
AcDbScale
 70
     0
300
100:1
140
100.0
141
1.0
290
     0
  0
SCALE
  5
59
102
{ACAD_REACTORS
330
47
102
}
330
47
100
AcDbScale
 70
     0
300
1/128" = 1'-0"
140
0.0078125
141
12.0
290
     0
  0
SCALE
  5
5A
102
{ACAD_REACTORS
330
47
102
}
330
47
100
AcDbScale
 70
     0
300
1/64" = 1'-0"
140
0.015625
141
12.0
290
     0
  0
SCALE
  5
5B
102
{ACAD_REACTORS
330
47
102
}
330
47
100
AcDbScale
 70
     0
300
1/32" = 1'-0"
140
0.03125
141
12.0
290
     0
  0
SCALE
  5
5C
102
{ACAD_REACTORS
330
47
102
}
330
47
100
AcDbScale
 70
     0
300
1/16" = 1'-0"
140
0.0625
141
12.0
290
     0
  0
SCALE
  5
5D
102
{ACAD_REACTORS
330
47
102
}
330
47
100
AcDbScale
 70
     0
300
3/32" = 1'-0"
140
0.09375
141
12.0
290
     0
  0
SCALE
  5
5E
102
{ACAD_REACTORS
330
47
102
}
330
47
100
AcDbScale
 70
     0
300
1/8" = 1'-0"
140
0.125
141
12.0
290
     0
  0
SCALE
  5
5F
102
{ACAD_REACTORS
330
47
102
}
330
47
100
AcDbScale
 70
     0
300
3/16" = 1'-0"
140
0.1875
141
12.0
290
     0
  0
SCALE
  5
60
102
{ACAD_REACTORS
330
47
102
}
330
47
100
AcDbScale
 70
     0
300
1/4" = 1'-0"
140
0.25
141
12.0
290
     0
  0
SCALE
  5
61
102
{ACAD_REACTORS
330
47
102
}
330
47
100
AcDbScale
 70
     0
300
3/8" = 1'-0"
140
0.375
141
12.0
290
     0
  0
SCALE
  5
62
102
{ACAD_REACTORS
330
47
102
}
330
47
100
AcDbScale
 70
     0
300
1/2" = 1'-0"
140
0.5
141
12.0
290
     0
  0
SCALE
  5
63
102
{ACAD_REACTORS
330
47
102
}
330
47
100
AcDbScale
 70
     0
300
3/4" = 1'-0"
140
0.75
141
12.0
290
     0
  0
SCALE
  5
64
102
{ACAD_REACTORS
330
47
102
}
330
47
100
AcDbScale
 70
     0
300
1" = 1'-0"
140
1.0
141
12.0
290
     0
  0
SCALE
  5
65
102
{ACAD_REACTORS
330
47
102
}
330
47
100
AcDbScale
 70
     0
300
1-1/2" = 1'-0"
140
1.5
141
12.0
290
     0
  0
SCALE
  5
66
102
{ACAD_REACTORS
330
47
102
}
330
47
100
AcDbScale
 70
     0
300
3" = 1'-0"
140
3.0
141
12.0
290
     0
  0
SCALE
  5
67
102
{ACAD_REACTORS
330
47
102
}
330
47
100
AcDbScale
 70
     0
300
6" = 1'-0"
140
6.0
141
12.0
290
     0
  0
SCALE
  5
68
102
{ACAD_REACTORS
330
47
102
}
330
47
100
AcDbScale
 70
     0
300
1'-0" = 1'-0"
140
12.0
141
12.0
290
     0
  0
ENDSEC
  0
EOF
