  0
SECTION
  2
HEADER
  9
$ACADVER
  1
AC1015
  9
$ACADMAINTVER
 70
     6
  9
$DWGCODEPAGE
  3
ANSI_1252
  9
$INSBASE
 10
0.0
 20
0.0
 30
0.0
  9
$EXTMIN
 10
0.0
 20
0.0
 30
0.0
  9
$EXTMAX
 10
841.0
 20
594.0
 30
0.0
  9
$LIMMIN
 10
0.0
 20
0.0
  9
$LIMMAX
 10
841.0
 20
594.0
  9
$ORTHOMODE
 70
     0
  9
$REGENMODE
 70
     1
  9
$FILLMODE
 70
     1
  9
$QTEXTMODE
 70
     0
  9
$MIRRTEXT
 70
     1
  9
$LTSCALE
 40
1.0
  9
$ATTMODE
 70
     1
  9
$TEXTSIZE
 40
3.0
  9
$TRACEWID
 40
1.0
  9
$TEXTSTYLE
  7
Standard
  9
$CLAYER
  8
0
  9
$CELTYPE
  6
ByLayer
  9
$CECOLOR
 62
   256
  9
$CELTSCALE
 40
1.0
  9
$DISPSILH
 70
     0
  9
$DIMSCALE
 40
1.0
  9
$DIMASZ
 40
3.0
  9
$DIMEXO
 40
1.0
  9
$DIMDLI
 40
3.75
  9
$DIMRND
 40
0.0
  9
$DIMDLE
 40
0.0
  9
$DIMEXE
 40
1.0
  9
$DIMTP
 40
0.0
  9
$DIMTM
 40
0.0
  9
$DIMTXT
 40
3.0
  9
$DIMCEN
 40
2.5
  9
$DIMTSZ
 40
0.0
  9
$DIMTOL
 70
     0
  9
$DIMLIM
 70
     0
  9
$DIMTIH
 70
     1
  9
$DIMTOH
 70
     1
  9
$DIMSE1
 70
     0
  9
$DIMSE2
 70
     0
  9
$DIMTAD
 70
     1
  9
$DIMZIN
 70
     0
  9
$DIMBLK
  1

  9
$DIMASO
 70
     1
  9
$DIMSHO
 70
     1
  9
$DIMPOST
  1

  9
$DIMAPOST
  1

  9
$DIMALT
 70
     0
  9
$DIMALTD
 70
     3
  9
$DIMALTF
 40
0.0393700787
  9
$DIMLFAC
 40
1.0
  9
$DIMTOFL
 70
     1
  9
$DIMTVP
 40
0.0
  9
$DIMTIX
 70
     0
  9
$DIMSOXD
 70
     0
  9
$DIMSAH
 70
     0
  9
$DIMBLK1
  1

  9
$DIMBLK2
  1

  9
$DIMSTYLE
  2
ISO-25
  9
$DIMCLRD
 70
     0
  9
$DIMCLRE
 70
     0
  9
$DIMCLRT
 70
     0
  9
$DIMTFAC
 40
1.0
  9
$DIMGAP
 40
3.0
  9
$DIMJUST
 70
     0
  9
$DIMSD1
 70
     0
  9
$DIMSD2
 70
     0
  9
$DIMTOLJ
 70
     0
  9
$DIMTZIN
 70
     0
  9
$DIMALTZ
 70
     0
  9
$DIMALTTZ
 70
     0
  9
$DIMUPT
 70
     0
  9
$DIMDEC
 70
     2
  9
$DIMTDEC
 70
     3
  9
$DIMALTU
 70
     2
  9
$DIMALTTD
 70
     3
  9
$DIMTXSTY
  7
Standard
  9
$DIMAUNIT
 70
     0
  9
$DIMADEC
 70
     2
  9
$DIMALTRND
 40
0.0
  9
$DIMAZIN
 70
     0
  9
$DIMDSEP
 70
    44
  9
$DIMATFIT
 70
     3
  9
$DIMFRAC
 70
     0
  9
$DIMLDRBLK
  1

  9
$DIMLUNIT
 70
     2
  9
$DIMLWD
 70
    -2
  9
$DIMLWE
 70
    -2
  9
$DIMTMOVE
 70
     0
  9
$LUNITS
 70
     2
  9
$LUPREC
 70
     2
  9
$SKETCHINC
 40
1.0
  9
$FILLETRAD
 40
10.0
  9
$AUNITS
 70
     0
  9
$AUPREC
 70
     2
  9
$MENU
  1
.
  9
$ELEVATION
 40
0.0
  9
$PELEVATION
 40
0.0
  9
$THICKNESS
 40
0.0
  9
$LIMCHECK
 70
     0
  9
$CHAMFERA
 40
0.0
  9
$CHAMFERB
 40
0.0
  9
$CHAMFERC
 40
0.0
  9
$CHAMFERD
 40
0.0
  9
$SKPOLY
 70
     0
  9
$TDCREATE
 40
2457877.514759375
  9
$TDUCREATE
 40
2457877.431426042
  9
$TDUPDATE
 40
2457877.514760173
  9
$TDUUPDATE
 40
2457877.43142684
  9
$TDINDWG
 40
0.0000000116
  9
$TDUSRTIMER
 40
0.0000000116
  9
$USRTIMER
 70
     1
  9
$ANGBASE
 50
0.0
  9
$ANGDIR
 70
     0
  9
$PDMODE
 70
     0
  9
$PDSIZE
 40
-1.0
  9
$PLINEWID
 40
0.0
  9
$SPLFRAME
 70
     0
  9
$SPLINETYPE
 70
     6
  9
$SPLINESEGS
 70
     8
  9
$HANDSEED
  5
2CE
  9
$SURFTAB1
 70
     6
  9
$SURFTAB2
 70
     6
  9
$SURFTYPE
 70
     6
  9
$SURFU
 70
     6
  9
$SURFV
 70
     6
  9
$UCSBASE
  2

  9
$UCSNAME
  2

  9
$UCSORG
 10
0.0
 20
0.0
 30
0.0
  9
$UCSXDIR
 10
1.0
 20
0.0
 30
0.0
  9
$UCSYDIR
 10
0.0
 20
1.0
 30
0.0
  9
$UCSORTHOREF
  2

  9
$UCSORTHOVIEW
 70
     0
  9
$UCSORGTOP
 10
0.0
 20
0.0
 30
0.0
  9
$UCSORGBOTTOM
 10
0.0
 20
0.0
 30
0.0
  9
$UCSORGLEFT
 10
0.0
 20
0.0
 30
0.0
  9
$UCSORGRIGHT
 10
0.0
 20
0.0
 30
0.0
  9
$UCSORGFRONT
 10
0.0
 20
0.0
 30
0.0
  9
$UCSORGBACK
 10
0.0
 20
0.0
 30
0.0
  9
$PUCSBASE
  2

  9
$PUCSNAME
  2

  9
$PUCSORG
 10
0.0
 20
0.0
 30
0.0
  9
$PUCSXDIR
 10
1.0
 20
0.0
 30
0.0
  9
$PUCSYDIR
 10
0.0
 20
1.0
 30
0.0
  9
$PUCSORTHOREF
  2

  9
$PUCSORTHOVIEW
 70
     0
  9
$PUCSORGTOP
 10
0.0
 20
0.0
 30
0.0
  9
$PUCSORGBOTTOM
 10
0.0
 20
0.0
 30
0.0
  9
$PUCSORGLEFT
 10
0.0
 20
0.0
 30
0.0
  9
$PUCSORGRIGHT
 10
0.0
 20
0.0
 30
0.0
  9
$PUCSORGFRONT
 10
0.0
 20
0.0
 30
0.0
  9
$PUCSORGBACK
 10
0.0
 20
0.0
 30
0.0
  9
$USERI1
 70
     0
  9
$USERI2
 70
     0
  9
$USERI3
 70
     0
  9
$USERI4
 70
     0
  9
$USERI5
 70
     0
  9
$USERR1
 40
0.0
  9
$USERR2
 40
0.0
  9
$USERR3
 40
0.0
  9
$USERR4
 40
0.0
  9
$USERR5
 40
0.0
  9
$WORLDVIEW
 70
     1
  9
$SHADEDGE
 70
     3
  9
$SHADEDIF
 70
    70
  9
$TILEMODE
 70
     1
  9
$MAXACTVP
 70
    64
  9
$PINSBASE
 10
0.0
 20
0.0
 30
0.0
  9
$PLIMCHECK
 70
     0
  9
$PEXTMIN
 10
1.0000000000E+20
 20
1.0000000000E+20
 30
1.0000000000E+20
  9
$PEXTMAX
 10
-1.0000000000E+20
 20
-1.0000000000E+20
 30
-1.0000000000E+20
  9
$PLIMMIN
 10
0.0
 20
0.0
  9
$PLIMMAX
 10
420.0
 20
297.0
  9
$UNITMODE
 70
     0
  9
$VISRETAIN
 70
     1
  9
$PLINEGEN
 70
     0
  9
$PSLTSCALE
 70
     1
  9
$TREEDEPTH
 70
  3020
  9
$CMLSTYLE
  2
Standard
  9
$CMLJUST
 70
     0
  9
$CMLSCALE
 40
20.0
  9
$PROXYGRAPHICS
 70
     1
  9
$MEASUREMENT
 70
     1
  9
$CELWEIGHT
370
    -1
  9
$ENDCAPS
280
     0
  9
$JOINSTYLE
280
     0
  9
$LWDISPLAY
290
     1
  9
$INSUNITS
 70
     4
  9
$HYPERLINKBASE
  1

  9
$STYLESHEET
  1

  9
$XEDIT
290
     1
  9
$CEPSNTYPE
380
     0
  9
$PSTYLEMODE
290
     1
  9
$FINGERPRINTGUID
  2
{2CBBBB51-6A1E-4EAD-A280-CC1AE8F0290F}
  9
$VERSIONGUID
  2
{FAEB1C32-E019-11D5-929B-00C0DF256EC4}
  9
$EXTNAMES
290
     1
  9
$PSVPSCALE
 40
0.0
  9
$OLESTARTUP
290
     0
  0
ENDSEC
  0
SECTION
  2
CLASSES
  0
CLASS
  1
ACDBDICTIONARYWDFLT
  2
AcDbDictionaryWithDefault
  3
ObjectDBX Classes
 90
        0
280
     0
281
     0
  0
CLASS
  1
VISUALSTYLE
  2
AcDbVisualStyle
  3
ObjectDBX Classes
 90
     4095
280
     0
281
     0
  0
CLASS
  1
MATERIAL
  2
AcDbMaterial
  3
ObjectDBX Classes
 90
     1153
280
     0
281
     0
  0
CLASS
  1
SCALE
  2
AcDbScale
  3
ObjectDBX Classes
 90
     1153
280
     0
281
     0
  0
CLASS
  1
TABLESTYLE
  2
AcDbTableStyle
  3
ObjectDBX Classes
 90
     4095
280
     0
281
     0
  0
CLASS
  1
MLEADERSTYLE
  2
AcDbMLeaderStyle
  3
ACDB_MLEADERSTYLE_CLASS
 90
     4095
280
     0
281
     0
  0
CLASS
  1
SUN
  2
AcDbSun
  3
SCENEOE
 90
     1153
280
     0
281
     0
  0
CLASS
  1
ACDBPLACEHOLDER
  2
AcDbPlaceHolder
  3
ObjectDBX Classes
 90
        0
280
     0
281
     0
  0
CLASS
  1
LAYOUT
  2
AcDbLayout
  3
ObjectDBX Classes
 90
        0
280
     0
281
     0
  0
ENDSEC
  0
SECTION
  2
TABLES
  0
TABLE
  2
VPORT
  5
8
330
0
100
AcDbSymbolTable
 70
     1
  0
VPORT
  5
29
330
8
100
AcDbSymbolTableRecord
100
AcDbViewportTableRecord
  2
*Active
 70
     0
 10
0.0
 20
0.0
 11
1.0
 21
1.0
 12
420.5
 22
297.0
 13
0.0
 23
0.0
 14
10.0
 24
10.0
 15
10.0
 25
10.0
 16
0.0
 26
0.0
 36
1.0
 17
0.0
 27
0.0
 37
0.0
 40
594.0
 41
1.4158249158
 42
50.0
 43
0.0
 44
0.0
 50
0.0
 51
0.0
 71
     0
 72
  2000
 73
     1
 74
     3
 75
     0
 76
     0
 77
     0
 78
     0
281
     0
 65
     1
110
0.0
120
0.0
130
0.0
111
1.0
121
0.0
131
0.0
112
0.0
122
1.0
132
0.0
 79
     0
146
0.0
  0
ENDTAB
  0
TABLE
  2
LTYPE
  5
5
330
0
100
AcDbSymbolTable
 70
     6
  0
LTYPE
  5
14
330
5
100
AcDbSymbolTableRecord
100
AcDbLinetypeTableRecord
  2
ByBlock
 70
     0
  3

 72
    65
 73
     0
 40
0.0
  0
LTYPE
  5
15
330
5
100
AcDbSymbolTableRecord
100
AcDbLinetypeTableRecord
  2
ByLayer
 70
     0
  3

 72
    65
 73
     0
 40
0.0
  0
LTYPE
  5
16
330
5
100
AcDbSymbolTableRecord
100
AcDbLinetypeTableRecord
  2
Continuous
 70
     0
  3
Solid line
 72
    65
 73
     0
 40
0.0
  0
LTYPE
  5
6E
330
5
100
AcDbSymbolTableRecord
100
AcDbLinetypeTableRecord
  2
HIDDEN
 70
     0
  3
Hidden __ __ __ __ __ __ __ __ __ __ __ __ __ __
 72
    65
 73
     2
 40
1.905
 49
1.27
 74
     0
 49
-0.635
 74
     0
  0
LTYPE
  5
6F
330
5
100
AcDbSymbolTableRecord
100
AcDbLinetypeTableRecord
  2
PHANTOM
 70
     0
  3
Phantom ______  __  __  ______  __  __  ______
 72
    65
 73
     6
 40
12.7
 49
6.35
 74
     0
 49
-1.27
 74
     0
 49
1.27
 74
     0
 49
-1.27
 74
     0
 49
1.27
 74
     0
 49
-1.27
 74
     0
  0
LTYPE
  5
70
330
5
100
AcDbSymbolTableRecord
100
AcDbLinetypeTableRecord
  2
CENTER
 70
     0
  3
Center ____ _ ____ _ ____ _ ____ _ ____ _ ____
 72
    65
 73
     4
 40
10.16
 49
6.35
 74
     0
 49
-1.27
 74
     0
 49
1.27
 74
     0
 49
-1.27
 74
     0
  0
LTYPE
  5
71
330
5
100
AcDbSymbolTableRecord
100
AcDbLinetypeTableRecord
  2
CENTERX2
 70
     0
  3
Center (2x) ________  __  ________  __  _____
 72
    65
 73
     4
 40
20.32
 49
12.7
 74
     0
 49
-2.54
 74
     0
 49
2.54
 74
     0
 49
-2.54
 74
     0
  0
LTYPE
  5
72
330
5
100
AcDbSymbolTableRecord
100
AcDbLinetypeTableRecord
  2
DOT2
 70
     0
  3
Dot (.5x) ........................................
 72
    65
 73
     2
 40
0.635
 49
0.0
 74
     0
 49
-0.635
 74
     0
  0
ENDTAB
  0
TABLE
  2
LAYER
  5
2
330
0
100
AcDbSymbolTable
 70
     1
  0
LAYER
  5
10
330
2
100
AcDbSymbolTableRecord
100
AcDbLayerTableRecord
  2
0
 70
     0
 62
     7
  6
Continuous
370
    -3
390
F
  0
ENDTAB
  0
TABLE
  2
STYLE
  5
3
330
0
100
AcDbSymbolTable
 70
     5
  0
STYLE
  5
11
330
3
100
AcDbSymbolTableRecord
100
AcDbTextStyleTableRecord
  2
Standard
 70
     0
 40
0.0
 41
1.0
 50
0.0
 71
     0
 42
3.0
  3
txt
  4

  0
STYLE
  5
DD
330
3
100
AcDbSymbolTableRecord
100
AcDbTextStyleTableRecord
  2
SLDTEXTSTYLE0
 70
     0
 40
0.0
 41
0.5316086498
 50
0.0
 71
     0
 42
3.0
  3
TXT
  4

  0
STYLE
  5
DF
330
3
100
AcDbSymbolTableRecord
100
AcDbTextStyleTableRecord
  2
SLDTEXTSTYLE1
 70
     0
 40
0.0
 41
0.8435443038
 50
0.0
 71
     0
 42
3.0
  3
ISOCP
  4

  0
STYLE
  5
11D
330
3
100
AcDbSymbolTableRecord
100
AcDbTextStyleTableRecord
  2
SLDTEXTSTYLE2
 70
     0
 40
0.0
 41
0.96
 50
0.0
 71
     0
 42
3.0
  3
ISOCP
  4

  0
STYLE
  5
133
330
3
100
AcDbSymbolTableRecord
100
AcDbTextStyleTableRecord
  2
SLDTEXTSTYLE3
 70
     0
 40
0.0
 41
1.0126582278
 50
0.0
 71
     0
 42
3.0
  3
ISOCP
  4

  0
ENDTAB
  0
TABLE
  2
VIEW
  5
6
330
0
100
AcDbSymbolTable
 70
     0
  0
ENDTAB
  0
TABLE
  2
UCS
  5
7
330
0
100
AcDbSymbolTable
 70
     0
  0
ENDTAB
  0
TABLE
  2
APPID
  5
9
330
0
100
AcDbSymbolTable
 70
     1
  0
APPID
  5
12
330
9
100
AcDbSymbolTableRecord
100
AcDbRegAppTableRecord
  2
ACAD
 70
     0
  0
ENDTAB
  0
TABLE
  2
DIMSTYLE
  5
A
330
0
100
AcDbSymbolTable
 70
     1
100
AcDbDimStyleTable
  0
DIMSTYLE
105
27
330
A
100
AcDbSymbolTableRecord
100
AcDbDimStyleTableRecord
  2
ISO-25
 70
     0
 41
2.5
 42
0.625
 43
3.75
 44
1.25
 73
     0
 74
     0
 77
     1
 78
     8
140
2.5
141
2.5
143
0.0393700787
147
0.625
171
     3
172
     1
178
     0
271
     2
272
     2
274
     3
278
    44
283
     0
284
     8
340
11
  0
ENDTAB
  0
TABLE
  2
BLOCK_RECORD
  5
1
330
0
100
AcDbSymbolTable
 70
     4
  0
BLOCK_RECORD
  5
1F
330
1
100
AcDbSymbolTableRecord
100
AcDbBlockTableRecord
  2
*Model_Space
340
22
  0
BLOCK_RECORD
  5
1B
330
1
100
AcDbSymbolTableRecord
100
AcDbBlockTableRecord
  2
*Paper_Space
340
1E
  0
BLOCK_RECORD
  5
23
330
1
100
AcDbSymbolTableRecord
100
AcDbBlockTableRecord
  2
*Paper_Space0
340
26
  0
BLOCK_RECORD
  5
73
330
1
100
AcDbSymbolTableRecord
100
AcDbBlockTableRecord
  2
A1H
340
0
  0
BLOCK_RECORD
  5
11A
330
1
100
AcDbSymbolTableRecord
100
AcDbBlockTableRecord
  2
Nota legale
340
0
  0
BLOCK_RECORD
  5
11F
330
1
100
AcDbSymbolTableRecord
100
AcDbBlockTableRecord
  2
ISO2768
340
0
  0
ENDTAB
  0
ENDSEC
  0
SECTION
  2
BLOCKS
  0
BLOCK
  5
20
330
1F
100
AcDbEntity
  8
0
100
AcDbBlockBegin
  2
*Model_Space
 70
     0
 10
0.0
 20
0.0
 30
0.0
  3
*Model_Space
  1

  0
ENDBLK
  5
21
330
1F
100
AcDbEntity
  8
0
100
AcDbBlockEnd
  0
BLOCK
  5
1C
330
1B
100
AcDbEntity
 67
     1
  8
0
100
AcDbBlockBegin
  2
*Paper_Space
 70
     0
 10
0.0
 20
0.0
 30
0.0
  3
*Paper_Space
  1

  0
ENDBLK
  5
1D
330
1B
100
AcDbEntity
 67
     1
  8
0
100
AcDbBlockEnd
  0
BLOCK
  5
24
330
23
100
AcDbEntity
  8
0
100
AcDbBlockBegin
  2
*Paper_Space0
 70
     0
 10
0.0
 20
0.0
 30
0.0
  3
*Paper_Space0
  1

  0
ENDBLK
  5
25
330
23
100
AcDbEntity
  8
0
100
AcDbBlockEnd
  0
BLOCK
  5
74
330
73
100
AcDbEntity
  8
0
100
AcDbBlockBegin
  2
A1H
 70
     0
 10
0.0
 20
0.0
 30
0.0
  3
A1H
  1

  0
LINE
  5
76
330
73
100
AcDbEntity
  8
0
  6
Continuous
 62
     7
370
     0
100
AcDbLine
 10
831.000000015
 20
297.0000020355
 30
0.0
 11
836.0
 21
294.8865984457
 31
0.0
  0
LINE
  5
77
330
73
100
AcDbEntity
  8
0
  6
Continuous
 62
     7
370
     0
100
AcDbLine
 10
831.000000015
 20
297.0000020355
 30
0.0
 11
836.0
 21
299.1134051111
 31
0.0
  0
LINE
  5
78
330
73
100
AcDbEntity
  8
0
  6
Continuous
 62
     7
370
     0
100
AcDbLine
 10
678.9375
 20
10.0
 30
0.0
 11
678.9375
 21
4.9999966063
 31
0.0
  0
LINE
  5
79
330
73
100
AcDbEntity
  8
0
  6
Continuous
 62
     7
370
     0
100
AcDbLine
 10
628.25
 20
10.0
 30
0.0
 11
628.25
 21
4.9999966063
 31
0.0
  0
LINE
  5
7A
330
73
100
AcDbEntity
  8
0
  6
Continuous
 62
     7
370
     0
100
AcDbLine
 10
577.5625
 20
10.0
 30
0.0
 11
577.5625
 21
4.9999966063
 31
0.0
  0
LINE
  5
7B
330
73
100
AcDbEntity
  8
0
  6
Continuous
 62
     7
370
     0
100
AcDbLine
 10
526.875
 20
10.0
 30
0.0
 11
526.875
 21
4.9999966063
 31
0.0
  0
LINE
  5
7C
330
73
100
AcDbEntity
  8
0
  6
Continuous
 62
     7
370
     0
100
AcDbLine
 10
476.1875
 20
10.0
 30
0.0
 11
476.1875
 21
4.9999966063
 31
0.0
  0
LINE
  5
7D
330
73
100
AcDbEntity
  8
0
  6
Continuous
 62
     7
370
     0
100
AcDbLine
 10
425.5
 20
10.0
 30
0.0
 11
425.5
 21
5.0
 31
0.0
  0
LINE
  5
7E
330
73
100
AcDbEntity
  8
0
  6
Continuous
 62
     7
370
     0
100
AcDbLine
 10
374.8125
 20
10.0
 30
0.0
 11
374.8125
 21
4.9999966063
 31
0.0
  0
LINE
  5
7F
330
73
100
AcDbEntity
  8
0
  6
Continuous
 62
     7
370
     0
100
AcDbLine
 10
324.125
 20
10.0
 30
0.0
 11
324.125
 21
4.9999966063
 31
0.0
  0
LINE
  5
80
330
73
100
AcDbEntity
  8
0
  6
Continuous
 62
     7
370
     0
100
AcDbLine
 10
273.4375
 20
10.0
 30
0.0
 11
273.4375
 21
4.9999966063
 31
0.0
  0
LINE
  5
81
330
73
100
AcDbEntity
  8
0
  6
Continuous
 62
     7
370
     0
100
AcDbLine
 10
222.75
 20
10.0
 30
0.0
 11
222.75
 21
4.9999966063
 31
0.0
  0
LINE
  5
82
330
73
100
AcDbEntity
  8
0
  6
Continuous
 62
     7
370
     0
100
AcDbLine
 10
172.0625
 20
10.0
 30
0.0
 11
172.0625
 21
4.9999966063
 31
0.0
  0
LINE
  5
83
330
73
100
AcDbEntity
  8
0
  6
Continuous
 62
     7
370
     0
100
AcDbLine
 10
121.375
 20
10.0
 30
0.0
 11
121.375
 21
4.9999966063
 31
0.0
  0
LINE
  5
84
330
73
100
AcDbEntity
  8
0
  6
Continuous
 62
     7
370
     0
100
AcDbLine
 10
70.6875
 20
10.0
 30
0.0
 11
70.6875
 21
4.9999966063
 31
0.0
  0
LINE
  5
85
330
73
100
AcDbEntity
  8
0
  6
Continuous
 62
     7
370
     0
100
AcDbLine
 10
831.0
 20
589.0
 30
0.0
 11
831.0
 21
583.9999966063
 31
0.0
  0
LINE
  5
86
330
73
100
AcDbEntity
  8
0
  6
Continuous
 62
     7
370
     0
100
AcDbLine
 10
780.3125
 20
589.0
 30
0.0
 11
780.3125
 21
583.9999966063
 31
0.0
  0
LINE
  5
87
330
73
100
AcDbEntity
  8
0
  6
Continuous
 62
     7
370
     0
100
AcDbLine
 10
729.625
 20
589.0
 30
0.0
 11
729.625
 21
583.9999966063
 31
0.0
  0
LINE
  5
88
330
73
100
AcDbEntity
  8
0
  6
Continuous
 62
     7
370
     0
100
AcDbLine
 10
678.9375
 20
589.0
 30
0.0
 11
678.9375
 21
583.9999966063
 31
0.0
  0
LINE
  5
89
330
73
100
AcDbEntity
  8
0
  6
Continuous
 62
     7
370
     0
100
AcDbLine
 10
628.25
 20
589.0
 30
0.0
 11
628.25
 21
583.9999966063
 31
0.0
  0
LINE
  5
8A
330
73
100
AcDbEntity
  8
0
  6
Continuous
 62
     7
370
     0
100
AcDbLine
 10
577.5625
 20
589.0
 30
0.0
 11
577.5625
 21
583.9999966063
 31
0.0
  0
LINE
  5
8B
330
73
100
AcDbEntity
  8
0
  6
Continuous
 62
     7
370
     0
100
AcDbLine
 10
526.875
 20
589.0
 30
0.0
 11
526.875
 21
583.9999966063
 31
0.0
  0
LINE
  5
8C
330
73
100
AcDbEntity
  8
0
  6
Continuous
 62
     7
370
     0
100
AcDbLine
 10
476.1875
 20
589.0
 30
0.0
 11
476.1875
 21
583.9999966063
 31
0.0
  0
LINE
  5
8D
330
73
100
AcDbEntity
  8
0
  6
Continuous
 62
     7
370
     0
100
AcDbLine
 10
425.5
 20
589.0
 30
0.0
 11
425.5
 21
583.9999966063
 31
0.0
  0
LINE
  5
8E
330
73
100
AcDbEntity
  8
0
  6
Continuous
 62
     7
370
     0
100
AcDbLine
 10
374.8125
 20
589.0
 30
0.0
 11
374.8125
 21
583.9999966063
 31
0.0
  0
LINE
  5
8F
330
73
100
AcDbEntity
  8
0
  6
Continuous
 62
     7
370
     0
100
AcDbLine
 10
324.125
 20
589.0
 30
0.0
 11
324.125
 21
583.9999966063
 31
0.0
  0
LINE
  5
90
330
73
100
AcDbEntity
  8
0
  6
Continuous
 62
     7
370
     0
100
AcDbLine
 10
273.4375
 20
589.0
 30
0.0
 11
273.4375
 21
583.9999966063
 31
0.0
  0
LINE
  5
91
330
73
100
AcDbEntity
  8
0
  6
Continuous
 62
     7
370
     0
100
AcDbLine
 10
222.75
 20
589.0
 30
0.0
 11
222.75
 21
583.9999966063
 31
0.0
  0
LINE
  5
92
330
73
100
AcDbEntity
  8
0
  6
Continuous
 62
     7
370
     0
100
AcDbLine
 10
172.0625
 20
589.0
 30
0.0
 11
172.0625
 21
583.9999966063
 31
0.0
  0
LINE
  5
93
330
73
100
AcDbEntity
  8
0
  6
Continuous
 62
     7
370
     0
100
AcDbLine
 10
121.375
 20
589.0
 30
0.0
 11
121.375
 21
583.9999966063
 31
0.0
  0
LINE
  5
94
330
73
100
AcDbEntity
  8
0
  6
Continuous
 62
     7
370
     0
100
AcDbLine
 10
70.6875
 20
589.0
 30
0.0
 11
70.6875
 21
583.9999966063
 31
0.0
  0
LINE
  5
95
330
73
100
AcDbEntity
  8
0
  6
Continuous
 62
     7
370
     0
100
AcDbLine
 10
211.0
 20
589.0
 30
0.0
 11
211.0
 21
583.9999966063
 31
0.0
  0
LINE
  5
96
330
73
100
AcDbEntity
  8
0
  6
Continuous
 62
     7
370
     0
100
AcDbLine
 10
286.0
 20
583.9999966063
 30
0.0
 11
288.1134033203
 21
589.0
 31
0.0
  0
LINE
  5
97
330
73
100
AcDbEntity
  8
0
  6
Continuous
 62
     7
370
     0
100
AcDbLine
 10
286.0
 20
583.9999966063
 30
0.0
 11
283.8865966797
 21
589.0
 31
0.0
  0
LINE
  5
98
330
73
100
AcDbEntity
  8
0
  6
Continuous
 62
     7
370
     0
100
AcDbLine
 10
340.5
 20
583.9999966063
 30
0.0
 11
342.6134033203
 21
589.0
 31
0.0
  0
LINE
  5
99
330
73
100
AcDbEntity
  8
0
  6
Continuous
 62
     7
370
     0
100
AcDbLine
 10
340.5
 20
583.9999966063
 30
0.0
 11
338.3865966797
 21
589.0
 31
0.0
  0
LINE
  5
9A
330
73
100
AcDbEntity
  8
0
  6
Continuous
 62
     7
370
     0
100
AcDbLine
 10
421.0
 20
589.0
 30
0.0
 11
421.0
 21
583.9999966063
 31
0.0
  0
LINE
  5
9B
330
73
100
AcDbEntity
  8
0
  6
Continuous
 62
     7
370
     0
100
AcDbLine
 10
631.0
 20
589.0
 30
0.0
 11
631.0
 21
583.9999966063
 31
0.0
  0
LINE
  5
9C
330
73
100
AcDbEntity
  8
0
  6
Continuous
 62
     7
370
     0
100
AcDbLine
 10
656.0
 20
583.9999966063
 30
0.0
 11
658.1134033203
 21
589.0
 31
0.0
  0
LINE
  5
9D
330
73
100
AcDbEntity
  8
0
  6
Continuous
 62
     7
370
     0
100
AcDbLine
 10
656.0
 20
583.9999966063
 30
0.0
 11
653.8865966797
 21
589.0
 31
0.0
  0
LINE
  5
9E
330
73
100
AcDbEntity
  8
0
  6
Continuous
 62
     7
370
     0
100
AcDbLine
 10
211.0
 20
4.9999966063
 30
0.0
 11
211.0
 21
10.0
 31
0.0
  0
LINE
  5
9F
330
73
100
AcDbEntity
  8
0
  6
Continuous
 62
     7
370
     0
100
AcDbLine
 10
285.9999985656
 20
10.0
 30
0.0
 11
288.1134023207
 21
4.9999966063
 31
0.0
  0
LINE
  5
A0
330
73
100
AcDbEntity
  8
0
  6
Continuous
 62
     7
370
     0
100
AcDbLine
 10
285.9999985656
 20
10.0
 30
0.0
 11
283.8865968971
 21
4.9999966063
 31
0.0
  0
LINE
  5
A1
330
73
100
AcDbEntity
  8
0
  6
Continuous
 62
     7
370
     0
100
AcDbLine
 10
340.5
 20
10.0
 30
0.0
 11
342.6134033203
 21
4.9999966063
 31
0.0
  0
LINE
  5
A2
330
73
100
AcDbEntity
  8
0
  6
Continuous
 62
     7
370
     0
100
AcDbLine
 10
340.5
 20
10.0
 30
0.0
 11
338.3865966797
 21
4.9999966063
 31
0.0
  0
LINE
  5
A3
330
73
100
AcDbEntity
  8
0
  6
Continuous
 62
     7
370
     0
100
AcDbLine
 10
421.0
 20
4.9999966063
 30
0.0
 11
421.0
 21
10.0
 31
0.0
  0
LINE
  5
A4
330
73
100
AcDbEntity
  8
0
  6
Continuous
 62
     7
370
     0
100
AcDbLine
 10
631.0
 20
4.9999966063
 30
0.0
 11
631.0
 21
10.0
 31
0.0
  0
LINE
  5
A5
330
73
100
AcDbEntity
  8
0
  6
Continuous
 62
     7
370
     0
100
AcDbLine
 10
656.0
 20
10.0
 30
0.0
 11
658.1134033203
 21
4.9999966063
 31
0.0
  0
LINE
  5
A6
330
73
100
AcDbEntity
  8
0
  6
Continuous
 62
     7
370
     0
100
AcDbLine
 10
656.0
 20
10.0
 30
0.0
 11
653.8865966797
 21
4.9999966063
 31
0.0
  0
LINE
  5
A7
330
73
100
AcDbEntity
  8
0
  6
Continuous
 62
     7
370
     0
100
AcDbLine
 10
836.0
 20
57.833337
 30
0.0
 11
831.0
 21
57.833337
 31
0.0
  0
LINE
  5
A8
330
73
100
AcDbEntity
  8
0
  6
Continuous
 62
     7
370
     0
100
AcDbLine
 10
836.0
 20
105.66667
 30
0.0
 11
831.0
 21
105.66667
 31
0.0
  0
LINE
  5
A9
330
73
100
AcDbEntity
  8
0
  6
Continuous
 62
     7
370
     0
100
AcDbLine
 10
836.0
 20
153.500003
 30
0.0
 11
831.0
 21
153.500003
 31
0.0
  0
LINE
  5
AA
330
73
100
AcDbEntity
  8
0
  6
Continuous
 62
     7
370
     0
100
AcDbLine
 10
836.0
 20
201.333336
 30
0.0
 11
831.0
 21
201.333336
 31
0.0
  0
LINE
  5
AB
330
73
100
AcDbEntity
  8
0
  6
Continuous
 62
     7
370
     0
100
AcDbLine
 10
836.0
 20
249.166669
 30
0.0
 11
831.0
 21
249.166669
 31
0.0
  0
LINE
  5
AC
330
73
100
AcDbEntity
  8
0
  6
Continuous
 62
     7
370
     0
100
AcDbLine
 10
836.0
 20
296.9999983032
 30
0.0
 11
831.000000015
 21
297.0000020355
 31
0.0
  0
LINE
  5
AD
330
73
100
AcDbEntity
  8
0
  6
Continuous
 62
     7
370
     0
100
AcDbLine
 10
836.0
 20
344.833335
 30
0.0
 11
831.0
 21
344.833335
 31
0.0
  0
LINE
  5
AE
330
73
100
AcDbEntity
  8
0
  6
Continuous
 62
     7
370
     0
100
AcDbLine
 10
836.0
 20
392.666668
 30
0.0
 11
831.0
 21
392.666668
 31
0.0
  0
LINE
  5
AF
330
73
100
AcDbEntity
  8
0
  6
Continuous
 62
     7
370
     0
100
AcDbLine
 10
836.0
 20
440.500001
 30
0.0
 11
831.0
 21
440.500001
 31
0.0
  0
LINE
  5
B0
330
73
100
AcDbEntity
  8
0
  6
Continuous
 62
     7
370
     0
100
AcDbLine
 10
836.0
 20
488.333334
 30
0.0
 11
831.0
 21
488.333334
 31
0.0
  0
LINE
  5
B1
330
73
100
AcDbEntity
  8
0
  6
Continuous
 62
     7
370
     0
100
AcDbLine
 10
836.0
 20
536.166667
 30
0.0
 11
831.0
 21
536.166667
 31
0.0
  0
LINE
  5
B2
330
73
100
AcDbEntity
  8
0
  6
Continuous
 62
     7
370
     0
100
AcDbLine
 10
20.0000033937
 20
10.0
 30
0.0
 11
15.0
 21
10.0
 31
0.0
  0
LINE
  5
B3
330
73
100
AcDbEntity
  8
0
  6
Continuous
 62
     7
370
     0
100
AcDbLine
 10
20.0000033937
 20
57.833337
 30
0.0
 11
15.0
 21
57.833337
 31
0.0
  0
LINE
  5
B4
330
73
100
AcDbEntity
  8
0
  6
Continuous
 62
     7
370
     0
100
AcDbLine
 10
20.0000033937
 20
105.66667
 30
0.0
 11
15.0
 21
105.66667
 31
0.0
  0
LINE
  5
B5
330
73
100
AcDbEntity
  8
0
  6
Continuous
 62
     7
370
     0
100
AcDbLine
 10
20.0000033937
 20
153.500003
 30
0.0
 11
15.0
 21
153.500003
 31
0.0
  0
LINE
  5
B6
330
73
100
AcDbEntity
  8
0
  6
Continuous
 62
     7
370
     0
100
AcDbLine
 10
20.0000033937
 20
201.333336
 30
0.0
 11
15.0
 21
201.333336
 31
0.0
  0
LINE
  5
B7
330
73
100
AcDbEntity
  8
0
  6
Continuous
 62
     7
370
     0
100
AcDbLine
 10
20.0000033937
 20
249.166669
 30
0.0
 11
15.0
 21
249.166669
 31
0.0
  0
LINE
  5
B8
330
73
100
AcDbEntity
  8
0
  6
Continuous
 62
     7
370
     0
100
AcDbLine
 10
20.0000033937
 20
297.000002
 30
0.0
 11
15.0
 21
297.000002
 31
0.0
  0
LINE
  5
B9
330
73
100
AcDbEntity
  8
0
  6
Continuous
 62
     7
370
     0
100
AcDbLine
 10
20.0000033937
 20
344.833335
 30
0.0
 11
15.0
 21
344.833335
 31
0.0
  0
LINE
  5
BA
330
73
100
AcDbEntity
  8
0
  6
Continuous
 62
     7
370
     0
100
AcDbLine
 10
20.0000033937
 20
392.666668
 30
0.0
 11
15.0
 21
392.666668
 31
0.0
  0
LINE
  5
BB
330
73
100
AcDbEntity
  8
0
  6
Continuous
 62
     7
370
     0
100
AcDbLine
 10
20.0000033937
 20
440.500001
 30
0.0
 11
15.0
 21
440.500001
 31
0.0
  0
LINE
  5
BC
330
73
100
AcDbEntity
  8
0
  6
Continuous
 62
     7
370
     0
100
AcDbLine
 10
20.0000033937
 20
488.333334
 30
0.0
 11
15.0
 21
488.333334
 31
0.0
  0
LINE
  5
BD
330
73
100
AcDbEntity
  8
0
  6
Continuous
 62
     7
370
     0
100
AcDbLine
 10
831.0
 20
589.0
 30
0.0
 11
831.0
 21
583.9999966063
 31
0.0
  0
LINE
  5
BE
330
73
100
AcDbEntity
  8
0
  6
Continuous
 62
     7
370
     0
100
AcDbLine
 10
20.0000033937
 20
536.166667
 30
0.0
 11
15.0
 21
536.166667
 31
0.0
  0
LINE
  5
BF
330
73
100
AcDbEntity
  8
0
  6
Continuous
 62
     7
370
     0
100
AcDbLine
 10
821.0
 20
10.0
 30
0.0
 11
821.0
 21
4.9999966063
 31
0.0
  0
LINE
  5
C0
330
73
100
AcDbEntity
  8
0
  6
Continuous
 62
     7
370
     0
100
AcDbLine
 10
811.0
 20
10.0
 30
0.0
 11
811.0
 21
4.9999966063
 31
0.0
  0
LINE
  5
C1
330
73
100
AcDbEntity
  8
0
  6
Continuous
 62
     7
370
     0
100
AcDbLine
 10
801.0
 20
10.0
 30
0.0
 11
801.0
 21
4.9999966063
 31
0.0
  0
LINE
  5
C2
330
73
100
AcDbEntity
  8
0
  6
Continuous
 62
     7
370
     0
100
AcDbLine
 10
791.0
 20
10.0
 30
0.0
 11
791.0
 21
4.9999966063
 31
0.0
  0
LINE
  5
C3
330
73
100
AcDbEntity
  8
0
  6
Continuous
 62
     7
370
     0
100
AcDbLine
 10
781.0
 20
10.0
 30
0.0
 11
781.0
 21
4.9999966063
 31
0.0
  0
LINE
  5
C4
330
73
100
AcDbEntity
  8
0
  6
Continuous
 62
     7
370
     0
100
AcDbLine
 10
771.0
 20
10.0
 30
0.0
 11
771.0
 21
4.9999966063
 31
0.0
  0
LINE
  5
C5
330
73
100
AcDbEntity
  8
0
  6
Continuous
 62
     7
370
     0
100
AcDbLine
 10
761.0
 20
10.0
 30
0.0
 11
761.0
 21
4.9999966063
 31
0.0
  0
LINE
  5
C6
330
73
100
AcDbEntity
  8
0
  6
Continuous
 62
     7
370
     0
100
AcDbLine
 10
751.0
 20
10.0
 30
0.0
 11
751.0
 21
4.9999966063
 31
0.0
  0
LINE
  5
C7
330
73
100
AcDbEntity
  8
0
  6
Continuous
 62
     7
370
     0
100
AcDbLine
 10
741.0
 20
10.0
 30
0.0
 11
741.0
 21
4.9999966063
 31
0.0
  0
LINE
  5
C8
330
73
100
AcDbEntity
  8
0
  6
Continuous
 62
     7
370
     0
100
AcDbLine
 10
731.0
 20
10.0
 30
0.0
 11
731.0
 21
4.9999966063
 31
0.0
  0
LINE
  5
C9
330
73
100
AcDbEntity
  8
0
  6
Continuous
 62
     7
370
     0
100
AcDbLine
 10
15.0
 20
4.9999966063
 30
0.0
 11
15.0
 21
589.0
 31
0.0
  0
LINE
  5
CA
330
73
100
AcDbEntity
  8
0
  6
Continuous
 62
     7
370
     0
100
AcDbLine
 10
836.0
 20
4.9999966063
 30
0.0
 11
15.0
 21
4.9999966063
 31
0.0
  0
LINE
  5
CB
330
73
100
AcDbEntity
  8
0
  6
Continuous
 62
     7
370
     0
100
AcDbLine
 10
836.0
 20
4.9999966063
 30
0.0
 11
836.0
 21
589.0
 31
0.0
  0
LINE
  5
CC
330
73
100
AcDbEntity
  8
0
  6
Continuous
 62
     7
370
     0
100
AcDbLine
 10
15.0
 20
589.0
 30
0.0
 11
836.0
 21
589.0
 31
0.0
  0
LINE
  5
CD
330
73
100
AcDbEntity
  8
0
  6
Continuous
 62
     7
370
     0
100
AcDbLine
 10
20.0000033937
 20
583.9999966063
 30
0.0
 11
20.0000033937
 21
589.0
 31
0.0
  0
LINE
  5
CE
330
73
100
AcDbEntity
  8
0
  6
Continuous
 62
     7
370
     0
100
AcDbLine
 10
20.0000033937
 20
10.0
 30
0.0
 11
20.0000033937
 21
583.9999966063
 31
0.0
  0
LINE
  5
CF
330
73
100
AcDbEntity
  8
0
  6
Continuous
 62
     7
370
     0
100
AcDbLine
 10
20.0000033937
 20
4.9999966063
 30
0.0
 11
20.0000033937
 21
10.0
 31
0.0
  0
LINE
  5
D0
330
73
100
AcDbEntity
  8
0
  6
Continuous
 62
     7
370
     0
100
AcDbLine
 10
831.0
 20
583.9999966063
 30
0.0
 11
831.0
 21
589.0
 31
0.0
  0
LINE
  5
D1
330
73
100
AcDbEntity
  8
0
  6
Continuous
 62
     7
370
     0
100
AcDbLine
 10
831.0
 20
10.0
 30
0.0
 11
831.0
 21
583.9999966063
 31
0.0
  0
LINE
  5
D2
330
73
100
AcDbEntity
  8
0
  6
Continuous
 62
     7
370
     0
100
AcDbLine
 10
831.0
 20
4.9999966063
 30
0.0
 11
831.0
 21
10.0
 31
0.0
  0
LINE
  5
D3
330
73
100
AcDbEntity
  8
0
  6
Continuous
 62
     7
370
     0
100
AcDbLine
 10
20.0000033937
 20
10.0
 30
0.0
 11
15.0
 21
10.0
 31
0.0
  0
LINE
  5
D4
330
73
100
AcDbEntity
  8
0
  6
Continuous
 62
     7
370
     0
100
AcDbLine
 10
831.0
 20
10.0
 30
0.0
 11
20.0000033937
 21
10.0
 31
0.0
  0
LINE
  5
D5
330
73
100
AcDbEntity
  8
0
  6
Continuous
 62
     7
370
     0
100
AcDbLine
 10
836.0
 20
10.0
 30
0.0
 11
831.0
 21
10.0
 31
0.0
  0
LINE
  5
D6
330
73
100
AcDbEntity
  8
0
  6
Continuous
 62
     7
370
     0
100
AcDbLine
 10
831.0
 20
583.9999966063
 30
0.0
 11
836.0
 21
583.9999966063
 31
0.0
  0
LINE
  5
D7
330
73
100
AcDbEntity
  8
0
  6
Continuous
 62
     7
370
     0
100
AcDbLine
 10
20.0000033937
 20
583.9999966063
 30
0.0
 11
831.0
 21
583.9999966063
 31
0.0
  0
LINE
  5
D8
330
73
100
AcDbEntity
  8
0
  6
Continuous
 62
     7
370
     0
100
AcDbLine
 10
15.0
 20
583.9999966063
 30
0.0
 11
20.0000033937
 21
583.9999966063
 31
0.0
  0
LINE
  5
D9
330
73
100
AcDbEntity
  8
0
  6
Continuous
 62
     7
370
     0
100
AcDbLine
 10
0.0
 20
594.0
 30
0.0
 11
0.0
 21
0.0
 31
0.0
  0
LINE
  5
DA
330
73
100
AcDbEntity
  8
0
  6
Continuous
 62
     7
370
     0
100
AcDbLine
 10
0.0
 20
594.0
 30
0.0
 11
841.0
 21
594.0
 31
0.0
  0
LINE
  5
DB
330
73
100
AcDbEntity
  8
0
  6
Continuous
 62
     7
370
     0
100
AcDbLine
 10
841.0
 20
0.0
 30
0.0
 11
841.0
 21
594.0
 31
0.0
  0
LINE
  5
DC
330
73
100
AcDbEntity
  8
0
  6
Continuous
 62
     7
370
     0
100
AcDbLine
 10
841.0
 20
0.0
 30
0.0
 11
0.0
 21
0.0
 31
0.0
  0
MTEXT
  5
DE
330
73
100
AcDbEntity
  8
0
  6
Continuous
 62
     7
370
     0
100
AcDbMText
 10
655.527178913
 20
7.389386302
 30
0.0
 40
1.5
 41
0.0
 71
     1
 72
     1
  1
1
  7
SLDTEXTSTYLE0
 73
     1
 44
1.0
  0
MTEXT
  5
E0
330
73
100
AcDbEntity
  8
0
  6
Continuous
 62
     7
370
     0
100
AcDbMText
 10
702.3899506522
 20
8.6449155598
 30
0.0
 40
3.0
 41
0.0
 71
     1
 72
     1
  1
13
  7
SLDTEXTSTYLE1
 73
     1
 44
1.0
  0
MTEXT
  5
E1
330
73
100
AcDbEntity
  8
0
  6
Continuous
 62
     7
370
     0
100
AcDbMText
 10
832.3587006522
 20
561.2282490598
 30
0.0
 40
3.0
 41
0.0
 71
     1
 72
     1
  1
A
  7
SLDTEXTSTYLE1
 73
     1
 44
1.0
  0
MTEXT
  5
E2
330
73
100
AcDbEntity
  8
0
  6
Continuous
 62
     7
370
     0
100
AcDbMText
 10
832.3587006522
 20
513.3949160598
 30
0.0
 40
3.0
 41
0.0
 71
     1
 72
     1
  1
B
  7
SLDTEXTSTYLE1
 73
     1
 44
1.0
  0
MTEXT
  5
E3
330
73
100
AcDbEntity
  8
0
  6
Continuous
 62
     7
370
     0
100
AcDbMText
 10
832.2934832609
 20
465.5615830598
 30
0.0
 40
3.0
 41
0.0
 71
     1
 72
     1
  1
C
  7
SLDTEXTSTYLE1
 73
     1
 44
1.0
  0
MTEXT
  5
E4
330
73
100
AcDbEntity
  8
0
  6
Continuous
 62
     7
370
     0
100
AcDbMText
 10
832.2934832609
 20
417.7282500598
 30
0.0
 40
3.0
 41
0.0
 71
     1
 72
     1
  1
D
  7
SLDTEXTSTYLE1
 73
     1
 44
1.0
  0
MTEXT
  5
E5
330
73
100
AcDbEntity
  8
0
  6
Continuous
 62
     7
370
     0
100
AcDbMText
 10
832.3587006522
 20
369.8949170598
 30
0.0
 40
3.0
 41
0.0
 71
     1
 72
     1
  1
E
  7
SLDTEXTSTYLE1
 73
     1
 44
1.0
  0
MTEXT
  5
E6
330
73
100
AcDbEntity
  8
0
  6
Continuous
 62
     7
370
     0
100
AcDbMText
 10
832.4565267391
 20
322.0615840598
 30
0.0
 40
3.0
 41
0.0
 71
     1
 72
     1
  1
F
  7
SLDTEXTSTYLE1
 73
     1
 44
1.0
  0
MTEXT
  5
E7
330
73
100
AcDbEntity
  8
0
  6
Continuous
 62
     7
370
     0
100
AcDbMText
 10
832.1956571739
 20
274.2282510598
 30
0.0
 40
3.0
 41
0.0
 71
     1
 72
     1
  1
G
  7
SLDTEXTSTYLE1
 73
     1
 44
1.0
  0
MTEXT
  5
E8
330
73
100
AcDbEntity
  8
0
  6
Continuous
 62
     7
370
     0
100
AcDbMText
 10
832.2934832609
 20
226.3949180598
 30
0.0
 40
3.0
 41
0.0
 71
     1
 72
     1
  1
H
  7
SLDTEXTSTYLE1
 73
     1
 44
1.0
  0
MTEXT
  5
E9
330
73
100
AcDbEntity
  8
0
  6
Continuous
 62
     7
370
     0
100
AcDbMText
 10
833.0434832609
 20
178.5615850598
 30
0.0
 40
3.0
 41
0.0
 71
     1
 72
     1
  1
I
  7
SLDTEXTSTYLE1
 73
     1
 44
1.0
  0
MTEXT
  5
EA
330
73
100
AcDbEntity
  8
0
  6
Continuous
 62
     7
370
     0
100
AcDbMText
 10
832.652178913
 20
130.7282520598
 30
0.0
 40
3.0
 41
0.0
 71
     1
 72
     1
  1
J
  7
SLDTEXTSTYLE1
 73
     1
 44
1.0
  0
MTEXT
  5
EB
330
73
100
AcDbEntity
  8
0
  6
Continuous
 62
     7
370
     0
100
AcDbMText
 10
832.3587006522
 20
82.8949190598
 30
0.0
 40
3.0
 41
0.0
 71
     1
 72
     1
  1
K
  7
SLDTEXTSTYLE1
 73
     1
 44
1.0
  0
MTEXT
  5
EC
330
73
100
AcDbEntity
  8
0
  6
Continuous
 62
     7
370
     0
100
AcDbMText
 10
832.5543528261
 20
39.0877190249
 30
0.0
 40
3.0
 41
0.0
 71
     1
 72
     1
  1
L
  7
SLDTEXTSTYLE1
 73
     1
 44
1.0
  0
MTEXT
  5
ED
330
73
100
AcDbEntity
  8
0
  6
Continuous
 62
     7
370
     0
100
AcDbMText
 10
655.527178913
 20
588.1028068642
 30
0.0
 40
1.5
 41
0.0
 71
     1
 72
     1
  1
1
  7
SLDTEXTSTYLE0
 73
     1
 44
1.0
  0
MTEXT
  5
EE
330
73
100
AcDbEntity
  8
0
  6
Continuous
 62
     7
370
     0
100
AcDbMText
 10
340.027178913
 20
588.1028068642
 30
0.0
 40
1.5
 41
0.0
 71
     1
 72
     1
  1
3
  7
SLDTEXTSTYLE0
 73
     1
 44
1.0
  0
MTEXT
  5
EF
330
73
100
AcDbEntity
  8
0
  6
Continuous
 62
     7
370
     0
100
AcDbMText
 10
285.527178913
 20
588.1028068642
 30
0.0
 40
1.5
 41
0.0
 71
     1
 72
     1
  1
2
  7
SLDTEXTSTYLE0
 73
     1
 44
1.0
  0
MTEXT
  5
F0
330
73
100
AcDbEntity
  8
0
  6
Continuous
 62
     7
370
     0
100
AcDbMText
 10
44.3981028261
 20
587.6449155598
 30
0.0
 40
3.0
 41
0.0
 71
     1
 72
     1
  1
1
  7
SLDTEXTSTYLE1
 73
     1
 44
1.0
  0
MTEXT
  5
F1
330
73
100
AcDbEntity
  8
0
  6
Continuous
 62
     7
370
     0
100
AcDbMText
 10
95.0856028261
 20
587.6449155598
 30
0.0
 40
3.0
 41
0.0
 71
     1
 72
     1
  1
2
  7
SLDTEXTSTYLE1
 73
     1
 44
1.0
  0
MTEXT
  5
F2
330
73
100
AcDbEntity
  8
0
  6
Continuous
 62
     7
370
     0
100
AcDbMText
 10
145.7731028261
 20
587.6449155598
 30
0.0
 40
3.0
 41
0.0
 71
     1
 72
     1
  1
3
  7
SLDTEXTSTYLE1
 73
     1
 44
1.0
  0
MTEXT
  5
F3
330
73
100
AcDbEntity
  8
0
  6
Continuous
 62
     7
370
     0
100
AcDbMText
 10
196.4606028261
 20
587.6449155598
 30
0.0
 40
3.0
 41
0.0
 71
     1
 72
     1
  1
4
  7
SLDTEXTSTYLE1
 73
     1
 44
1.0
  0
MTEXT
  5
F4
330
73
100
AcDbEntity
  8
0
  6
Continuous
 62
     7
370
     0
100
AcDbMText
 10
247.1481028261
 20
587.6449155598
 30
0.0
 40
3.0
 41
0.0
 71
     1
 72
     1
  1
5
  7
SLDTEXTSTYLE1
 73
     1
 44
1.0
  0
MTEXT
  5
F5
330
73
100
AcDbEntity
  8
0
  6
Continuous
 62
     7
370
     0
100
AcDbMText
 10
297.8356028261
 20
587.6449155598
 30
0.0
 40
3.0
 41
0.0
 71
     1
 72
     1
  1
6
  7
SLDTEXTSTYLE1
 73
     1
 44
1.0
  0
MTEXT
  5
F6
330
73
100
AcDbEntity
  8
0
  6
Continuous
 62
     7
370
     0
100
AcDbMText
 10
348.5231028261
 20
587.6449155598
 30
0.0
 40
3.0
 41
0.0
 71
     1
 72
     1
  1
7
  7
SLDTEXTSTYLE1
 73
     1
 44
1.0
  0
MTEXT
  5
F7
330
73
100
AcDbEntity
  8
0
  6
Continuous
 62
     7
370
     0
100
AcDbMText
 10
399.2106028261
 20
587.6449155598
 30
0.0
 40
3.0
 41
0.0
 71
     1
 72
     1
  1
8
  7
SLDTEXTSTYLE1
 73
     1
 44
1.0
  0
MTEXT
  5
F8
330
73
100
AcDbEntity
  8
0
  6
Continuous
 62
     7
370
     0
100
AcDbMText
 10
449.8981028261
 20
587.6449155598
 30
0.0
 40
3.0
 41
0.0
 71
     1
 72
     1
  1
9
  7
SLDTEXTSTYLE1
 73
     1
 44
1.0
  0
MTEXT
  5
F9
330
73
100
AcDbEntity
  8
0
  6
Continuous
 62
     7
370
     0
100
AcDbMText
 10
499.6399506522
 20
587.6449155598
 30
0.0
 40
3.0
 41
0.0
 71
     1
 72
     1
  1
10
  7
SLDTEXTSTYLE1
 73
     1
 44
1.0
  0
MTEXT
  5
FA
330
73
100
AcDbEntity
  8
0
  6
Continuous
 62
     7
370
     0
100
AcDbMText
 10
550.3274506522
 20
587.6449155598
 30
0.0
 40
3.0
 41
0.0
 71
     1
 72
     1
  1
11
  7
SLDTEXTSTYLE1
 73
     1
 44
1.0
  0
MTEXT
  5
FB
330
73
100
AcDbEntity
  8
0
  6
Continuous
 62
     7
370
     0
100
AcDbMText
 10
601.0149506522
 20
587.6449155598
 30
0.0
 40
3.0
 41
0.0
 71
     1
 72
     1
  1
12
  7
SLDTEXTSTYLE1
 73
     1
 44
1.0
  0
MTEXT
  5
FC
330
73
100
AcDbEntity
  8
0
  6
Continuous
 62
     7
370
     0
100
AcDbMText
 10
647.7024506522
 20
587.6449155598
 30
0.0
 40
3.0
 41
0.0
 71
     1
 72
     1
  1
13
  7
SLDTEXTSTYLE1
 73
     1
 44
1.0
  0
MTEXT
  5
FD
330
73
100
AcDbEntity
  8
0
  6
Continuous
 62
     7
370
     0
100
AcDbMText
 10
702.3899506522
 20
587.6449155598
 30
0.0
 40
3.0
 41
0.0
 71
     1
 72
     1
  1
14
  7
SLDTEXTSTYLE1
 73
     1
 44
1.0
  0
MTEXT
  5
FE
330
73
100
AcDbEntity
  8
0
  6
Continuous
 62
     7
370
     0
100
AcDbMText
 10
753.0774506522
 20
587.6449155598
 30
0.0
 40
3.0
 41
0.0
 71
     1
 72
     1
  1
15
  7
SLDTEXTSTYLE1
 73
     1
 44
1.0
  0
MTEXT
  5
FF
330
73
100
AcDbEntity
  8
0
  6
Continuous
 62
     7
370
     0
100
AcDbMText
 10
803.7649506522
 20
587.6449155598
 30
0.0
 40
3.0
 41
0.0
 71
     1
 72
     1
  1
16
  7
SLDTEXTSTYLE1
 73
     1
 44
1.0
  0
MTEXT
  5
100
330
73
100
AcDbEntity
  8
0
  6
Continuous
 62
     7
370
     0
100
AcDbMText
 10
340.027178913
 20
7.389386302
 30
0.0
 40
1.5
 41
0.0
 71
     1
 72
     1
  1
3
  7
SLDTEXTSTYLE0
 73
     1
 44
1.0
  0
MTEXT
  5
101
330
73
100
AcDbEntity
  8
0
  6
Continuous
 62
     7
370
     0
100
AcDbMText
 10
285.527178913
 20
7.389386302
 30
0.0
 40
1.5
 41
0.0
 71
     1
 72
     1
  1
2
  7
SLDTEXTSTYLE0
 73
     1
 44
1.0
  0
MTEXT
  5
102
330
73
100
AcDbEntity
  8
0
  6
Continuous
 62
     7
370
     0
100
AcDbMText
 10
44.3981028261
 20
8.6449155598
 30
0.0
 40
3.0
 41
0.0
 71
     1
 72
     1
  1
1
  7
SLDTEXTSTYLE1
 73
     1
 44
1.0
  0
MTEXT
  5
103
330
73
100
AcDbEntity
  8
0
  6
Continuous
 62
     7
370
     0
100
AcDbMText
 10
95.0856028261
 20
8.6449155598
 30
0.0
 40
3.0
 41
0.0
 71
     1
 72
     1
  1
2
  7
SLDTEXTSTYLE1
 73
     1
 44
1.0
  0
MTEXT
  5
104
330
73
100
AcDbEntity
  8
0
  6
Continuous
 62
     7
370
     0
100
AcDbMText
 10
145.7731028261
 20
8.6449155598
 30
0.0
 40
3.0
 41
0.0
 71
     1
 72
     1
  1
3
  7
SLDTEXTSTYLE1
 73
     1
 44
1.0
  0
MTEXT
  5
105
330
73
100
AcDbEntity
  8
0
  6
Continuous
 62
     7
370
     0
100
AcDbMText
 10
196.4606028261
 20
8.6449155598
 30
0.0
 40
3.0
 41
0.0
 71
     1
 72
     1
  1
4
  7
SLDTEXTSTYLE1
 73
     1
 44
1.0
  0
MTEXT
  5
106
330
73
100
AcDbEntity
  8
0
  6
Continuous
 62
     7
370
     0
100
AcDbMText
 10
247.1481028261
 20
8.6449155598
 30
0.0
 40
3.0
 41
0.0
 71
     1
 72
     1
  1
5
  7
SLDTEXTSTYLE1
 73
     1
 44
1.0
  0
MTEXT
  5
107
330
73
100
AcDbEntity
  8
0
  6
Continuous
 62
     7
370
     0
100
AcDbMText
 10
297.8356028261
 20
8.6449155598
 30
0.0
 40
3.0
 41
0.0
 71
     1
 72
     1
  1
6
  7
SLDTEXTSTYLE1
 73
     1
 44
1.0
  0
MTEXT
  5
108
330
73
100
AcDbEntity
  8
0
  6
Continuous
 62
     7
370
     0
100
AcDbMText
 10
348.5231028261
 20
8.6449155598
 30
0.0
 40
3.0
 41
0.0
 71
     1
 72
     1
  1
7
  7
SLDTEXTSTYLE1
 73
     1
 44
1.0
  0
MTEXT
  5
109
330
73
100
AcDbEntity
  8
0
  6
Continuous
 62
     7
370
     0
100
AcDbMText
 10
399.2106028261
 20
8.6449155598
 30
0.0
 40
3.0
 41
0.0
 71
     1
 72
     1
  1
8
  7
SLDTEXTSTYLE1
 73
     1
 44
1.0
  0
MTEXT
  5
10A
330
73
100
AcDbEntity
  8
0
  6
Continuous
 62
     7
370
     0
100
AcDbMText
 10
449.8981028261
 20
8.6449155598
 30
0.0
 40
3.0
 41
0.0
 71
     1
 72
     1
  1
9
  7
SLDTEXTSTYLE1
 73
     1
 44
1.0
  0
MTEXT
  5
10B
330
73
100
AcDbEntity
  8
0
  6
Continuous
 62
     7
370
     0
100
AcDbMText
 10
499.6399506522
 20
8.6449155598
 30
0.0
 40
3.0
 41
0.0
 71
     1
 72
     1
  1
10
  7
SLDTEXTSTYLE1
 73
     1
 44
1.0
  0
MTEXT
  5
10C
330
73
100
AcDbEntity
  8
0
  6
Continuous
 62
     7
370
     0
100
AcDbMText
 10
550.3274506522
 20
8.6449155598
 30
0.0
 40
3.0
 41
0.0
 71
     1
 72
     1
  1
11
  7
SLDTEXTSTYLE1
 73
     1
 44
1.0
  0
MTEXT
  5
10D
330
73
100
AcDbEntity
  8
0
  6
Continuous
 62
     7
370
     0
100
AcDbMText
 10
601.0149506522
 20
8.6449155598
 30
0.0
 40
3.0
 41
0.0
 71
     1
 72
     1
  1
12
  7
SLDTEXTSTYLE1
 73
     1
 44
1.0
  0
MTEXT
  5
10E
330
73
100
AcDbEntity
  8
0
  6
Continuous
 62
     7
370
     0
100
AcDbMText
 10
16.3587006522
 20
561.2282490598
 30
0.0
 40
3.0
 41
0.0
 71
     1
 72
     1
  1
A
  7
SLDTEXTSTYLE1
 73
     1
 44
1.0
  0
MTEXT
  5
10F
330
73
100
AcDbEntity
  8
0
  6
Continuous
 62
     7
370
     0
100
AcDbMText
 10
16.3587006522
 20
513.3949160598
 30
0.0
 40
3.0
 41
0.0
 71
     1
 72
     1
  1
B
  7
SLDTEXTSTYLE1
 73
     1
 44
1.0
  0
MTEXT
  5
110
330
73
100
AcDbEntity
  8
0
  6
Continuous
 62
     7
370
     0
100
AcDbMText
 10
16.2934832609
 20
465.5615830598
 30
0.0
 40
3.0
 41
0.0
 71
     1
 72
     1
  1
C
  7
SLDTEXTSTYLE1
 73
     1
 44
1.0
  0
MTEXT
  5
111
330
73
100
AcDbEntity
  8
0
  6
Continuous
 62
     7
370
     0
100
AcDbMText
 10
16.2934832609
 20
417.7282500598
 30
0.0
 40
3.0
 41
0.0
 71
     1
 72
     1
  1
D
  7
SLDTEXTSTYLE1
 73
     1
 44
1.0
  0
MTEXT
  5
112
330
73
100
AcDbEntity
  8
0
  6
Continuous
 62
     7
370
     0
100
AcDbMText
 10
16.3587006522
 20
369.8949170598
 30
0.0
 40
3.0
 41
0.0
 71
     1
 72
     1
  1
E
  7
SLDTEXTSTYLE1
 73
     1
 44
1.0
  0
MTEXT
  5
113
330
73
100
AcDbEntity
  8
0
  6
Continuous
 62
     7
370
     0
100
AcDbMText
 10
16.4565267391
 20
322.0615840598
 30
0.0
 40
3.0
 41
0.0
 71
     1
 72
     1
  1
F
  7
SLDTEXTSTYLE1
 73
     1
 44
1.0
  0
MTEXT
  5
114
330
73
100
AcDbEntity
  8
0
  6
Continuous
 62
     7
370
     0
100
AcDbMText
 10
16.1956571739
 20
274.2282510598
 30
0.0
 40
3.0
 41
0.0
 71
     1
 72
     1
  1
G
  7
SLDTEXTSTYLE1
 73
     1
 44
1.0
  0
MTEXT
  5
115
330
73
100
AcDbEntity
  8
0
  6
Continuous
 62
     7
370
     0
100
AcDbMText
 10
16.2934832609
 20
226.3949180598
 30
0.0
 40
3.0
 41
0.0
 71
     1
 72
     1
  1
H
  7
SLDTEXTSTYLE1
 73
     1
 44
1.0
  0
MTEXT
  5
116
330
73
100
AcDbEntity
  8
0
  6
Continuous
 62
     7
370
     0
100
AcDbMText
 10
17.0434832609
 20
178.5615850598
 30
0.0
 40
3.0
 41
0.0
 71
     1
 72
     1
  1
I
  7
SLDTEXTSTYLE1
 73
     1
 44
1.0
  0
MTEXT
  5
117
330
73
100
AcDbEntity
  8
0
  6
Continuous
 62
     7
370
     0
100
AcDbMText
 10
16.652178913
 20
130.7282520598
 30
0.0
 40
3.0
 41
0.0
 71
     1
 72
     1
  1
J
  7
SLDTEXTSTYLE1
 73
     1
 44
1.0
  0
MTEXT
  5
118
330
73
100
AcDbEntity
  8
0
  6
Continuous
 62
     7
370
     0
100
AcDbMText
 10
16.3587006522
 20
82.8949190598
 30
0.0
 40
3.0
 41
0.0
 71
     1
 72
     1
  1
K
  7
SLDTEXTSTYLE1
 73
     1
 44
1.0
  0
MTEXT
  5
119
330
73
100
AcDbEntity
  8
0
  6
Continuous
 62
     7
370
     0
100
AcDbMText
 10
16.5543528261
 20
35.0615860598
 30
0.0
 40
3.0
 41
0.0
 71
     1
 72
     1
  1
L
  7
SLDTEXTSTYLE1
 73
     1
 44
1.0
  0
ENDBLK
  5
75
330
73
100
AcDbEntity
  8
0
100
AcDbBlockEnd
  0
BLOCK
  5
11B
330
11A
100
AcDbEntity
  8
0
100
AcDbBlockBegin
  2
Nota legale
 70
     0
 10
0.0
 20
0.0
 30
0.0
  3
Nota legale
  1

  0
MTEXT
  5
11E
330
11A
100
AcDbEntity
  8
0
  6
Continuous
 62
     7
370
     0
100
AcDbMText
 10
2.8916698098
 20
-1.0663983927
 30
0.0
 40
1.5
 41
0.0
 71
     3
 72
     1
  1
BY TERM LAWS WE RESERVE THE PROPERTY OF THIS DRAWING WITH PROHIBITION OF USE AND REPRODUCTION
  7
SLDTEXTSTYLE2
 73
     1
 44
1.0
  0
ENDBLK
  5
11C
330
11A
100
AcDbEntity
  8
0
100
AcDbBlockEnd
  0
BLOCK
  5
120
330
11F
100
AcDbEntity
  8
0
100
AcDbBlockBegin
  2
ISO2768
 70
     0
 10
0.0
 20
0.0
 30
0.0
  3
ISO2768
  1

  0
LINE
  5
122
330
11F
100
AcDbEntity
  8
0
  6
Continuous
 62
     7
370
     0
100
AcDbLine
 10
-25.0
 20
0.0
 30
0.0
 11
-25.0
 21
-20.0
 31
0.0
  0
LINE
  5
123
330
11F
100
AcDbEntity
  8
0
  6
Continuous
 62
     7
370
     0
100
AcDbLine
 10
-50.0
 20
0.0
 30
0.0
 11
-50.0
 21
-20.0
 31
0.0
  0
LINE
  5
124
330
11F
100
AcDbEntity
  8
0
  6
Continuous
 62
     7
370
     0
100
AcDbLine
 10
-75.0
 20
0.0
 30
0.0
 11
-75.0
 21
-20.0
 31
0.0
  0
LINE
  5
125
330
11F
100
AcDbEntity
  8
0
  6
Continuous
 62
     7
370
     0
100
AcDbLine
 10
-95.0
 20
0.0
 30
0.0
 11
-95.0
 21
-20.0
 31
0.0
  0
LINE
  5
126
330
11F
100
AcDbEntity
  8
0
  6
Continuous
 62
     7
370
     0
100
AcDbLine
 10
-115.0
 20
0.0
 30
0.0
 11
-115.0
 21
-20.0
 31
0.0
  0
LINE
  5
127
330
11F
100
AcDbEntity
  8
0
  6
Continuous
 62
     7
370
     0
100
AcDbLine
 10
-130.0
 20
0.0
 30
0.0
 11
-130.0
 21
-20.0
 31
0.0
  0
LINE
  5
128
330
11F
100
AcDbEntity
  8
0
  6
Continuous
 62
     7
370
     0
100
AcDbLine
 10
-145.0
 20
0.0
 30
0.0
 11
-145.0
 21
-20.0
 31
0.0
  0
LINE
  5
129
330
11F
100
AcDbEntity
  8
0
  6
Continuous
 62
     7
370
     0
100
AcDbLine
 10
-155.0
 20
-4.0
 30
0.0
 11
-155.0
 21
-20.0
 31
0.0
  0
LINE
  5
12A
330
11F
100
AcDbEntity
  8
0
  6
Continuous
 62
     7
370
     0
100
AcDbLine
 10
-175.0
 20
-16.0
 30
0.0
 11
0.0
 21
-16.0
 31
0.0
  0
LINE
  5
12B
330
11F
100
AcDbEntity
  8
0
  6
Continuous
 62
     7
370
     0
100
AcDbLine
 10
-175.0
 20
-12.0
 30
0.0
 11
0.0
 21
-12.0
 31
0.0
  0
LINE
  5
12C
330
11F
100
AcDbEntity
  8
0
  6
Continuous
 62
     7
370
     0
100
AcDbLine
 10
-175.0
 20
-8.0
 30
0.0
 11
0.0
 21
-8.0
 31
0.0
  0
LINE
  5
12D
330
11F
100
AcDbEntity
  8
0
  6
Continuous
 62
     7
370
     0
100
AcDbLine
 10
-175.0
 20
-4.0
 30
0.0
 11
0.0
 21
-4.0
 31
0.0
  0
LINE
  5
12E
330
11F
100
AcDbEntity
  8
0
  6
Continuous
 62
     7
370
     0
100
AcDbLine
 10
-175.0
 20
0.0
 30
0.0
 11
-175.0
 21
-20.0
 31
0.0
  0
LINE
  5
12F
330
11F
100
AcDbEntity
  8
0
  6
Continuous
 62
     7
370
     0
100
AcDbLine
 10
-180.0
 20
-20.0
 30
0.0
 11
-180.0
 21
0.0
 31
0.0
  0
LINE
  5
130
330
11F
100
AcDbEntity
  8
0
  6
Continuous
 62
     7
370
     0
100
AcDbLine
 10
0.0
 20
-20.0
 30
0.0
 11
-180.0
 21
-20.0
 31
0.0
  0
LINE
  5
131
330
11F
100
AcDbEntity
  8
0
  6
Continuous
 62
     7
370
     0
100
AcDbLine
 10
0.0
 20
0.0
 30
0.0
 11
0.0
 21
-20.0
 31
0.0
  0
LINE
  5
132
330
11F
100
AcDbEntity
  8
0
  6
Continuous
 62
     7
370
     0
100
AcDbLine
 10
-180.0
 20
0.0
 30
0.0
 11
0.0
 21
0.0
 31
0.0
  0
MTEXT
  5
134
330
11F
100
AcDbEntity
  8
0
  6
Continuous
 62
   179
370
     0
100
AcDbMText
 10
-152.1594291518
 20
-12.9932672184
 30
0.0
 40
2.5
 41
0.0
 71
     1
 72
     1
  1
(c)
  7
SLDTEXTSTYLE3
 73
     1
 44
1.0
  0
MTEXT
  5
135
330
11F
100
AcDbEntity
  8
0
  6
Continuous
 62
   179
370
     0
100
AcDbMText
 10
-14.4385313988
 20
-13.1021223902
 30
0.0
 40
2.5
 41
0.0
 71
     1
 72
     1
  1
±4
  7
SLDTEXTSTYLE3
 73
     1
 44
1.0
  0
MTEXT
  5
136
330
11F
100
AcDbEntity
  8
0
  6
Continuous
 62
   179
370
     0
100
AcDbMText
 10
-14.4385313988
 20
-17.1021223902
 30
0.0
 40
2.5
 41
0.0
 71
     1
 72
     1
  1
±8
  7
SLDTEXTSTYLE3
 73
     1
 44
1.0
  0
MTEXT
  5
137
330
11F
100
AcDbEntity
  8
0
  6
Continuous
 62
   179
370
     0
100
AcDbMText
 10
-23.8407053118
 20
-1.1021223902
 30
0.0
 40
2.5
 41
0.0
 71
     1
 72
     1
  1
>2000 <=4000
  7
SLDTEXTSTYLE3
 73
     1
 44
1.0
  0
MTEXT
  5
138
330
11F
100
AcDbEntity
  8
0
  6
Continuous
 62
   179
370
     0
100
AcDbMText
 10
-13.0798357466
 20
-5.1021223902
 30
0.0
 40
2.5
 41
0.0
 71
     1
 72
     1
  1
-
  7
SLDTEXTSTYLE3
 73
     1
 44
1.0
  0
MTEXT
  5
139
330
11F
100
AcDbEntity
  8
0
  6
Continuous
 62
   179
370
     0
100
AcDbMText
 10
-14.4385313988
 20
-9.1021223902
 30
0.0
 40
2.5
 41
0.0
 71
     1
 72
     1
  1
±2
  7
SLDTEXTSTYLE3
 73
     1
 44
1.0
  0
MTEXT
  5
13A
330
11F
100
AcDbEntity
  8
0
  6
Continuous
 62
   179
370
     0
100
AcDbMText
 10
-39.4385313988
 20
-17.1021223902
 30
0.0
 40
2.5
 41
0.0
 71
     1
 72
     1
  1
±6
  7
SLDTEXTSTYLE3
 73
     1
 44
1.0
  0
MTEXT
  5
13B
330
11F
100
AcDbEntity
  8
0
  6
Continuous
 62
   179
370
     0
100
AcDbMText
 10
-39.4385313988
 20
-13.1021223902
 30
0.0
 40
2.5
 41
0.0
 71
     1
 72
     1
  1
±3
  7
SLDTEXTSTYLE3
 73
     1
 44
1.0
  0
MTEXT
  5
13C
330
11F
100
AcDbEntity
  8
0
  6
Continuous
 62
   179
370
     0
100
AcDbMText
 10
-72.8624444423
 20
-1.1021223902
 30
0.0
 40
2.5
 41
0.0
 71
     1
 72
     1
  1
>400 <=1000
  7
SLDTEXTSTYLE3
 73
     1
 44
1.0
  0
MTEXT
  5
13D
330
11F
100
AcDbEntity
  8
0
  6
Continuous
 62
   179
370
     0
100
AcDbMText
 10
-40.9059227031
 20
-9.1021223902
 30
0.0
 40
2.5
 41
0.0
 71
     1
 72
     1
  1
±1.2
  7
SLDTEXTSTYLE3
 73
     1
 44
1.0
  0
MTEXT
  5
13E
330
11F
100
AcDbEntity
  8
0
  6
Continuous
 62
   179
370
     0
100
AcDbMText
 10
-40.9059227031
 20
-5.1021223902
 30
0.0
 40
2.5
 41
0.0
 71
     1
 72
     1
  1
±0.5
  7
SLDTEXTSTYLE3
 73
     1
 44
1.0
  0
MTEXT
  5
13F
330
11F
100
AcDbEntity
  8
0
  6
Continuous
 62
   179
370
     0
100
AcDbMText
 10
-64.4385313988
 20
-17.1021223902
 30
0.0
 40
2.5
 41
0.0
 71
     1
 72
     1
  1
±4
  7
SLDTEXTSTYLE3
 73
     1
 44
1.0
  0
MTEXT
  5
140
330
11F
100
AcDbEntity
  8
0
  6
Continuous
 62
   179
370
     0
100
AcDbMText
 10
-48.8407053118
 20
-1.1021223902
 30
0.0
 40
2.5
 41
0.0
 71
     1
 72
     1
  1
>1000 <=2000
  7
SLDTEXTSTYLE3
 73
     1
 44
1.0
  0
MTEXT
  5
141
330
11F
100
AcDbEntity
  8
0
  6
Continuous
 62
   179
370
     0
100
AcDbMText
 10
-64.4385313988
 20
-13.1021223902
 30
0.0
 40
2.5
 41
0.0
 71
     1
 72
     1
  1
±2
  7
SLDTEXTSTYLE3
 73
     1
 44
1.0
  0
MTEXT
  5
142
330
11F
100
AcDbEntity
  8
0
  6
Continuous
 62
   179
370
     0
100
AcDbMText
 10
-65.9059227031
 20
-9.1021223902
 30
0.0
 40
2.5
 41
0.0
 71
     1
 72
     1
  1
±0.8
  7
SLDTEXTSTYLE3
 73
     1
 44
1.0
  0
MTEXT
  5
143
330
11F
100
AcDbEntity
  8
0
  6
Continuous
 62
   179
370
     0
100
AcDbMText
 10
-88.4059227031
 20
-9.1021223902
 30
0.0
 40
2.5
 41
0.0
 71
     1
 72
     1
  1
±0.5
  7
SLDTEXTSTYLE3
 73
     1
 44
1.0
  0
MTEXT
  5
144
330
11F
100
AcDbEntity
  8
0
  6
Continuous
 62
   179
370
     0
100
AcDbMText
 10
-108.4059227031
 20
-9.1021223902
 30
0.0
 40
2.5
 41
0.0
 71
     1
 72
     1
  1
±0.3
  7
SLDTEXTSTYLE3
 73
     1
 44
1.0
  0
MTEXT
  5
145
330
11F
100
AcDbEntity
  8
0
  6
Continuous
 62
   179
370
     0
100
AcDbMText
 10
-88.4059227031
 20
-5.1021223902
 30
0.0
 40
2.5
 41
0.0
 71
     1
 72
     1
  1
±0.2
  7
SLDTEXTSTYLE3
 73
     1
 44
1.0
  0
MTEXT
  5
146
330
11F
100
AcDbEntity
  8
0
  6
Continuous
 62
   179
370
     0
100
AcDbMText
 10
-108.4059227031
 20
-17.1021223902
 30
0.0
 40
2.5
 41
0.0
 71
     1
 72
     1
  1
±1.5
  7
SLDTEXTSTYLE3
 73
     1
 44
1.0
  0
MTEXT
  5
147
330
11F
100
AcDbEntity
  8
0
  6
Continuous
 62
   179
370
     0
100
AcDbMText
 10
-65.9059227031
 20
-5.1021223902
 30
0.0
 40
2.5
 41
0.0
 71
     1
 72
     1
  1
±0.3
  7
SLDTEXTSTYLE3
 73
     1
 44
1.0
  0
MTEXT
  5
148
330
11F
100
AcDbEntity
  8
0
  6
Continuous
 62
   179
370
     0
100
AcDbMText
 10
-88.4059227031
 20
-17.1021223902
 30
0.0
 40
2.5
 41
0.0
 71
     1
 72
     1
  1
±2.5
  7
SLDTEXTSTYLE3
 73
     1
 44
1.0
  0
MTEXT
  5
149
330
11F
100
AcDbEntity
  8
0
  6
Continuous
 62
   179
370
     0
100
AcDbMText
 10
-94.3841835727
 20
-1.1021223902
 30
0.0
 40
2.5
 41
0.0
 71
     1
 72
     1
  1
>120 <=400
  7
SLDTEXTSTYLE3
 73
     1
 44
1.0
  0
MTEXT
  5
14A
330
11F
100
AcDbEntity
  8
0
  6
Continuous
 62
   179
370
     0
100
AcDbMText
 10
-88.4059227031
 20
-13.1021223902
 30
0.0
 40
2.5
 41
0.0
 71
     1
 72
     1
  1
±1.2
  7
SLDTEXTSTYLE3
 73
     1
 44
1.0
  0
MTEXT
  5
14B
330
11F
100
AcDbEntity
  8
0
  6
Continuous
 62
   179
370
     0
100
AcDbMText
 10
-109.3841835727
 20
-5.1021223902
 30
0.0
 40
2.5
 41
0.0
 71
     1
 72
     1
  1
±0.15
  7
SLDTEXTSTYLE3
 73
     1
 44
1.0
  0
MTEXT
  5
14C
330
11F
100
AcDbEntity
  8
0
  6
Continuous
 62
   179
370
     0
100
AcDbMText
 10
-113.4059227031
 20
-1.1021223902
 30
0.0
 40
2.5
 41
0.0
 71
     1
 72
     1
  1
>30 <=120
  7
SLDTEXTSTYLE3
 73
     1
 44
1.0
  0
MTEXT
  5
14D
330
11F
100
AcDbEntity
  8
0
  6
Continuous
 62
   179
370
     0
100
AcDbMText
 10
-124.4385313988
 20
-17.1021223902
 30
0.0
 40
2.5
 41
0.0
 71
     1
 72
     1
  1
±1
  7
SLDTEXTSTYLE3
 73
     1
 44
1.0
  0
MTEXT
  5
14E
330
11F
100
AcDbEntity
  8
0
  6
Continuous
 62
   179
370
     0
100
AcDbMText
 10
-125.9059227031
 20
-9.1021223902
 30
0.0
 40
2.5
 41
0.0
 71
     1
 72
     1
  1
±0.2
  7
SLDTEXTSTYLE3
 73
     1
 44
1.0
  0
MTEXT
  5
14F
330
11F
100
AcDbEntity
  8
0
  6
Continuous
 62
   179
370
     0
100
AcDbMText
 10
-108.4059227031
 20
-13.1021223902
 30
0.0
 40
2.5
 41
0.0
 71
     1
 72
     1
  1
±0.8
  7
SLDTEXTSTYLE3
 73
     1
 44
1.0
  0
MTEXT
  5
150
330
11F
100
AcDbEntity
  8
0
  6
Continuous
 62
   179
370
     0
100
AcDbMText
 10
-125.9059227031
 20
-5.1021223902
 30
0.0
 40
2.5
 41
0.0
 71
     1
 72
     1
  1
±0.1
  7
SLDTEXTSTYLE3
 73
     1
 44
1.0
  0
MTEXT
  5
151
330
11F
100
AcDbEntity
  8
0
  6
Continuous
 62
   179
370
     0
100
AcDbMText
 10
-128.949400964
 20
-1.1021223902
 30
0.0
 40
2.5
 41
0.0
 71
     1
 72
     1
  1
>6 <=30
  7
SLDTEXTSTYLE3
 73
     1
 44
1.0
  0
MTEXT
  5
152
330
11F
100
AcDbEntity
  8
0
  6
Continuous
 62
   179
370
     0
100
AcDbMText
 10
-140.4983140075
 20
-1.1021223902
 30
0.0
 40
2.5
 41
0.0
 71
     1
 72
     1
  1
<=6
  7
SLDTEXTSTYLE3
 73
     1
 44
1.0
  0
MTEXT
  5
153
330
11F
100
AcDbEntity
  8
0
  6
Continuous
 62
   179
370
     0
100
AcDbMText
 10
-125.9059227031
 20
-13.1021223902
 30
0.0
 40
2.5
 41
0.0
 71
     1
 72
     1
  1
±0.5
  7
SLDTEXTSTYLE3
 73
     1
 44
1.0
  0
MTEXT
  5
154
330
11F
100
AcDbEntity
  8
0
  6
Continuous
 62
   179
370
     0
100
AcDbMText
 10
-140.9059227031
 20
-9.1021223902
 30
0.0
 40
2.5
 41
0.0
 71
     1
 72
     1
  1
±0.1
  7
SLDTEXTSTYLE3
 73
     1
 44
1.0
  0
MTEXT
  5
155
330
11F
100
AcDbEntity
  8
0
  6
Continuous
 62
   179
370
     0
100
AcDbMText
 10
-140.9059227031
 20
-17.1021223902
 30
0.0
 40
2.5
 41
0.0
 71
     1
 72
     1
  1
±0.5
  7
SLDTEXTSTYLE3
 73
     1
 44
1.0
  0
MTEXT
  5
156
330
11F
100
AcDbEntity
  8
0
  6
Continuous
 62
   179
370
     0
100
AcDbMText
 10
-140.9059227031
 20
-13.1021223902
 30
0.0
 40
2.5
 41
0.0
 71
     1
 72
     1
  1
±0.3
  7
SLDTEXTSTYLE3
 73
     1
 44
1.0
  0
MTEXT
  5
157
330
11F
100
AcDbEntity
  8
0
  6
Continuous
 62
   179
370
     0
100
AcDbMText
 10
-141.8841835727
 20
-5.1021223902
 30
0.0
 40
2.5
 41
0.0
 71
     1
 72
     1
  1
±0.05
  7
SLDTEXTSTYLE3
 73
     1
 44
1.0
  0
MTEXT
  5
158
330
11F
100
AcDbEntity
  8
0
  6
Continuous
 62
   179
370
     0
100
AcDbMText
 10
-174.7485158139
 20
-8.9932672184
 30
0.0
 40
2.5
 41
0.0
 71
     1
 72
     1
  1
Medium
  7
SLDTEXTSTYLE3
 73
     1
 44
1.0
  0
MTEXT
  5
159
330
11F
100
AcDbEntity
  8
0
  6
Continuous
 62
   179
370
     0
100
AcDbMText
 10
-174.7485158139
 20
-12.9932672184
 30
0.0
 40
2.5
 41
0.0
 71
     1
 72
     1
  1
Coarse
  7
SLDTEXTSTYLE3
 73
     1
 44
1.0
  0
MTEXT
  5
15A
330
11F
100
AcDbEntity
  8
0
  6
Continuous
 62
   179
370
     0
100
AcDbMText
 10
-151.7789943692
 20
-4.9932672184
 30
0.0
 40
2.5
 41
0.0
 71
     1
 72
     1
  1
(f)
  7
SLDTEXTSTYLE3
 73
     1
 44
1.0
  0
MTEXT
  5
15B
330
11F
100
AcDbEntity
  8
0
  6
Continuous
 62
   179
370
     0
100
AcDbMText
 10
-152.7844291518
 20
-8.9932672184
 30
0.0
 40
2.5
 41
0.0
 71
     1
 72
     1
  1
(m)
  7
SLDTEXTSTYLE3
 73
     1
 44
1.0
  0
MTEXT
  5
15C
330
11F
100
AcDbEntity
  8
0
  6
Continuous
 62
   179
370
     0
100
AcDbMText
 10
-152.1866030649
 20
-16.9932672184
 30
0.0
 40
2.5
 41
0.0
 71
     1
 72
     1
  1
(v)
  7
SLDTEXTSTYLE3
 73
     1
 44
1.0
  0
MTEXT
  5
15D
330
11F
100
AcDbEntity
  8
0
  6
Continuous
 62
   179
370
     0
100
AcDbMText
 10
-174.7485158139
 20
-16.9932672184
 30
0.0
 40
2.5
 41
0.0
 71
     1
 72
     1
  1
Very Coarse
  7
SLDTEXTSTYLE3
 73
     1
 44
1.0
  0
MTEXT
  5
15E
330
11F
100
AcDbEntity
  8
0
  6
Continuous
 62
   179
370
     0
100
AcDbMText
 10
-178.6122169322
 20
-18.8727771349
 30
0.0
 40
2.5
 41
0.0
 71
     1
 72
     1
  1
ISO 2768
  7
SLDTEXTSTYLE3
 11
6.123233995736766E-17
 21
1.0
 31
0.0
 73
     1
 44
1.0
  0
MTEXT
  5
15F
330
11F
100
AcDbEntity
  8
0
  6
Continuous
 62
   179
370
     0
100
AcDbMText
 10
-174.565631434
 20
-0.9932672184
 30
0.0
 40
2.5
 41
0.0
 71
     1
 72
     1
  1
Tolerance Class
  7
SLDTEXTSTYLE3
 73
     1
 44
1.0
  0
MTEXT
  5
160
330
11F
100
AcDbEntity
  8
0
  6
Continuous
 62
   179
370
     0
100
AcDbMText
 10
-174.7485158139
 20
-4.9932672184
 30
0.0
 40
2.5
 41
0.0
 71
     1
 72
     1
  1
Fine
  7
SLDTEXTSTYLE3
 73
     1
 44
1.0
  0
ENDBLK
  5
121
330
11F
100
AcDbEntity
  8
0
100
AcDbBlockEnd
  0
ENDSEC
  0
SECTION
  2
ENTITIES
  0
LINE
  5
161
330
1F
100
AcDbEntity
  8
0
  6
Continuous
 62
     7
370
    15
100
AcDbLine
 10
243.1354583246
 20
499.4343549942
 30
0.0
 11
242.4354583246
 21
500.1343549942
 31
0.0
  0
LINE
  5
162
330
1F
100
AcDbEntity
  8
0
  6
Continuous
 62
     7
370
    15
100
AcDbLine
 10
123.8354583246
 20
500.1343549942
 30
0.0
 11
123.1354583246
 21
499.4343549942
 31
0.0
  0
LINE
  5
163
330
1F
100
AcDbEntity
  8
0
  6
Continuous
 62
     7
370
    15
100
AcDbLine
 10
123.1354583246
 20
499.4343549942
 30
0.0
 11
123.1354583246
 21
497.6343549942
 31
0.0
  0
LINE
  5
164
330
1F
100
AcDbEntity
  8
0
  6
Continuous
 62
     7
370
    15
100
AcDbLine
 10
243.1354583246
 20
497.6343549942
 30
0.0
 11
243.1354583246
 21
499.4343549942
 31
0.0
  0
LINE
  5
165
330
1F
100
AcDbEntity
  8
0
  6
Continuous
 62
     7
370
    15
100
AcDbLine
 10
123.1354583246
 20
502.6343549942
 30
0.0
 11
123.1354583246
 21
500.8343549942
 31
0.0
  0
LINE
  5
166
330
1F
100
AcDbEntity
  8
0
  6
Continuous
 62
     7
370
    15
100
AcDbLine
 10
243.1354583246
 20
500.8343549942
 30
0.0
 11
243.1354583246
 21
502.6343549942
 31
0.0
  0
ARC
  5
167
330
1F
100
AcDbEntity
  8
0
  6
Continuous
 62
     7
370
    15
100
AcDbCircle
 10
125.6354583246
 20
502.6343549942
 30
0.0
 40
2.5
100
AcDbArc
 50
90.0
 51
180.0
  0
ARC
  5
168
330
1F
100
AcDbEntity
  8
0
  6
Continuous
 62
     7
370
    15
100
AcDbCircle
 10
240.6354583246
 20
502.6343549942
 30
0.0
 40
2.5
100
AcDbArc
 50
0.0
 51
90.0
  0
LINE
  5
169
330
1F
100
AcDbEntity
  8
0
  6
Continuous
 62
     7
370
    15
100
AcDbLine
 10
123.1354583246
 20
500.8343549942
 30
0.0
 11
123.8354583246
 21
500.1343549942
 31
0.0
  0
LINE
  5
16A
330
1F
100
AcDbEntity
  8
0
  6
Continuous
 62
     7
370
    15
100
AcDbLine
 10
242.4354583246
 20
500.1343549942
 30
0.0
 11
243.1354583246
 21
500.8343549942
 31
0.0
  0
ARC
  5
16B
330
1F
100
AcDbEntity
  8
0
  6
Continuous
 62
     7
370
    15
100
AcDbCircle
 10
125.6354583246
 20
497.6343549942
 30
0.0
 40
2.5
100
AcDbArc
 50
180.0
 51
270.0
  0
ARC
  5
16C
330
1F
100
AcDbEntity
  8
0
  6
Continuous
 62
     7
370
    15
100
AcDbCircle
 10
240.6354583246
 20
497.6343549942
 30
0.0
 40
2.5
100
AcDbArc
 50
270.0
 51
0.0
  0
ARC
  5
16D
330
1F
100
AcDbEntity
  8
0
  6
Continuous
 62
     7
370
    15
100
AcDbCircle
 10
130.6354583246
 20
492.6343549942
 30
0.0
 40
2.5
100
AcDbArc
 50
0.0
 51
90.0
  0
ARC
  5
16E
330
1F
100
AcDbEntity
  8
0
  6
Continuous
 62
     7
370
    15
100
AcDbCircle
 10
235.6354583246
 20
492.6343549942
 30
0.0
 40
2.5
100
AcDbArc
 50
90.0
 51
180.0
  0
ARC
  5
16F
330
1F
100
AcDbEntity
  8
0
  6
Continuous
 62
     7
370
    15
100
AcDbCircle
 10
148.1354583246
 20
428.1343549942
 30
0.0
 40
15.0
100
AcDbArc
 50
180.0
 51
270.0
  0
ARC
  5
170
330
1F
100
AcDbEntity
  8
0
  6
Continuous
 62
     7
370
    15
100
AcDbCircle
 10
218.1354583246
 20
428.1343549942
 30
0.0
 40
15.0
100
AcDbArc
 50
270.0
 51
0.0
  0
LINE
  5
171
330
1F
100
AcDbEntity
  8
0
  6
Continuous
 62
     7
370
    15
100
AcDbLine
 10
133.1354583246
 20
492.6343549942
 30
0.0
 11
133.1354583246
 21
428.1343549942
 31
0.0
  0
LINE
  5
172
330
1F
100
AcDbEntity
  8
0
  6
Continuous
 62
     7
370
    15
100
AcDbLine
 10
233.1354583246
 20
428.1343549942
 30
0.0
 11
233.1354583246
 21
492.6343549942
 31
0.0
  0
LINE
  5
173
330
1F
100
AcDbEntity
  8
0
  6
Continuous
 62
     7
370
    15
100
AcDbLine
 10
243.1354583246
 20
499.4343549942
 30
0.0
 11
123.1354583246
 21
499.4343549942
 31
0.0
  0
LINE
  5
174
330
1F
100
AcDbEntity
  8
0
  6
Continuous
 62
     7
370
    15
100
AcDbLine
 10
242.4354583246
 20
500.1343549942
 30
0.0
 11
123.8354583246
 21
500.1343549942
 31
0.0
  0
LINE
  5
175
330
1F
100
AcDbEntity
  8
0
  6
Continuous
 62
     7
370
    15
100
AcDbLine
 10
243.1354583246
 20
500.8343549942
 30
0.0
 11
123.1354583246
 21
500.8343549942
 31
0.0
  0
ARC
  5
176
330
1F
100
AcDbEntity
  8
0
  6
Continuous
 62
     7
370
    15
100
AcDbCircle
 10
173.1354583246
 20
458.1343549942
 30
0.0
 40
10.00000000000006
100
AcDbArc
 50
180.0
 51
270.0
  0
LINE
  5
177
330
1F
100
AcDbEntity
  8
0
  6
Continuous
 62
     7
370
    15
100
AcDbLine
 10
163.1354583246
 20
478.1343549942
 30
0.0
 11
163.1354583246
 21
458.1343549942
 31
0.0
  0
LINE
  5
178
330
1F
100
AcDbEntity
  8
0
  6
Continuous
 62
     7
370
    15
100
AcDbLine
 10
193.1354583246
 20
488.1343549942
 30
0.0
 11
173.1354583246
 21
488.1343549942
 31
0.0
  0
LINE
  5
179
330
1F
100
AcDbEntity
  8
0
  6
Continuous
 62
     7
370
    15
100
AcDbLine
 10
203.1354583246
 20
458.1343549942
 30
0.0
 11
203.1354583246
 21
478.1343549942
 31
0.0
  0
ARC
  5
17A
330
1F
100
AcDbEntity
  8
0
  6
Continuous
 62
     7
370
    15
100
AcDbCircle
 10
193.1354583246
 20
478.1343549942
 30
0.0
 40
9.999999999999972
100
AcDbArc
 50
0.0
 51
90.0
  0
ARC
  5
17B
330
1F
100
AcDbEntity
  8
0
  6
Continuous
 62
     7
370
    15
100
AcDbCircle
 10
173.1354583246
 20
478.1343549942
 30
0.0
 40
10.0
100
AcDbArc
 50
90.0
 51
180.0
  0
LINE
  5
17C
330
1F
100
AcDbEntity
  8
0
  6
Continuous
 62
     7
370
    15
100
AcDbLine
 10
173.1354583246
 20
448.1343549942
 30
0.0
 11
193.1354583246
 21
448.1343549942
 31
0.0
  0
CIRCLE
  5
17D
330
1F
100
AcDbEntity
  8
0
  6
Continuous
 62
     7
370
    15
100
AcDbCircle
 10
183.1354583246
 20
468.1343549942
 30
0.0
 40
12.25
  0
ARC
  5
17E
330
1F
100
AcDbEntity
  8
0
  6
Continuous
 62
     7
370
    15
100
AcDbCircle
 10
193.1354583246
 20
458.1343549942
 30
0.0
 40
10.00000000000006
100
AcDbArc
 50
270.0
 51
0.0
  0
LINE
  5
17F
330
1F
100
AcDbEntity
  8
0
  6
Continuous
 62
     7
370
    15
100
AcDbLine
 10
183.1354583246
 20
505.1343549942
 30
0.0
 11
240.6354583246
 21
505.1343549942
 31
0.0
  0
LINE
  5
180
330
1F
100
AcDbEntity
  8
0
  6
Continuous
 62
     7
370
    15
100
AcDbLine
 10
125.6354583246
 20
505.1343549942
 30
0.0
 11
183.1354583246
 21
505.1343549942
 31
0.0
  0
LINE
  5
181
330
1F
100
AcDbEntity
  8
0
  6
Continuous
 62
     7
370
    15
100
AcDbLine
 10
183.1354583246
 20
495.1343549942
 30
0.0
 11
125.6354583246
 21
495.1343549942
 31
0.0
  0
LINE
  5
182
330
1F
100
AcDbEntity
  8
0
  6
Continuous
 62
     7
370
    15
100
AcDbLine
 10
240.6354583246
 20
495.1343549942
 30
0.0
 11
183.1354583246
 21
495.1343549942
 31
0.0
  0
LINE
  5
183
330
1F
100
AcDbEntity
  8
0
  6
Continuous
 62
     7
370
    15
100
AcDbLine
 10
173.6116488008
 20
490.6343549942
 30
0.0
 11
192.6592678484
 21
490.6343549942
 31
0.0
  0
ARC
  5
184
330
1F
100
AcDbEntity
  8
0
  6
Continuous
 62
     7
370
    15
100
AcDbCircle
 10
196.2976607056
 20
490.0320307312
 30
0.0
 40
3.687912295696823
100
AcDbArc
 50
170.6001190723
 51
210.9684766628
  0
ARC
  5
185
330
1F
100
AcDbEntity
  8
0
  6
Continuous
 62
     7
370
    15
100
AcDbCircle
 10
169.9732559437
 20
490.0320307312
 30
0.0
 40
3.687912295697519
100
AcDbArc
 50
329.0315233372
 51
9.3998809277
  0
ARC
  5
186
330
1F
100
AcDbEntity
  8
0
  6
Continuous
 62
     7
370
    15
100
AcDbCircle
 10
196.2976607056
 20
446.2366792573
 30
0.0
 40
3.687912295696375
100
AcDbArc
 50
149.0315233372
 51
189.3998809277
  0
LINE
  5
187
330
1F
100
AcDbEntity
  8
0
  6
Continuous
 62
     7
370
    15
100
AcDbLine
 10
192.6592678484
 20
445.6343549942
 30
0.0
 11
173.6116488008
 21
445.6343549942
 31
0.0
  0
ARC
  5
188
330
1F
100
AcDbEntity
  8
0
  6
Continuous
 62
     7
370
    15
100
AcDbCircle
 10
169.9732559437
 20
446.2366792573
 30
0.0
 40
3.68791229569717
100
AcDbArc
 50
350.6001190723
 51
30.9684766628
  0
LINE
  5
189
330
1F
100
AcDbEntity
  8
0
  6
Continuous
 62
     7
370
    15
100
AcDbLine
 10
203.1354583246
 20
458.1343549942
 30
0.0
 11
204.5640297532
 21
458.1343549942
 31
0.0
  0
SPLINE
  5
18A
330
1F
100
AcDbEntity
  8
0
  6
Continuous
 62
     7
370
    15
100
AcDbSpline
210
0.0
220
0.0
230
1.0
 70
     8
 71
     3
 72
    30
 73
    26
 74
     0
 42
0.000000001
 43
0.00000001
 40
0.0
 40
0.0
 40
0.0
 40
0.0
 40
0.0624999999999998
 40
0.0624999999999998
 40
0.1249999999999997
 40
0.1249999999999997
 40
0.2499999999999998
 40
0.2499999999999998
 40
0.3124999999999999
 40
0.3124999999999999
 40
0.3750000000000001
 40
0.3750000000000001
 40
0.5000000000000004
 40
0.5000000000000004
 40
0.5625000000000004
 40
0.5625000000000004
 40
0.6250000000000006
 40
0.6250000000000006
 40
0.7500000000000006
 40
0.7500000000000006
 40
0.8125000000000004
 40
0.8125000000000004
 40
0.8750000000000003
 40
0.8750000000000003
 40
1.0
 40
1.0
 40
1.0
 40
1.0
 10
204.5640297532082
 20
458.1343549942465
 30
0.0
 10
204.5640297532082
 20
457.7215912628673
 30
0.0
 10
204.5446066551852
 20
457.310940880518
 30
0.0
 10
204.4675290947663
 20
456.4937923488393
 30
0.0
 10
204.4096577155234
 20
456.0861942986056
 30
0.0
 10
204.1793482052953
 20
454.8769601324195
 30
0.0
 10
203.9538048763156
 20
454.1020688695526
 30
0.0
 10
203.5130497313729
 20
452.9833049016847
 30
0.0
 10
203.3489220766474
 20
452.6177001551945
 30
0.0
 10
202.9855774804741
 20
451.9012007929069
 30
0.0
 10
202.7853385633048
 20
451.5490053759896
 30
0.0
 10
202.1441240490485
 20
450.536776821267
 30
0.0
 10
201.6602999781358
 20
449.9138320018977
 30
0.0
 10
200.8500762644622
 20
449.0543497409967
 30
0.0
 10
200.5658129133051
 20
448.7804432530954
 30
0.0
 10
199.9675323772196
 20
448.2585553528769
 30
0.0
 10
199.6563129501356
 20
448.013183706594
 30
0.0
 10
198.6954223950987
 20
447.3297138510421
 30
0.0
 10
198.0152344454388
 20
446.9405429270542
 30
0.0
 10
196.9315645763847
 20
446.4597613150659
 30
0.0
 10
196.5575919783936
 20
446.3162524990609
 30
0.0
 10
195.8026133196909
 20
446.0708240575772
 30
0.0
 10
195.4206251645688
 20
445.9682186790533
 30
0.0
 10
194.2610584986196
 20
445.7203533850573
 30
0.0
 10
193.4700043405308
 20
445.6343549942464
 30
0.0
 10
192.6592678484463
 20
445.6343549942464
 30
0.0
  0
SPLINE
  5
18B
330
1F
100
AcDbEntity
  8
0
  6
Continuous
 62
     7
370
    15
100
AcDbSpline
210
0.0
220
0.0
230
1.0
 70
     8
 71
     3
 72
    30
 73
    26
 74
     0
 42
0.000000001
 43
0.00000001
 40
0.0
 40
0.0
 40
0.0
 40
0.0
 40
0.0625000000000001
 40
0.0625000000000001
 40
0.1250000000000001
 40
0.1250000000000001
 40
0.2499999999999999
 40
0.2499999999999999
 40
0.3124999999999997
 40
0.3124999999999997
 40
0.3749999999999995
 40
0.3749999999999995
 40
0.4999999999999996
 40
0.4999999999999996
 40
0.5624999999999996
 40
0.5624999999999996
 40
0.6249999999999997
 40
0.6249999999999997
 40
0.7499999999999998
 40
0.7499999999999998
 40
0.8124999999999999
 40
0.8124999999999999
 40
0.8750000000000001
 40
0.8750000000000001
 40
1.0
 40
1.0
 40
1.0
 40
1.0
 10
161.7068868960653
 20
478.1343549942465
 30
0.0
 10
161.7068868960653
 20
478.5471187256256
 30
0.0
 10
161.7263099940882
 20
478.9577691079749
 30
0.0
 10
161.8033875545071
 20
479.7749176396535
 30
0.0
 10
161.8612589337501
 20
480.1825156898873
 30
0.0
 10
162.0915684439782
 20
481.3917498560734
 30
0.0
 10
162.3171117729579
 20
482.1666411189402
 30
0.0
 10
162.7578669179006
 20
483.2854050868082
 30
0.0
 10
162.921994572626
 20
483.6510098332984
 30
0.0
 10
163.2853391687994
 20
484.367509195586
 30
0.0
 10
163.4855780859687
 20
484.7197046125032
 30
0.0
 10
164.126792600225
 20
485.7319331672259
 30
0.0
 10
164.6106166711377
 20
486.3548779865951
 30
0.0
 10
165.4208403848113
 20
487.2143602474961
 30
0.0
 10
165.7051037359683
 20
487.4882667353975
 30
0.0
 10
166.3033842720539
 20
488.0101546356159
 30
0.0
 10
166.6146036991378
 20
488.2555262818988
 30
0.0
 10
167.5754942541748
 20
488.9389961374507
 30
0.0
 10
168.2556822038347
 20
489.3281670614386
 30
0.0
 10
169.3393520728888
 20
489.8089486734269
 30
0.0
 10
169.7133246708798
 20
489.9524574894319
 30
0.0
 10
170.4683033295826
 20
490.1978859309157
 30
0.0
 10
170.8502914847047
 20
490.3004913094395
 30
0.0
 10
172.0098581506538
 20
490.5483566034355
 30
0.0
 10
172.8009123087427
 20
490.6343549942464
 30
0.0
 10
173.6116488008272
 20
490.6343549942464
 30
0.0
  0
LINE
  5
18C
330
1F
100
AcDbEntity
  8
0
  6
Continuous
 62
     7
370
    15
100
AcDbLine
 10
161.7068868961
 20
478.1343549942
 30
0.0
 11
163.1354583246
 21
478.1343549942
 31
0.0
  0
SPLINE
  5
18D
330
1F
100
AcDbEntity
  8
0
  6
Continuous
 62
     7
370
    15
100
AcDbSpline
210
0.0
220
0.0
230
1.0
 70
     8
 71
     3
 72
    30
 73
    26
 74
     0
 42
0.000000001
 43
0.00000001
 40
0.0
 40
0.0
 40
0.0
 40
0.0
 40
0.1250000000000003
 40
0.1250000000000003
 40
0.1875000000000004
 40
0.1875000000000004
 40
0.2500000000000006
 40
0.2500000000000006
 40
0.3750000000000003
 40
0.3750000000000003
 40
0.4375000000000001
 40
0.4375000000000001
 40
0.4999999999999999
 40
0.4999999999999999
 40
0.5624999999999997
 40
0.5624999999999997
 40
0.6249999999999994
 40
0.6249999999999994
 40
0.7499999999999993
 40
0.7499999999999993
 40
0.8124999999999994
 40
0.8124999999999994
 40
0.8749999999999996
 40
0.8749999999999996
 40
1.0
 40
1.0
 40
1.0
 40
1.0
 10
192.6592678484463
 20
490.6343549942464
 30
0.0
 10
193.4692552506366
 20
490.6343549942464
 30
0.0
 10
194.2626408709144
 20
490.5484841900263
 30
0.0
 10
195.4294546750842
 20
490.2983681340986
 30
0.0
 10
195.8163910647696
 20
490.1939488270838
 30
0.0
 10
196.5726678646345
 20
489.9469937883213
 30
0.0
 10
196.9408337292512
 20
489.8051095772338
 30
0.0
 10
198.0171312725003
 20
489.3267711348074
 30
0.0
 10
198.6973197721161
 20
488.9381738244872
 30
0.0
 10
199.6632946325987
 20
488.250293401888
 30
0.0
 10
199.9753903537814
 20
488.0036136110809
 30
0.0
 10
200.5689526517068
 20
487.4852084468346
 30
0.0
 10
200.8521063173584
 20
487.2123328597745
 30
0.0
 10
201.3918947639012
 20
486.6394742742345
 30
0.0
 10
201.6485289051215
 20
486.3394915593112
 30
0.0
 10
202.1351680760239
 20
485.7117782712367
 30
0.0
 10
202.366117469213
 20
485.3823749840853
 30
0.0
 10
203.0068514741735
 20
484.3682043391553
 30
0.0
 10
203.3677730472376
 20
483.6554866403274
 30
0.0
 10
203.8103497953622
 20
482.5300982404505
 30
0.0
 10
203.9418107460743
 20
482.1435694428467
 30
0.0
 10
204.167347111128
 20
481.3603160483179
 30
0.0
 10
204.2611749141595
 20
480.9652322557274
 30
0.0
 10
204.4870456588064
 20
479.7697431683696
 30
0.0
 10
204.5640297532081
 20
478.9591913152819
 30
0.0
 10
204.5640297532082
 20
478.1343549942465
 30
0.0
  0
LINE
  5
18E
330
1F
100
AcDbEntity
  8
0
  6
Continuous
 62
     7
370
    15
100
AcDbLine
 10
203.1354583246
 20
478.1343549942
 30
0.0
 11
204.5640297532
 21
478.1343549942
 31
0.0
  0
SPLINE
  5
18F
330
1F
100
AcDbEntity
  8
0
  6
Continuous
 62
     7
370
    15
100
AcDbSpline
210
0.0
220
0.0
230
1.0
 70
     8
 71
     3
 72
    30
 73
    26
 74
     0
 42
0.000000001
 43
0.00000001
 40
0.0
 40
0.0
 40
0.0
 40
0.0
 40
0.1249999999999994
 40
0.1249999999999994
 40
0.1874999999999994
 40
0.1874999999999994
 40
0.2499999999999994
 40
0.2499999999999994
 40
0.3749999999999991
 40
0.3749999999999991
 40
0.4374999999999993
 40
0.4374999999999993
 40
0.4999999999999994
 40
0.4999999999999994
 40
0.5624999999999996
 40
0.5624999999999996
 40
0.6249999999999998
 40
0.6249999999999998
 40
0.7499999999999998
 40
0.7499999999999998
 40
0.8124999999999998
 40
0.8124999999999998
 40
0.8749999999999999
 40
0.8749999999999999
 40
1.0
 40
1.0
 40
1.0
 40
1.0
 10
173.6116488008272
 20
445.6343549942464
 30
0.0
 10
172.8016613986369
 20
445.6343549942464
 30
0.0
 10
172.0082757783591
 20
445.7202257984665
 30
0.0
 10
170.8414619741893
 20
445.9703418543943
 30
0.0
 10
170.4545255845039
 20
446.074761161409
 30
0.0
 10
169.698248784639
 20
446.3217162001716
 30
0.0
 10
169.3300829200223
 20
446.463600411259
 30
0.0
 10
168.2537853767731
 20
446.9419388536854
 30
0.0
 10
167.5735968771574
 20
447.3305361640057
 30
0.0
 10
166.6076220166747
 20
448.0184165866049
 30
0.0
 10
166.295526295492
 20
448.265096377412
 30
0.0
 10
165.7019639975666
 20
448.7835015416582
 30
0.0
 10
165.4188103319151
 20
449.0563771287183
 30
0.0
 10
164.8790218853722
 20
449.6292357142584
 30
0.0
 10
164.622387744152
 20
449.9292184291817
 30
0.0
 10
164.1357485732495
 20
450.5569317172561
 30
0.0
 10
163.9047991800604
 20
450.8863350044076
 30
0.0
 10
163.2640651750999
 20
451.9005056493376
 30
0.0
 10
162.9031436020359
 20
452.6132233481654
 30
0.0
 10
162.4605668539113
 20
453.7386117480424
 30
0.0
 10
162.3291059031991
 20
454.1251405456461
 30
0.0
 10
162.1035695381455
 20
454.9083939401749
 30
0.0
 10
162.0097417351139
 20
455.3034777327655
 30
0.0
 10
161.7838709904671
 20
456.4989668201233
 30
0.0
 10
161.7068868960653
 20
457.309518673211
 30
0.0
 10
161.7068868960653
 20
458.1343549942465
 30
0.0
  0
LINE
  5
190
330
1F
100
AcDbEntity
  8
0
  6
Continuous
 62
     7
370
    15
100
AcDbLine
 10
161.7068868961
 20
458.1343549942
 30
0.0
 11
163.1354583246
 21
458.1343549942
 31
0.0
  0
LINE
  5
191
330
1F
100
AcDbEntity
  8
0
  6
Continuous
 62
     7
370
    15
100
AcDbLine
 10
183.1354583246
 20
413.1343549942
 30
0.0
 11
148.1354583246
 21
413.1343549942
 31
0.0
  0
LINE
  5
192
330
1F
100
AcDbEntity
  8
0
  6
Continuous
 62
     7
370
    15
100
AcDbLine
 10
218.1354583246
 20
413.1343549942
 30
0.0
 11
183.1354583246
 21
413.1343549942
 31
0.0
  0
LINE
  5
193
330
1F
100
AcDbEntity
  8
0
  6
Continuous
 62
     7
370
    15
100
AcDbLine
 10
161.7068868961
 20
458.1343549942
 30
0.0
 11
161.7068868961
 21
478.1343549942
 31
0.0
  0
LINE
  5
194
330
1F
100
AcDbEntity
  8
0
  6
Continuous
 62
     7
370
    15
100
AcDbLine
 10
204.5640297532
 20
478.1343549942
 30
0.0
 11
204.5640297532
 21
458.1343549942
 31
0.0
  0
LINE
  5
195
330
1F
100
AcDbEntity
  8
0
  6
Continuous
 62
     7
370
    15
100
AcDbLine
 10
158.1354583246
 20
508.1343549942
 30
0.0
 11
158.1354583246
 21
505.1343549942
 31
0.0
  0
LINE
  5
196
330
1F
100
AcDbEntity
  8
0
  6
Continuous
 62
     7
370
    15
100
AcDbLine
 10
158.1354583246
 20
508.1343549942
 30
0.0
 11
163.1354583246
 21
508.1343549942
 31
0.0
  0
LINE
  5
197
330
1F
100
AcDbEntity
  8
0
  6
Continuous
 62
     7
370
    15
100
AcDbLine
 10
163.1354583246
 20
508.1343549942
 30
0.0
 11
163.1354583246
 21
505.1343549942
 31
0.0
  0
LINE
  5
198
330
1F
100
AcDbEntity
  8
0
  6
Continuous
 62
     7
370
    15
100
AcDbLine
 10
153.1354583246
 20
508.1343549942
 30
0.0
 11
153.1354583246
 21
505.1343549942
 31
0.0
  0
LINE
  5
199
330
1F
100
AcDbEntity
  8
0
  6
Continuous
 62
     7
370
    15
100
AcDbLine
 10
153.1354583246
 20
508.1343549942
 30
0.0
 11
158.1354583246
 21
508.1343549942
 31
0.0
  0
LINE
  5
19A
330
1F
100
AcDbEntity
  8
0
  6
Continuous
 62
     7
370
    15
100
AcDbLine
 10
203.1354583246
 20
508.1343549942
 30
0.0
 11
203.1354583246
 21
505.1343549942
 31
0.0
  0
LINE
  5
19B
330
1F
100
AcDbEntity
  8
0
  6
Continuous
 62
     7
370
    15
100
AcDbLine
 10
203.1354583246
 20
508.1343549942
 30
0.0
 11
208.1354583246
 21
508.1343549942
 31
0.0
  0
LINE
  5
19C
330
1F
100
AcDbEntity
  8
0
  6
Continuous
 62
     7
370
    15
100
AcDbLine
 10
208.1354583246
 20
508.1343549942
 30
0.0
 11
208.1354583246
 21
505.1343549942
 31
0.0
  0
LINE
  5
19D
330
1F
100
AcDbEntity
  8
0
  6
Continuous
 62
     7
370
    15
100
AcDbLine
 10
208.1354583246
 20
508.1343549942
 30
0.0
 11
213.1354583246
 21
508.1343549942
 31
0.0
  0
LINE
  5
19E
330
1F
100
AcDbEntity
  8
0
  6
Continuous
 62
     7
370
    15
100
AcDbLine
 10
213.1354583246
 20
508.1343549942
 30
0.0
 11
213.1354583246
 21
505.1343549942
 31
0.0
  0
LINE
  5
19F
330
1F
100
AcDbEntity
  8
0
  6
Continuous
 62
     7
370
    15
100
AcDbLine
 10
228.1354583246
 20
508.1343549942
 30
0.0
 11
228.1354583246
 21
505.1343549942
 31
0.0
  0
LINE
  5
1A0
330
1F
100
AcDbEntity
  8
0
  6
Continuous
 62
     7
370
    15
100
AcDbLine
 10
233.1354583246
 20
508.1343549942
 30
0.0
 11
233.1354583246
 21
505.1343549942
 31
0.0
  0
LINE
  5
1A1
330
1F
100
AcDbEntity
  8
0
  6
Continuous
 62
     7
370
    15
100
AcDbLine
 10
228.1354583246
 20
508.1343549942
 30
0.0
 11
233.1354583246
 21
508.1343549942
 31
0.0
  0
LINE
  5
1A2
330
1F
100
AcDbEntity
  8
0
  6
Continuous
 62
     7
370
    15
100
AcDbLine
 10
238.1354583246
 20
508.1343549942
 30
0.0
 11
238.1354583246
 21
505.1343549942
 31
0.0
  0
LINE
  5
1A3
330
1F
100
AcDbEntity
  8
0
  6
Continuous
 62
     7
370
    15
100
AcDbLine
 10
233.1354583246
 20
508.1343549942
 30
0.0
 11
238.1354583246
 21
508.1343549942
 31
0.0
  0
LINE
  5
1A4
330
1F
100
AcDbEntity
  8
0
  6
Continuous
 62
     7
370
    15
100
AcDbLine
 10
128.1354583246
 20
508.1343549942
 30
0.0
 11
128.1354583246
 21
505.1343549942
 31
0.0
  0
LINE
  5
1A5
330
1F
100
AcDbEntity
  8
0
  6
Continuous
 62
     7
370
    15
100
AcDbLine
 10
128.1354583246
 20
508.1343549942
 30
0.0
 11
133.1354583246
 21
508.1343549942
 31
0.0
  0
LINE
  5
1A6
330
1F
100
AcDbEntity
  8
0
  6
Continuous
 62
     7
370
    15
100
AcDbLine
 10
133.1354583246
 20
508.1343549942
 30
0.0
 11
133.1354583246
 21
505.1343549942
 31
0.0
  0
LINE
  5
1A7
330
1F
100
AcDbEntity
  8
0
  6
Continuous
 62
     7
370
    15
100
AcDbLine
 10
133.1354583246
 20
508.1343549942
 30
0.0
 11
138.1354583246
 21
508.1343549942
 31
0.0
  0
LINE
  5
1A8
330
1F
100
AcDbEntity
  8
0
  6
Continuous
 62
     7
370
    15
100
AcDbLine
 10
138.1354583246
 20
508.1343549942
 30
0.0
 11
138.1354583246
 21
505.1343549942
 31
0.0
  0
LINE
  5
1A9
330
1F
100
AcDbEntity
  8
0
  6
Continuous
 62
     8
370
    15
100
AcDbLine
 10
183.1354583246
 20
497.6343549942
 30
0.0
 11
243.1354583246
 21
497.6343549942
 31
0.0
  0
LINE
  5
1AA
330
1F
100
AcDbEntity
  8
0
  6
Continuous
 62
     8
370
    15
100
AcDbLine
 10
123.1354583246
 20
497.6343549942
 30
0.0
 11
183.1354583246
 21
497.6343549942
 31
0.0
  0
LINE
  5
1AB
330
1F
100
AcDbEntity
  8
0
  6
Continuous
 62
     8
370
    15
100
AcDbLine
 10
183.1354583246
 20
502.6343549942
 30
0.0
 11
123.1354583246
 21
502.6343549942
 31
0.0
  0
LINE
  5
1AC
330
1F
100
AcDbEntity
  8
0
  6
Continuous
 62
     8
370
    15
100
AcDbLine
 10
243.1354583246
 20
502.6343549942
 30
0.0
 11
183.1354583246
 21
502.6343549942
 31
0.0
  0
LINE
  5
1AD
330
1F
100
AcDbEntity
  8
0
  6
Continuous
 62
     8
370
    15
100
AcDbLine
 10
183.1354583246
 20
492.6343549942
 30
0.0
 11
133.1354583246
 21
492.6343549942
 31
0.0
  0
LINE
  5
1AE
330
1F
100
AcDbEntity
  8
0
  6
Continuous
 62
     8
370
    15
100
AcDbLine
 10
233.1354583246
 20
492.6343549942
 30
0.0
 11
183.1354583246
 21
492.6343549942
 31
0.0
  0
LINE
  5
1AF
330
1F
100
AcDbEntity
  8
0
  6
Continuous
 62
     8
370
    15
100
AcDbLine
 10
183.1354583246
 20
428.1343549942
 30
0.0
 11
233.1354583246
 21
428.1343549942
 31
0.0
  0
LINE
  5
1B0
330
1F
100
AcDbEntity
  8
0
  6
Continuous
 62
     8
370
    15
100
AcDbLine
 10
133.1354583246
 20
428.1343549942
 30
0.0
 11
183.1354583246
 21
428.1343549942
 31
0.0
  0
ARC
  5
1B1
330
1F
100
AcDbEntity
  8
0
  6
Continuous
 62
     7
370
     0
100
AcDbCircle
 10
183.1354583246
 20
468.1343549942
 30
0.0
 40
13.22050020098697
100
AcDbArc
 50
255.0
 51
195.0
  0
LINE
  5
1B2
330
1F
100
AcDbEntity
  8
0
  6
Continuous
 62
     7
370
    15
100
AcDbLine
 10
622.1920262015
 20
499.4343549942
 30
0.0
 11
621.4920262015
 21
500.1343549942
 31
0.0
  0
LINE
  5
1B3
330
1F
100
AcDbEntity
  8
0
  6
Continuous
 62
     7
370
    15
100
AcDbLine
 10
502.8920262015
 20
500.1343549942
 30
0.0
 11
502.1920262015
 21
499.4343549942
 31
0.0
  0
LINE
  5
1B4
330
1F
100
AcDbEntity
  8
0
  6
Continuous
 62
     7
370
    15
100
AcDbLine
 10
502.1920262015
 20
499.4343549942
 30
0.0
 11
502.1920262015
 21
497.6343549942
 31
0.0
  0
LINE
  5
1B5
330
1F
100
AcDbEntity
  8
0
  6
Continuous
 62
     7
370
    15
100
AcDbLine
 10
622.1920262015
 20
497.6343549942
 30
0.0
 11
622.1920262015
 21
499.4343549942
 31
0.0
  0
LINE
  5
1B6
330
1F
100
AcDbEntity
  8
0
  6
Continuous
 62
     7
370
    15
100
AcDbLine
 10
502.1920262015
 20
502.6343549942
 30
0.0
 11
502.1920262015
 21
500.8343549942
 31
0.0
  0
LINE
  5
1B7
330
1F
100
AcDbEntity
  8
0
  6
Continuous
 62
     7
370
    15
100
AcDbLine
 10
622.1920262015
 20
500.8343549942
 30
0.0
 11
622.1920262015
 21
502.6343549942
 31
0.0
  0
LINE
  5
1B8
330
1F
100
AcDbEntity
  8
0
  6
Continuous
 62
     7
370
    15
100
AcDbLine
 10
502.1920262015
 20
500.8343549942
 30
0.0
 11
502.8920262015
 21
500.1343549942
 31
0.0
  0
LINE
  5
1B9
330
1F
100
AcDbEntity
  8
0
  6
Continuous
 62
     7
370
    15
100
AcDbLine
 10
621.4920262015
 20
500.1343549942
 30
0.0
 11
622.1920262015
 21
500.8343549942
 31
0.0
  0
ARC
  5
1BA
330
1F
100
AcDbEntity
  8
0
  6
Continuous
 62
     7
370
    15
100
AcDbCircle
 10
504.6920262015
 20
497.6343549942
 30
0.0
 40
2.5
100
AcDbArc
 50
180.0
 51
270.0
  0
ARC
  5
1BB
330
1F
100
AcDbEntity
  8
0
  6
Continuous
 62
     7
370
    15
100
AcDbCircle
 10
619.6920262015
 20
497.6343549942
 30
0.0
 40
2.5
100
AcDbArc
 50
270.0
 51
0.0
  0
ARC
  5
1BC
330
1F
100
AcDbEntity
  8
0
  6
Continuous
 62
     7
370
    15
100
AcDbCircle
 10
504.6920262015
 20
502.6343549942
 30
0.0
 40
2.499999999999943
100
AcDbArc
 50
90.0
 51
180.0
  0
ARC
  5
1BD
330
1F
100
AcDbEntity
  8
0
  6
Continuous
 62
     7
370
    15
100
AcDbCircle
 10
619.6920262015
 20
502.6343549942
 30
0.0
 40
2.499999999999943
100
AcDbArc
 50
0.0
 51
90.0
  0
ARC
  5
1BE
330
1F
100
AcDbEntity
  8
0
  6
Continuous
 62
     7
370
    15
100
AcDbCircle
 10
509.6920262015
 20
492.6343549942
 30
0.0
 40
2.499999999999943
100
AcDbArc
 50
0.0
 51
90.0
  0
ARC
  5
1BF
330
1F
100
AcDbEntity
  8
0
  6
Continuous
 62
     7
370
    15
100
AcDbCircle
 10
614.6920262015
 20
492.6343549942
 30
0.0
 40
2.5
100
AcDbArc
 50
90.0
 51
180.0
  0
LINE
  5
1C0
330
1F
100
AcDbEntity
  8
0
  6
Continuous
 62
     7
370
    15
100
AcDbLine
 10
512.1920262015
 20
445.6343549942
 30
0.0
 11
512.1920262015
 21
428.1343549942
 31
0.0
  0
LINE
  5
1C1
330
1F
100
AcDbEntity
  8
0
  6
Continuous
 62
     7
370
    15
100
AcDbLine
 10
512.1920262015
 20
492.6343549942
 30
0.0
 11
512.1920262015
 21
490.6343549942
 31
0.0
  0
LINE
  5
1C2
330
1F
100
AcDbEntity
  8
0
  6
Continuous
 62
     7
370
    15
100
AcDbLine
 10
612.1920262015
 20
490.6343549942
 30
0.0
 11
612.1920262015
 21
492.6343549942
 31
0.0
  0
LINE
  5
1C3
330
1F
100
AcDbEntity
  8
0
  6
Continuous
 62
     7
370
    15
100
AcDbLine
 10
612.1920262015
 20
428.1343549942
 30
0.0
 11
612.1920262015
 21
445.6343549942
 31
0.0
  0
ARC
  5
1C4
330
1F
100
AcDbEntity
  8
0
  6
Continuous
 62
     7
370
    15
100
AcDbCircle
 10
527.1920262015
 20
428.1343549942
 30
0.0
 40
15.0
100
AcDbArc
 50
180.0
 51
270.0
  0
ARC
  5
1C5
330
1F
100
AcDbEntity
  8
0
  6
Continuous
 62
     7
370
    15
100
AcDbCircle
 10
597.1920262015
 20
428.1343549942
 30
0.0
 40
15.0
100
AcDbArc
 50
270.0
 51
0.0
  0
ARC
  5
1C6
330
1F
100
AcDbEntity
  8
0
  6
Continuous
 62
     7
370
    15
100
AcDbCircle
 10
509.6920262015
 20
490.6343549942
 30
0.0
 40
2.5
100
AcDbArc
 50
270.0
 51
0.0
  0
ARC
  5
1C7
330
1F
100
AcDbEntity
  8
0
  6
Continuous
 62
     7
370
    15
100
AcDbCircle
 10
509.6920262015
 20
445.6343549942
 30
0.0
 40
2.5
100
AcDbArc
 50
0.0
 51
90.0
  0
ARC
  5
1C8
330
1F
100
AcDbEntity
  8
0
  6
Continuous
 62
     7
370
    15
100
AcDbCircle
 10
614.6920262015
 20
445.6343549942
 30
0.0
 40
2.5
100
AcDbArc
 50
90.0
 51
180.0
  0
ARC
  5
1C9
330
1F
100
AcDbEntity
  8
0
  6
Continuous
 62
     7
370
    15
100
AcDbCircle
 10
614.6920262015
 20
490.6343549942
 30
0.0
 40
2.5
100
AcDbArc
 50
180.0
 51
270.0
  0
LINE
  5
1CA
330
1F
100
AcDbEntity
  8
0
  6
Continuous
 62
     7
370
    15
100
AcDbLine
 10
622.1920262015
 20
499.4343549942
 30
0.0
 11
502.1920262015
 21
499.4343549942
 31
0.0
  0
LINE
  5
1CB
330
1F
100
AcDbEntity
  8
0
  6
Continuous
 62
     7
370
    15
100
AcDbLine
 10
621.4920262015
 20
500.1343549942
 30
0.0
 11
502.8920262015
 21
500.1343549942
 31
0.0
  0
LINE
  5
1CC
330
1F
100
AcDbEntity
  8
0
  6
Continuous
 62
     7
370
    15
100
AcDbLine
 10
622.1920262015
 20
500.8343549942
 30
0.0
 11
502.1920262015
 21
500.8343549942
 31
0.0
  0
LINE
  5
1CD
330
1F
100
AcDbEntity
  8
0
  6
Continuous
 62
     7
370
    15
100
AcDbLine
 10
619.6920262015
 20
495.1343549942
 30
0.0
 11
504.6920262015
 21
495.1343549942
 31
0.0
  0
LINE
  5
1CE
330
1F
100
AcDbEntity
  8
0
  6
Continuous
 62
     7
370
    15
100
AcDbLine
 10
504.6920262025
 20
505.1343549942
 30
0.0
 11
619.6920262015
 21
505.1343549942
 31
0.0
  0
LINE
  5
1CF
330
1F
100
AcDbEntity
  8
0
  6
Continuous
 62
     7
370
    15
100
AcDbLine
 10
556.4185235096
 20
508.1343549942
 30
0.0
 11
556.4185235096
 21
505.1343549942
 31
0.0
  0
LINE
  5
1D0
330
1F
100
AcDbEntity
  8
0
  6
Continuous
 62
     7
370
    15
100
AcDbLine
 10
556.4185235096
 20
508.1343549942
 30
0.0
 11
559.3052748555
 21
508.1343549942
 31
0.0
  0
LINE
  5
1D1
330
1F
100
AcDbEntity
  8
0
  6
Continuous
 62
     7
370
    15
100
AcDbLine
 10
559.3052748555
 20
508.1343549942
 30
0.0
 11
559.3052748555
 21
505.1343549942
 31
0.0
  0
LINE
  5
1D2
330
1F
100
AcDbEntity
  8
0
  6
Continuous
 62
     7
370
    15
100
AcDbLine
 10
565.0787775474
 20
508.1343549942
 30
0.0
 11
565.0787775474
 21
505.1343549942
 31
0.0
  0
LINE
  5
1D3
330
1F
100
AcDbEntity
  8
0
  6
Continuous
 62
     7
370
    15
100
AcDbLine
 10
559.3052748555
 20
508.1343549942
 30
0.0
 11
565.0787775474
 21
508.1343549942
 31
0.0
  0
LINE
  5
1D4
330
1F
100
AcDbEntity
  8
0
  6
Continuous
 62
     7
370
    15
100
AcDbLine
 10
567.9655288934
 20
508.1343549942
 30
0.0
 11
567.9655288934
 21
505.1343549942
 31
0.0
  0
LINE
  5
1D5
330
1F
100
AcDbEntity
  8
0
  6
Continuous
 62
     7
370
    15
100
AcDbLine
 10
565.0787775474
 20
508.1343549942
 30
0.0
 11
567.9655288934
 21
508.1343549942
 31
0.0
  0
SPLINE
  5
1D6
330
1F
100
AcDbEntity
  8
0
  6
Continuous
 62
     7
370
    15
100
AcDbSpline
210
0.0
220
0.0
230
1.0
 70
     8
 71
     3
 72
    30
 73
    26
 74
     0
 42
0.000000001
 43
0.00000001
 40
0.0
 40
0.0
 40
0.0
 40
0.0
 40
0.0625
 40
0.0625
 40
0.1250000000000001
 40
0.1250000000000001
 40
0.2499999999999998
 40
0.2499999999999998
 40
0.3124999999999996
 40
0.3124999999999996
 40
0.3749999999999993
 40
0.3749999999999993
 40
0.4999999999999993
 40
0.4999999999999993
 40
0.5624999999999993
 40
0.5624999999999993
 40
0.6249999999999993
 40
0.6249999999999993
 40
0.7499999999999994
 40
0.7499999999999994
 40
0.8124999999999996
 40
0.8124999999999996
 40
0.8749999999999997
 40
0.8749999999999997
 40
1.0
 40
1.0
 40
1.0
 40
1.0
 10
517.0166310562067
 20
458.1343549942465
 30
0.0
 10
517.0166310562067
 20
457.7215912628673
 30
0.0
 10
517.0074028770719
 20
457.310940880518
 30
0.0
 10
516.970962814312
 20
456.4937923488393
 30
0.0
 10
516.943649155892
 20
456.0861942986056
 30
0.0
 10
516.8358420738505
 20
454.8769601324195
 30
0.0
 10
516.7310508091455
 20
454.1020688695526
 30
0.0
 10
516.532638035924
 20
452.9833049016847
 30
0.0
 10
516.459595712488
 20
452.6177001551945
 30
0.0
 10
516.3007189114996
 20
451.9012007929069
 30
0.0
 10
516.2144662130979
 20
451.5490053759896
 30
0.0
 10
515.9439355285483
 20
450.536776821267
 30
0.0
 10
515.746731925885
 20
449.9138320018977
 30
0.0
 10
515.4343948360523
 20
449.0543497409967
 30
0.0
 10
515.3274966961287
 20
448.7804432530954
 30
0.0
 10
515.1093046368443
 20
448.2585553528769
 30
0.0
 10
514.9990607714888
 20
448.013183706594
 30
0.0
 10
514.6699680320805
 20
447.3297138510421
 30
0.0
 10
514.451480719998
 20
446.9405429270542
 30
0.0
 10
514.131550679905
 20
446.4597613150659
 30
0.0
 10
514.0256558387513
 20
446.3162524990609
 30
0.0
 10
513.8216210959804
 20
446.0708240575772
 30
0.0
 10
513.7231388231143
 20
445.9682186790533
 30
0.0
 10
513.4390314966184
 20
445.7203533850573
 30
0.0
 10
513.2647414057847
 20
445.6343549942464
 30
0.0
 10
513.1074354203067
 20
445.6343549942464
 30
0.0
  0
LINE
  5
1D7
330
1F
100
AcDbEntity
  8
0
  6
Continuous
 62
     7
370
    15
100
AcDbLine
 10
517.0166310562
 20
478.1343549942
 30
0.0
 11
517.0166310562
 21
458.1343549942
 31
0.0
  0
SPLINE
  5
1D8
330
1F
100
AcDbEntity
  8
0
  6
Continuous
 62
     7
370
    15
100
AcDbSpline
210
0.0
220
0.0
230
1.0
 70
     8
 71
     3
 72
    30
 73
    26
 74
     0
 42
0.000000001
 43
0.00000001
 40
0.0
 40
0.0
 40
0.0
 40
0.0
 40
0.1249999999999997
 40
0.1249999999999997
 40
0.1874999999999998
 40
0.1874999999999998
 40
0.2499999999999999
 40
0.2499999999999999
 40
0.3750000000000002
 40
0.3750000000000002
 40
0.4375000000000002
 40
0.4375000000000002
 40
0.5000000000000002
 40
0.5000000000000002
 40
0.5625000000000002
 40
0.5625000000000002
 40
0.6250000000000001
 40
0.6250000000000001
 40
0.7499999999999999
 40
0.7499999999999999
 40
0.8124999999999999
 40
0.8124999999999999
 40
0.8749999999999998
 40
0.8749999999999998
 40
1.0
 40
1.0
 40
1.0
 40
1.0
 10
513.1074354203067
 20
490.6343549942464
 30
0.0
 10
513.2645960609962
 20
490.6343549942465
 30
0.0
 10
513.4393107385919
 20
490.5484841900263
 30
0.0
 10
513.7253570582241
 20
490.2983681340986
 30
0.0
 10
513.8252255872096
 20
490.1939488270838
 30
0.0
 10
514.0298537359596
 20
489.9469937883213
 30
0.0
 10
514.1342323153543
 20
489.8051095772338
 30
0.0
 10
514.4521520570669
 20
489.3267711348074
 30
0.0
 10
514.670537765718
 20
488.9381738244872
 30
0.0
 10
515.0014924505977
 20
488.250293401888
 30
0.0
 10
515.1121314290107
 20
488.0036136110809
 30
0.0
 10
515.3286814843026
 20
487.4852084468346
 30
0.0
 10
515.4351651620017
 20
487.2123328597745
 30
0.0
 10
515.6432754244487
 20
486.6394742742345
 30
0.0
 10
515.7449044630342
 20
486.3394915593112
 30
0.0
 10
515.941837775193
 20
485.7117782712367
 30
0.0
 10
516.0375519645369
 20
485.3823749840853
 30
0.0
 10
516.3080125672343
 20
484.3682043391553
 30
0.0
 10
516.4672173586866
 20
483.6554866403274
 30
0.0
 10
516.6664834989427
 20
482.5300982404505
 30
0.0
 10
516.7265325401102
 20
482.1435694428467
 30
0.0
 10
516.8304227352247
 20
481.3603160483179
 30
0.0
 10
516.874137793158
 20
480.9652322557273
 30
0.0
 10
516.9798888581923
 20
479.7697431683696
 30
0.0
 10
517.0166310562067
 20
478.9591913152819
 30
0.0
 10
517.0166310562067
 20
478.1343549942465
 30
0.0
  0
SPLINE
  5
1D9
330
1F
100
AcDbEntity
  8
0
  6
Continuous
 62
     7
370
    15
100
AcDbSpline
210
0.0
220
0.0
230
1.0
 70
     8
 71
     3
 72
    30
 73
    26
 74
     0
 42
0.000000001
 43
0.00000001
 40
0.0
 40
0.0
 40
0.0
 40
0.0
 40
0.0625000000000001
 40
0.0625000000000001
 40
0.1250000000000001
 40
0.1250000000000001
 40
0.2499999999999999
 40
0.2499999999999999
 40
0.3124999999999997
 40
0.3124999999999997
 40
0.3749999999999995
 40
0.3749999999999995
 40
0.4999999999999996
 40
0.4999999999999996
 40
0.5624999999999996
 40
0.5624999999999996
 40
0.6249999999999997
 40
0.6249999999999997
 40
0.7499999999999998
 40
0.7499999999999998
 40
0.8124999999999999
 40
0.8124999999999999
 40
0.8750000000000001
 40
0.8750000000000001
 40
1.0
 40
1.0
 40
1.0
 40
1.0
 10
607.3674213467319
 20
478.1343549942465
 30
0.0
 10
607.3674213467319
 20
478.5471187256256
 30
0.0
 10
607.3766495258669
 20
478.9577691079749
 30
0.0
 10
607.4130895886267
 20
479.7749176396535
 30
0.0
 10
607.4404032470468
 20
480.1825156898873
 30
0.0
 10
607.5482103290882
 20
481.3917498560734
 30
0.0
 10
607.6530015937932
 20
482.1666411189402
 30
0.0
 10
607.8514143670146
 20
483.2854050868082
 30
0.0
 10
607.9244566904507
 20
483.6510098332984
 30
0.0
 10
608.083333491439
 20
484.367509195586
 30
0.0
 10
608.1695861898407
 20
484.7197046125032
 30
0.0
 10
608.4401168743902
 20
485.7319331672259
 30
0.0
 10
608.6373204770537
 20
486.3548779865951
 30
0.0
 10
608.9496575668863
 20
487.2143602474961
 30
0.0
 10
609.05655570681
 20
487.4882667353975
 30
0.0
 10
609.2747477660945
 20
488.0101546356159
 30
0.0
 10
609.3849916314499
 20
488.2555262818988
 30
0.0
 10
609.7140843708581
 20
488.9389961374507
 30
0.0
 10
609.9325716829406
 20
489.3281670614386
 30
0.0
 10
610.2525017230337
 20
489.8089486734269
 30
0.0
 10
610.3583965641874
 20
489.9524574894319
 30
0.0
 10
610.5624313069583
 20
490.1978859309157
 30
0.0
 10
610.6609135798244
 20
490.3004913094395
 30
0.0
 10
610.9450209063203
 20
490.5483566034355
 30
0.0
 10
611.119310997154
 20
490.6343549942464
 30
0.0
 10
611.276616982632
 20
490.6343549942464
 30
0.0
  0
LINE
  5
1DA
330
1F
100
AcDbEntity
  8
0
  6
Continuous
 62
     7
370
    15
100
AcDbLine
 10
607.3674213467
 20
458.1343549942
 30
0.0
 11
607.3674213467
 21
478.1343549942
 31
0.0
  0
SPLINE
  5
1DB
330
1F
100
AcDbEntity
  8
0
  6
Continuous
 62
     7
370
    15
100
AcDbSpline
210
0.0
220
0.0
230
1.0
 70
     8
 71
     3
 72
    30
 73
    26
 74
     0
 42
0.000000001
 43
0.00000001
 40
0.0
 40
0.0
 40
0.0
 40
0.0
 40
0.1249999999999994
 40
0.1249999999999994
 40
0.1874999999999994
 40
0.1874999999999994
 40
0.2499999999999994
 40
0.2499999999999994
 40
0.3749999999999991
 40
0.3749999999999991
 40
0.4374999999999993
 40
0.4374999999999993
 40
0.4999999999999994
 40
0.4999999999999994
 40
0.5624999999999996
 40
0.5624999999999996
 40
0.6249999999999998
 40
0.6249999999999998
 40
0.7499999999999998
 40
0.7499999999999998
 40
0.8124999999999998
 40
0.8124999999999998
 40
0.8749999999999999
 40
0.8749999999999999
 40
1.0
 40
1.0
 40
1.0
 40
1.0
 10
611.276616982632
 20
445.6343549942464
 30
0.0
 10
611.1194563419425
 20
445.6343549942464
 30
0.0
 10
610.9447416643469
 20
445.7202257984665
 30
0.0
 10
610.6586953447146
 20
445.9703418543943
 30
0.0
 10
610.5588268157289
 20
446.074761161409
 30
0.0
 10
610.3541986669792
 20
446.3217162001716
 30
0.0
 10
610.2498200875843
 20
446.463600411259
 30
0.0
 10
609.9319003458719
 20
446.9419388536854
 30
0.0
 10
609.7135146372207
 20
447.3305361640057
 30
0.0
 10
609.382559952341
 20
448.0184165866049
 30
0.0
 10
609.271920973928
 20
448.265096377412
 30
0.0
 10
609.0553709186362
 20
448.7835015416582
 30
0.0
 10
608.948887240937
 20
449.0563771287183
 30
0.0
 10
608.7407769784901
 20
449.6292357142584
 30
0.0
 10
608.6391479399044
 20
449.9292184291817
 30
0.0
 10
608.4422146277457
 20
450.5569317172561
 30
0.0
 10
608.3465004384019
 20
450.8863350044076
 30
0.0
 10
608.0760398357044
 20
451.9005056493376
 30
0.0
 10
607.9168350442521
 20
452.6132233481654
 30
0.0
 10
607.7175689039959
 20
453.7386117480424
 30
0.0
 10
607.6575198628286
 20
454.1251405456461
 30
0.0
 10
607.553629667714
 20
454.9083939401749
 30
0.0
 10
607.5099146097808
 20
455.3034777327655
 30
0.0
 10
607.4041635447463
 20
456.4989668201233
 30
0.0
 10
607.3674213467319
 20
457.309518673211
 30
0.0
 10
607.3674213467319
 20
458.1343549942465
 30
0.0
  0
LINE
  5
1DC
330
1F
100
AcDbEntity
  8
0
  6
Continuous
 62
     7
370
    15
100
AcDbLine
 10
597.1920262015
 20
413.1343549942
 30
0.0
 11
527.1920262015
 21
413.1343549942
 31
0.0
  0
LINE
  5
1DD
330
1F
100
AcDbEntity
  8
0
  6
Continuous
 62
     7
370
    15
100
AcDbLine
 10
513.1172533204
 20
508.1343549942
 30
0.0
 11
513.1172533204
 21
505.1343549942
 31
0.0
  0
LINE
  5
1DE
330
1F
100
AcDbEntity
  8
0
  6
Continuous
 62
     7
370
    15
100
AcDbLine
 10
516.0040046663
 20
508.1343549942
 30
0.0
 11
516.0040046663
 21
505.1343549942
 31
0.0
  0
LINE
  5
1DF
330
1F
100
AcDbEntity
  8
0
  6
Continuous
 62
     7
370
    15
100
AcDbLine
 10
513.1172533204
 20
508.1343549942
 30
0.0
 11
516.0040046663
 21
508.1343549942
 31
0.0
  0
LINE
  5
1E0
330
1F
100
AcDbEntity
  8
0
  6
Continuous
 62
     7
370
    15
100
AcDbLine
 10
521.7775073582
 20
508.1343549942
 30
0.0
 11
521.7775073582
 21
505.1343549942
 31
0.0
  0
LINE
  5
1E1
330
1F
100
AcDbEntity
  8
0
  6
Continuous
 62
     7
370
    15
100
AcDbLine
 10
516.0040046663
 20
508.1343549942
 30
0.0
 11
521.7775073582
 21
508.1343549942
 31
0.0
  0
LINE
  5
1E2
330
1F
100
AcDbEntity
  8
0
  6
Continuous
 62
     7
370
    15
100
AcDbLine
 10
524.6642587041
 20
508.1343549942
 30
0.0
 11
524.6642587041
 21
505.1343549942
 31
0.0
  0
LINE
  5
1E3
330
1F
100
AcDbEntity
  8
0
  6
Continuous
 62
     7
370
    15
100
AcDbLine
 10
521.7775073582
 20
508.1343549942
 30
0.0
 11
524.6642587041
 21
508.1343549942
 31
0.0
  0
LINE
  5
1E4
330
1F
100
AcDbEntity
  8
0
  6
Continuous
 62
     7
370
    15
100
AcDbLine
 10
599.7197936988
 20
508.1343549942
 30
0.0
 11
599.7197936988
 21
505.1343549942
 31
0.0
  0
LINE
  5
1E5
330
1F
100
AcDbEntity
  8
0
  6
Continuous
 62
     7
370
    15
100
AcDbLine
 10
599.7197936988
 20
508.1343549942
 30
0.0
 11
602.6065450447
 21
508.1343549942
 31
0.0
  0
LINE
  5
1E6
330
1F
100
AcDbEntity
  8
0
  6
Continuous
 62
     7
370
    15
100
AcDbLine
 10
602.6065450447
 20
508.1343549942
 30
0.0
 11
602.6065450447
 21
505.1343549942
 31
0.0
  0
LINE
  5
1E7
330
1F
100
AcDbEntity
  8
0
  6
Continuous
 62
     7
370
    15
100
AcDbLine
 10
608.3800477366
 20
508.1343549942
 30
0.0
 11
608.3800477366
 21
505.1343549942
 31
0.0
  0
LINE
  5
1E8
330
1F
100
AcDbEntity
  8
0
  6
Continuous
 62
     7
370
    15
100
AcDbLine
 10
602.6065450447
 20
508.1343549942
 30
0.0
 11
608.3800477366
 21
508.1343549942
 31
0.0
  0
LINE
  5
1E9
330
1F
100
AcDbEntity
  8
0
  6
Continuous
 62
     7
370
    15
100
AcDbLine
 10
611.2667990826
 20
508.1343549942
 30
0.0
 11
611.2667990826
 21
505.1343549942
 31
0.0
  0
LINE
  5
1EA
330
1F
100
AcDbEntity
  8
0
  6
Continuous
 62
     7
370
    15
100
AcDbLine
 10
608.3800477366
 20
508.1343549942
 30
0.0
 11
611.2667990826
 21
508.1343549942
 31
0.0
  0
ARC
  5
1EB
330
1F
100
AcDbEntity
  8
0
  6
Continuous
 62
     7
370
    15
100
AcDbCircle
 10
510.6301072503
 20
445.6570307312
 30
0.0
 40
2.477431946793284
100
AcDbArc
 50
359.4755689785
 51
89.4657882557
  0
SPLINE
  5
1EC
330
1F
100
AcDbEntity
  8
0
  6
Continuous
 62
     7
370
    15
100
AcDbSpline
210
0.0
220
0.0
230
1.0
 70
     8
 71
     3
 72
    28
 73
    24
 74
     0
 42
0.000000001
 43
0.00000001
 40
0.0
 40
0.0
 40
0.0
 40
0.0
 40
0.1250000000000001
 40
0.1250000000000001
 40
0.1875000000000001
 40
0.1875000000000001
 40
0.2500000000000001
 40
0.2500000000000001
 40
0.3750000000000001
 40
0.3750000000000001
 40
0.5
 40
0.5
 40
0.625
 40
0.625
 40
0.6875
 40
0.6875
 40
0.7499999999999999
 40
0.7499999999999999
 40
0.8749999999999999
 40
0.8749999999999999
 40
0.9375
 40
0.9375
 40
1.0
 40
1.0
 40
1.0
 40
1.0
 10
510.6532058812487
 20
448.1343549942464
 30
0.0
 10
510.8148385403983
 20
448.1343549942464
 30
0.0
 10
510.9933980259851
 20
448.2002569270631
 30
0.0
 10
511.2837944004565
 20
448.3897914307951
 30
0.0
 10
511.3843549224011
 20
448.4682119516652
 30
0.0
 10
511.5925229620161
 20
448.6556214302798
 30
0.0
 10
511.7005951192273
 20
448.7652170401105
 30
0.0
 10
512.0281661667173
 20
449.1336520248971
 30
0.0
 10
512.25255169086
 20
449.4326540210839
 30
0.0
 10
512.7053365265402
 20
450.135693317872
 30
0.0
 10
512.9355608184103
 20
450.5440936752399
 30
0.0
 10
513.3732938001127
 20
451.4418177928937
 30
0.0
 10
513.5825337625187
 20
451.9328716256366
 30
0.0
 10
513.872581513785
 20
452.737909967643
 30
0.0
 10
513.9657786238997
 20
453.0195941116123
 30
0.0
 10
514.1388789163573
 20
453.5971414155833
 30
0.0
 10
514.2188716613613
 20
453.8928792612271
 30
0.0
 10
514.4371659325635
 20
454.801303013656
 30
0.0
 10
514.5539861000109
 20
455.4349470988335
 30
0.0
 10
514.6751678380314
 20
456.432816192385
 30
0.0
 10
514.7061311919051
 20
456.7713258426932
 30
0.0
 10
514.74737678307
 20
457.4495600457539
 30
0.0
 10
514.7578612989437
 20
457.790845342282
 30
0.0
 10
514.7578612989437
 20
458.1343549942465
 30
0.0
  0
LINE
  5
1ED
330
1F
100
AcDbEntity
  8
0
  6
Continuous
 62
     7
370
    15
100
AcDbLine
 10
517.0166310562
 20
458.1343549942
 30
0.0
 11
514.7578612989
 21
458.1343549942
 31
0.0
  0
ARC
  5
1EE
330
1F
100
AcDbEntity
  8
0
  6
Continuous
 62
     7
370
    15
100
AcDbCircle
 10
613.7539451526
 20
490.6116792573
 30
0.0
 40
2.477431946793172
100
AcDbArc
 50
179.4755689785
 51
269.4657882557
  0
SPLINE
  5
1EF
330
1F
100
AcDbEntity
  8
0
  6
Continuous
 62
     7
370
    15
100
AcDbSpline
210
0.0
220
0.0
230
1.0
 70
     8
 71
     3
 72
    28
 73
    24
 74
     0
 42
0.000000001
 43
0.00000001
 40
0.0
 40
0.0
 40
0.0
 40
0.0
 40
0.1250000000000001
 40
0.1250000000000001
 40
0.1875000000000001
 40
0.1875000000000001
 40
0.2500000000000001
 40
0.2500000000000001
 40
0.3750000000000001
 40
0.3750000000000001
 40
0.4999999999999998
 40
0.4999999999999998
 40
0.6249999999999994
 40
0.6249999999999994
 40
0.6874999999999996
 40
0.6874999999999996
 40
0.7499999999999996
 40
0.7499999999999996
 40
0.8749999999999998
 40
0.8749999999999998
 40
0.9375
 40
0.9375
 40
1.0
 40
1.0
 40
1.0
 40
1.0
 10
613.7308465216901
 20
488.1343549942464
 30
0.0
 10
613.5692138625402
 20
488.1343549942465
 30
0.0
 10
613.3906543769538
 20
488.0684530614298
 30
0.0
 10
613.1002580024823
 20
487.8789185576978
 30
0.0
 10
612.9996974805376
 20
487.8004980368275
 30
0.0
 10
612.7915294409227
 20
487.613088558213
 30
0.0
 10
612.6834572837114
 20
487.5034929483824
 30
0.0
 10
612.3558862362215
 20
487.1350579635957
 30
0.0
 10
612.1315007120788
 20
486.836055967409
 30
0.0
 10
611.6787158763984
 20
486.1330166706209
 30
0.0
 10
611.4484915845284
 20
485.7246163132529
 30
0.0
 10
611.010758602826
 20
484.8268921955992
 30
0.0
 10
610.8015186404201
 20
484.3358383628562
 30
0.0
 10
610.5114708891538
 20
483.5308000208499
 30
0.0
 10
610.418273779039
 20
483.2491158768806
 30
0.0
 10
610.2451734865815
 20
482.6715685729096
 30
0.0
 10
610.1651807415774
 20
482.3758307272657
 30
0.0
 10
609.9468864703751
 20
481.4674069748369
 30
0.0
 10
609.8300663029278
 20
480.8337628896593
 30
0.0
 10
609.7088845649073
 20
479.8358937961079
 30
0.0
 10
609.6779212110335
 20
479.4973841457997
 30
0.0
 10
609.6366756198688
 20
478.819149942739
 30
0.0
 10
609.6261911039951
 20
478.4778646462108
 30
0.0
 10
609.6261911039951
 20
478.1343549942465
 30
0.0
  0
LINE
  5
1F0
330
1F
100
AcDbEntity
  8
0
  6
Continuous
 62
     7
370
    15
100
AcDbLine
 10
607.3674213467
 20
478.1343549942
 30
0.0
 11
609.626191104
 21
478.1343549942
 31
0.0
  0
LINE
  5
1F1
330
1F
100
AcDbEntity
  8
0
  6
Continuous
 62
     7
370
    15
100
AcDbLine
 10
517.0166310562
 20
478.1343549942
 30
0.0
 11
514.7578612989
 21
478.1343549942
 31
0.0
  0
SPLINE
  5
1F2
330
1F
100
AcDbEntity
  8
0
  6
Continuous
 62
     7
370
    15
100
AcDbSpline
210
0.0
220
0.0
230
1.0
 70
     8
 71
     3
 72
    30
 73
    26
 74
     0
 42
0.000000001
 43
0.00000001
 40
0.0
 40
0.0
 40
0.0
 40
0.0
 40
0.1249999999999996
 40
0.1249999999999996
 40
0.1874999999999994
 40
0.1874999999999994
 40
0.2499999999999993
 40
0.2499999999999993
 40
0.3749999999999989
 40
0.3749999999999989
 40
0.4374999999999987
 40
0.4374999999999987
 40
0.4999999999999986
 40
0.4999999999999986
 40
0.5624999999999983
 40
0.5624999999999983
 40
0.6249999999999982
 40
0.6249999999999982
 40
0.7499999999999987
 40
0.7499999999999987
 40
0.812499999999999
 40
0.812499999999999
 40
0.8749999999999992
 40
0.8749999999999992
 40
1.0
 40
1.0
 40
1.0
 40
1.0
 10
514.7578612989437
 20
478.1343549942465
 30
0.0
 10
514.7578612989437
 20
478.8207798062639
 30
0.0
 10
514.716147945397
 20
479.4921905109905
 30
0.0
 10
514.5974971795023
 20
480.4784659392127
 30
0.0
 10
514.5485656695241
 20
480.8037255595388
 30
0.0
 10
514.4326570233255
 20
481.4472370657201
 30
0.0
 10
514.3662540845111
 20
481.7619531345265
 30
0.0
 10
514.147167396017
 20
482.6753095629878
 30
0.0
 10
513.9738727834591
 20
483.2484037149074
 30
0.0
 10
513.6828448699199
 20
484.0580314204915
 30
0.0
 10
513.5808292247342
 20
484.3186695660071
 30
0.0
 10
513.3720724521096
 20
484.8135653441898
 30
0.0
 10
513.2648566790754
 20
485.0491710942528
 30
0.0
 10
513.0462720969091
 20
485.4976723313124
 30
0.0
 10
512.9349002144628
 20
485.710565527737
 30
0.0
 10
512.7092915778426
 20
486.1138178138256
 30
0.0
 10
512.5945302366811
 20
486.3049267480504
 30
0.0
 10
512.2533501548604
 20
486.8350906486309
 30
0.0
 10
512.0291551938572
 20
487.1336146658919
 30
0.0
 10
511.7035435711367
 20
487.5003395170543
 30
0.0
 10
511.5967732469761
 20
487.6089623646195
 30
0.0
 10
511.3876428532917
 20
487.7978271103726
 30
0.0
 10
511.2858890680003
 20
487.8774175760307
 30
0.0
 10
510.9936944424208
 20
488.0685242268301
 30
0.0
 10
510.8147226332212
 20
488.1343549942464
 30
0.0
 10
510.6532058812487
 20
488.1343549942464
 30
0.0
  0
ARC
  5
1F3
330
1F
100
AcDbEntity
  8
0
  6
Continuous
 62
     7
370
    15
100
AcDbCircle
 10
510.6301072503
 20
490.6116792573
 30
0.0
 40
2.477431946793398
100
AcDbArc
 50
270.5342117443
 51
0.5244310215
  0
LINE
  5
1F4
330
1F
100
AcDbEntity
  8
0
  6
Continuous
 62
     7
370
    15
100
AcDbLine
 10
607.3674213467
 20
458.1343549942
 30
0.0
 11
609.626191104
 21
458.1343549942
 31
0.0
  0
SPLINE
  5
1F5
330
1F
100
AcDbEntity
  8
0
  6
Continuous
 62
     7
370
    15
100
AcDbSpline
210
0.0
220
0.0
230
1.0
 70
     8
 71
     3
 72
    30
 73
    26
 74
     0
 42
0.000000001
 43
0.00000001
 40
0.0
 40
0.0
 40
0.0
 40
0.0
 40
0.1250000000000003
 40
0.1250000000000003
 40
0.1875000000000004
 40
0.1875000000000004
 40
0.2500000000000006
 40
0.2500000000000006
 40
0.3750000000000009
 40
0.3750000000000009
 40
0.4375000000000008
 40
0.4375000000000008
 40
0.5000000000000007
 40
0.5000000000000007
 40
0.5625000000000004
 40
0.5625000000000004
 40
0.6250000000000003
 40
0.6250000000000003
 40
0.7500000000000001
 40
0.7500000000000001
 40
0.8125000000000002
 40
0.8125000000000002
 40
0.8750000000000002
 40
0.8750000000000002
 40
1.0
 40
1.0
 40
1.0
 40
1.0
 10
609.6261911039951
 20
458.1343549942465
 30
0.0
 10
609.6261911039951
 20
457.4479301822289
 30
0.0
 10
609.6679044575417
 20
456.7765194775023
 30
0.0
 10
609.7865552234364
 20
455.7902440492802
 30
0.0
 10
609.8354867334145
 20
455.464984428954
 30
0.0
 10
609.9513953796131
 20
454.8214729227727
 30
0.0
 10
610.0177983184276
 20
454.5067568539663
 30
0.0
 10
610.2368850069216
 20
453.5934004255051
 30
0.0
 10
610.4101796194797
 20
453.0203062735854
 30
0.0
 10
610.7012075330189
 20
452.2106785680014
 30
0.0
 10
610.8032231782045
 20
451.9500404224857
 30
0.0
 10
611.0119799508291
 20
451.455144644303
 30
0.0
 10
611.1191957238633
 20
451.21953889424
 30
0.0
 10
611.3377803060296
 20
450.7710376571804
 30
0.0
 10
611.449152188476
 20
450.5581444607559
 30
0.0
 10
611.6747608250961
 20
450.1548921746673
 30
0.0
 10
611.7895221662576
 20
449.9637832404425
 30
0.0
 10
612.1307022480783
 20
449.4336193398619
 30
0.0
 10
612.3548972090815
 20
449.135095322601
 30
0.0
 10
612.6805088318021
 20
448.7683704714385
 30
0.0
 10
612.7872791559627
 20
448.6597476238734
 30
0.0
 10
612.9964095496471
 20
448.4708828781203
 30
0.0
 10
613.0981633349384
 20
448.3912924124622
 30
0.0
 10
613.3903579605179
 20
448.2001857616627
 30
0.0
 10
613.5693297697176
 20
448.1343549942464
 30
0.0
 10
613.7308465216901
 20
448.1343549942464
 30
0.0
  0
ARC
  5
1F6
330
1F
100
AcDbEntity
  8
0
  6
Continuous
 62
     7
370
    15
100
AcDbCircle
 10
613.7539451526
 20
445.6570307312
 30
0.0
 40
2.47743194679306
100
AcDbArc
 50
90.5342117443
 51
180.5244310215
  0
LINE
  5
1F7
330
1F
100
AcDbEntity
  8
0
  6
Continuous
 62
     7
370
    15
100
AcDbLine
 10
514.7578612989
 20
458.1343549942
 30
0.0
 11
514.7578612989
 21
478.1343549942
 31
0.0
  0
LINE
  5
1F8
330
1F
100
AcDbEntity
  8
0
  6
Continuous
 62
     7
370
    15
100
AcDbLine
 10
609.626191104
 20
478.1343549942
 30
0.0
 11
609.626191104
 21
458.1343549942
 31
0.0
  0
LINE
  5
1F9
330
1F
100
AcDbEntity
  8
0
  6
Continuous
 62
     7
370
    15
100
AcDbLine
 10
502.1920262015
 20
448.1343549942
 30
0.0
 11
502.1920262015
 21
458.1343549942
 31
0.0
  0
LINE
  5
1FA
330
1F
100
AcDbEntity
  8
0
  6
Continuous
 62
     7
370
    15
100
AcDbLine
 10
502.1920262015
 20
458.1343549942
 30
0.0
 11
514.7578612989
 21
458.1343549942
 31
0.0
  0
LINE
  5
1FB
330
1F
100
AcDbEntity
  8
0
  6
Continuous
 62
     7
370
    15
100
AcDbLine
 10
510.6532058812
 20
448.1343549942
 30
0.0
 11
502.1920262015
 21
448.1343549942
 31
0.0
  0
LINE
  5
1FC
330
1F
100
AcDbEntity
  8
0
  6
Continuous
 62
     7
370
    15
100
AcDbLine
 10
502.1920262015
 20
478.1343549942
 30
0.0
 11
502.1920262015
 21
488.1343549942
 31
0.0
  0
LINE
  5
1FD
330
1F
100
AcDbEntity
  8
0
  6
Continuous
 62
     7
370
    15
100
AcDbLine
 10
502.1920262015
 20
488.1343549942
 30
0.0
 11
510.6532058812
 21
488.1343549942
 31
0.0
  0
LINE
  5
1FE
330
1F
100
AcDbEntity
  8
0
  6
Continuous
 62
     7
370
    15
100
AcDbLine
 10
514.7578612989
 20
478.1343549942
 30
0.0
 11
502.1920262015
 21
478.1343549942
 31
0.0
  0
LINE
  5
1FF
330
1F
100
AcDbEntity
  8
0
  6
Continuous
 62
     7
370
    15
100
AcDbLine
 10
502.1920262015
 20
478.1343549942
 30
0.0
 11
502.1920262015
 21
458.1343549942
 31
0.0
  0
LINE
  5
200
330
1F
100
AcDbEntity
  8
0
  6
Continuous
 62
     7
370
    15
100
AcDbLine
 10
622.1920262015
 20
488.1343549942
 30
0.0
 11
622.1920262015
 21
478.1343549942
 31
0.0
  0
LINE
  5
201
330
1F
100
AcDbEntity
  8
0
  6
Continuous
 62
     7
370
    15
100
AcDbLine
 10
622.1920262015
 20
478.1343549942
 30
0.0
 11
609.626191104
 21
478.1343549942
 31
0.0
  0
LINE
  5
202
330
1F
100
AcDbEntity
  8
0
  6
Continuous
 62
     7
370
    15
100
AcDbLine
 10
613.7308465217
 20
488.1343549942
 30
0.0
 11
622.1920262015
 21
488.1343549942
 31
0.0
  0
LINE
  5
203
330
1F
100
AcDbEntity
  8
0
  6
Continuous
 62
     7
370
    15
100
AcDbLine
 10
622.1920262015
 20
458.1343549942
 30
0.0
 11
622.1920262015
 21
448.1343549942
 31
0.0
  0
LINE
  5
204
330
1F
100
AcDbEntity
  8
0
  6
Continuous
 62
     7
370
    15
100
AcDbLine
 10
622.1920262015
 20
448.1343549942
 30
0.0
 11
613.7308465217
 21
448.1343549942
 31
0.0
  0
LINE
  5
205
330
1F
100
AcDbEntity
  8
0
  6
Continuous
 62
     7
370
    15
100
AcDbLine
 10
609.626191104
 20
458.1343549942
 30
0.0
 11
622.1920262015
 21
458.1343549942
 31
0.0
  0
LINE
  5
206
330
1F
100
AcDbEntity
  8
0
  6
Continuous
 62
     7
370
    15
100
AcDbLine
 10
622.1920262015
 20
478.1343549942
 30
0.0
 11
622.1920262015
 21
458.1343549942
 31
0.0
  0
LINE
  5
207
330
1F
100
AcDbEntity
  8
0
  6
Continuous
 62
     8
370
    15
100
AcDbLine
 10
502.1920262015
 20
497.6343549942
 30
0.0
 11
622.1920262015
 21
497.6343549942
 31
0.0
  0
LINE
  5
208
330
1F
100
AcDbEntity
  8
0
  6
Continuous
 62
     8
370
    15
100
AcDbLine
 10
622.1920262015
 20
502.6343549942
 30
0.0
 11
502.1920262015
 21
502.6343549942
 31
0.0
  0
LINE
  5
209
330
1F
100
AcDbEntity
  8
0
  6
Continuous
 62
     8
370
    15
100
AcDbLine
 10
612.1920262015
 20
492.6343549942
 30
0.0
 11
512.1920262015
 21
492.6343549942
 31
0.0
  0
LINE
  5
20A
330
1F
100
AcDbEntity
  8
0
  6
Continuous
 62
     8
370
    15
100
AcDbLine
 10
512.1920262015
 20
428.1343549942
 30
0.0
 11
612.1920262015
 21
428.1343549942
 31
0.0
  0
LINE
  5
20B
330
1F
100
AcDbEntity
  8
0
  6
Continuous
 62
     8
370
    15
100
AcDbLine
 10
512.1920262015
 20
490.6343549942
 30
0.0
 11
513.1074354203
 21
490.6343549942
 31
0.0
  0
LINE
  5
20C
330
1F
100
AcDbEntity
  8
0
  6
Continuous
 62
     8
370
    15
100
AcDbLine
 10
513.1074354203
 20
445.6343549942
 30
0.0
 11
512.1920262015
 21
445.6343549942
 31
0.0
  0
LINE
  5
20D
330
1F
100
AcDbEntity
  8
0
  6
Continuous
 62
     8
370
    15
100
AcDbLine
 10
612.1920262015
 20
445.6343549942
 30
0.0
 11
611.2766169826
 21
445.6343549942
 31
0.0
  0
LINE
  5
20E
330
1F
100
AcDbEntity
  8
0
  6
Continuous
 62
     8
370
    15
100
AcDbLine
 10
611.2766169826
 20
490.6343549942
 30
0.0
 11
612.1920262015
 21
490.6343549942
 31
0.0
  0
LINE
  5
20F
330
1F
100
AcDbEntity
  8
0
  6
Continuous
 62
     7
370
    15
100
AcDbLine
 10
163.1354583246
 20
252.0415306567
 30
0.0
 11
158.1354583246
 21
254.9282820027
 31
0.0
  0
LINE
  5
210
330
1F
100
AcDbEntity
  8
0
  6
Continuous
 62
     7
370
    15
100
AcDbLine
 10
163.1354583246
 20
246.2680279648
 30
0.0
 11
163.1354583246
 21
252.0415306567
 31
0.0
  0
LINE
  5
211
330
1F
100
AcDbEntity
  8
0
  6
Continuous
 62
     7
370
    15
100
AcDbLine
 10
158.1354583246
 20
243.3812766189
 30
0.0
 11
163.1354583246
 21
246.2680279648
 31
0.0
  0
LINE
  5
212
330
1F
100
AcDbEntity
  8
0
  6
Continuous
 62
     7
370
    15
100
AcDbLine
 10
153.1354583246
 20
246.2680279648
 30
0.0
 11
158.1354583246
 21
243.3812766189
 31
0.0
  0
LINE
  5
213
330
1F
100
AcDbEntity
  8
0
  6
Continuous
 62
     7
370
    15
100
AcDbLine
 10
153.1354583246
 20
252.0415306567
 30
0.0
 11
153.1354583246
 21
246.2680279648
 31
0.0
  0
LINE
  5
214
330
1F
100
AcDbEntity
  8
0
  6
Continuous
 62
     7
370
    15
100
AcDbLine
 10
158.1354583246
 20
254.9282820027
 30
0.0
 11
153.1354583246
 21
252.0415306567
 31
0.0
  0
LINE
  5
215
330
1F
100
AcDbEntity
  8
0
  6
Continuous
 62
     7
370
    15
100
AcDbLine
 10
213.1354583246
 20
246.2680279648
 30
0.0
 11
213.1354583246
 21
252.0415306567
 31
0.0
  0
LINE
  5
216
330
1F
100
AcDbEntity
  8
0
  6
Continuous
 62
     7
370
    15
100
AcDbLine
 10
208.1354583246
 20
243.3812766189
 30
0.0
 11
213.1354583246
 21
246.2680279648
 31
0.0
  0
LINE
  5
217
330
1F
100
AcDbEntity
  8
0
  6
Continuous
 62
     7
370
    15
100
AcDbLine
 10
203.1354583246
 20
246.2680279648
 30
0.0
 11
208.1354583246
 21
243.3812766189
 31
0.0
  0
LINE
  5
218
330
1F
100
AcDbEntity
  8
0
  6
Continuous
 62
     7
370
    15
100
AcDbLine
 10
203.1354583246
 20
252.0415306567
 30
0.0
 11
203.1354583246
 21
246.2680279648
 31
0.0
  0
LINE
  5
219
330
1F
100
AcDbEntity
  8
0
  6
Continuous
 62
     7
370
    15
100
AcDbLine
 10
208.1354583246
 20
254.9282820027
 30
0.0
 11
203.1354583246
 21
252.0415306567
 31
0.0
  0
LINE
  5
21A
330
1F
100
AcDbEntity
  8
0
  6
Continuous
 62
     7
370
    15
100
AcDbLine
 10
213.1354583246
 20
252.0415306567
 30
0.0
 11
208.1354583246
 21
254.9282820027
 31
0.0
  0
LINE
  5
21B
330
1F
100
AcDbEntity
  8
0
  6
Continuous
 62
     7
370
    15
100
AcDbLine
 10
138.1354583246
 20
202.9667577756
 30
0.0
 11
138.1354583246
 21
208.7402604675
 31
0.0
  0
LINE
  5
21C
330
1F
100
AcDbEntity
  8
0
  6
Continuous
 62
     7
370
    15
100
AcDbLine
 10
133.1354583246
 20
200.0800064297
 30
0.0
 11
138.1354583246
 21
202.9667577756
 31
0.0
  0
LINE
  5
21D
330
1F
100
AcDbEntity
  8
0
  6
Continuous
 62
     7
370
    15
100
AcDbLine
 10
128.1354583246
 20
202.9667577756
 30
0.0
 11
133.1354583246
 21
200.0800064297
 31
0.0
  0
LINE
  5
21E
330
1F
100
AcDbEntity
  8
0
  6
Continuous
 62
     7
370
    15
100
AcDbLine
 10
128.1354583246
 20
208.7402604675
 30
0.0
 11
128.1354583246
 21
202.9667577756
 31
0.0
  0
LINE
  5
21F
330
1F
100
AcDbEntity
  8
0
  6
Continuous
 62
     7
370
    15
100
AcDbLine
 10
133.1354583246
 20
211.6270118135
 30
0.0
 11
128.1354583246
 21
208.7402604675
 31
0.0
  0
LINE
  5
220
330
1F
100
AcDbEntity
  8
0
  6
Continuous
 62
     7
370
    15
100
AcDbLine
 10
138.1354583246
 20
208.7402604675
 30
0.0
 11
133.1354583246
 21
211.6270118135
 31
0.0
  0
LINE
  5
221
330
1F
100
AcDbEntity
  8
0
  6
Continuous
 62
     7
370
    15
100
AcDbLine
 10
233.1354583246
 20
200.0800064297
 30
0.0
 11
238.1354583246
 21
202.9667577756
 31
0.0
  0
LINE
  5
222
330
1F
100
AcDbEntity
  8
0
  6
Continuous
 62
     7
370
    15
100
AcDbLine
 10
228.1354583246
 20
202.9667577756
 30
0.0
 11
233.1354583246
 21
200.0800064297
 31
0.0
  0
LINE
  5
223
330
1F
100
AcDbEntity
  8
0
  6
Continuous
 62
     7
370
    15
100
AcDbLine
 10
228.1354583246
 20
208.7402604675
 30
0.0
 11
228.1354583246
 21
202.9667577756
 31
0.0
  0
LINE
  5
224
330
1F
100
AcDbEntity
  8
0
  6
Continuous
 62
     7
370
    15
100
AcDbLine
 10
238.1354583246
 20
202.9667577756
 30
0.0
 11
238.1354583246
 21
208.7402604675
 31
0.0
  0
LINE
  5
225
330
1F
100
AcDbEntity
  8
0
  6
Continuous
 62
     7
370
    15
100
AcDbLine
 10
233.1354583246
 20
211.6270118135
 30
0.0
 11
228.1354583246
 21
208.7402604675
 31
0.0
  0
LINE
  5
226
330
1F
100
AcDbEntity
  8
0
  6
Continuous
 62
     7
370
    15
100
AcDbLine
 10
238.1354583246
 20
208.7402604675
 30
0.0
 11
233.1354583246
 21
211.6270118135
 31
0.0
  0
LINE
  5
227
330
1F
100
AcDbEntity
  8
0
  6
Continuous
 62
     7
370
    15
100
AcDbLine
 10
203.1354583246
 20
159.6654875864
 30
0.0
 11
208.1354583246
 21
156.7787362404
 31
0.0
  0
LINE
  5
228
330
1F
100
AcDbEntity
  8
0
  6
Continuous
 62
     7
370
    15
100
AcDbLine
 10
203.1354583246
 20
165.4389902783
 30
0.0
 11
203.1354583246
 21
159.6654875864
 31
0.0
  0
LINE
  5
229
330
1F
100
AcDbEntity
  8
0
  6
Continuous
 62
     7
370
    15
100
AcDbLine
 10
208.1354583246
 20
168.3257416242
 30
0.0
 11
203.1354583246
 21
165.4389902783
 31
0.0
  0
LINE
  5
22A
330
1F
100
AcDbEntity
  8
0
  6
Continuous
 62
     7
370
    15
100
AcDbLine
 10
213.1354583246
 20
165.4389902783
 30
0.0
 11
208.1354583246
 21
168.3257416242
 31
0.0
  0
LINE
  5
22B
330
1F
100
AcDbEntity
  8
0
  6
Continuous
 62
     7
370
    15
100
AcDbLine
 10
213.1354583246
 20
159.6654875864
 30
0.0
 11
213.1354583246
 21
165.4389902783
 31
0.0
  0
LINE
  5
22C
330
1F
100
AcDbEntity
  8
0
  6
Continuous
 62
     7
370
    15
100
AcDbLine
 10
208.1354583246
 20
156.7787362404
 30
0.0
 11
213.1354583246
 21
159.6654875864
 31
0.0
  0
LINE
  5
22D
330
1F
100
AcDbEntity
  8
0
  6
Continuous
 62
     7
370
    15
100
AcDbLine
 10
153.1354583246
 20
165.4389902783
 30
0.0
 11
153.1354583246
 21
159.6654875864
 31
0.0
  0
LINE
  5
22E
330
1F
100
AcDbEntity
  8
0
  6
Continuous
 62
     7
370
    15
100
AcDbLine
 10
158.1354583246
 20
168.3257416242
 30
0.0
 11
153.1354583246
 21
165.4389902783
 31
0.0
  0
LINE
  5
22F
330
1F
100
AcDbEntity
  8
0
  6
Continuous
 62
     7
370
    15
100
AcDbLine
 10
163.1354583246
 20
165.4389902783
 30
0.0
 11
158.1354583246
 21
168.3257416242
 31
0.0
  0
LINE
  5
230
330
1F
100
AcDbEntity
  8
0
  6
Continuous
 62
     7
370
    15
100
AcDbLine
 10
163.1354583246
 20
159.6654875864
 30
0.0
 11
163.1354583246
 21
165.4389902783
 31
0.0
  0
LINE
  5
231
330
1F
100
AcDbEntity
  8
0
  6
Continuous
 62
     7
370
    15
100
AcDbLine
 10
158.1354583246
 20
156.7787362404
 30
0.0
 11
163.1354583246
 21
159.6654875864
 31
0.0
  0
LINE
  5
232
330
1F
100
AcDbEntity
  8
0
  6
Continuous
 62
     7
370
    15
100
AcDbLine
 10
153.1354583246
 20
159.6654875864
 30
0.0
 11
158.1354583246
 21
156.7787362404
 31
0.0
  0
CIRCLE
  5
233
330
1F
100
AcDbEntity
  8
0
  6
Continuous
 62
     7
370
    15
100
AcDbCircle
 10
183.1354583246
 20
205.8535091216
 30
0.0
 40
57.5
  0
CIRCLE
  5
234
330
1F
100
AcDbEntity
  8
0
  6
Continuous
 62
     7
370
    15
100
AcDbCircle
 10
183.1354583246
 20
205.8535091216
 30
0.0
 40
60.0
  0
LINE
  5
235
330
1F
100
AcDbEntity
  8
0
  6
Continuous
 62
     7
370
    15
100
AcDbLine
 10
163.1354583246
 20
265.8535091216
 30
0.0
 11
173.1354583246
 21
265.8535091216
 31
0.0
  0
LINE
  5
236
330
1F
100
AcDbEntity
  8
0
  6
Continuous
 62
     7
370
    15
100
AcDbLine
 10
163.1354583246
 20
262.4220516165
 30
0.0
 11
163.1354583246
 21
265.8535091216
 31
0.0
  0
LINE
  5
237
330
1F
100
AcDbEntity
  8
0
  6
Continuous
 62
     7
370
    15
100
AcDbLine
 10
193.1354583246
 20
265.8535091216
 30
0.0
 11
173.1354583246
 21
265.8535091216
 31
0.0
  0
LINE
  5
238
330
1F
100
AcDbEntity
  8
0
  6
Continuous
 62
     7
370
    15
100
AcDbLine
 10
193.1354583246
 20
265.8535091216
 30
0.0
 11
203.1354583246
 21
265.8535091216
 31
0.0
  0
LINE
  5
239
330
1F
100
AcDbEntity
  8
0
  6
Continuous
 62
     7
370
    15
100
AcDbLine
 10
203.1354583246
 20
265.8535091216
 30
0.0
 11
203.1354583246
 21
262.4220516165
 31
0.0
  0
LINE
  5
23A
330
1F
100
AcDbEntity
  8
0
  6
Continuous
 62
     7
370
    15
100
AcDbLine
 10
203.1354583246
 20
145.8535091216
 30
0.0
 11
193.1354583246
 21
145.8535091216
 31
0.0
  0
LINE
  5
23B
330
1F
100
AcDbEntity
  8
0
  6
Continuous
 62
     7
370
    15
100
AcDbLine
 10
203.1354583246
 20
149.2849666266
 30
0.0
 11
203.1354583246
 21
145.8535091216
 31
0.0
  0
LINE
  5
23C
330
1F
100
AcDbEntity
  8
0
  6
Continuous
 62
     7
370
    15
100
AcDbLine
 10
173.1354583246
 20
145.8535091216
 30
0.0
 11
163.1354583246
 21
145.8535091216
 31
0.0
  0
LINE
  5
23D
330
1F
100
AcDbEntity
  8
0
  6
Continuous
 62
     7
370
    15
100
AcDbLine
 10
163.1354583246
 20
145.8535091216
 30
0.0
 11
163.1354583246
 21
149.2849666266
 31
0.0
  0
LINE
  5
23E
330
1F
100
AcDbEntity
  8
0
  6
Continuous
 62
     7
370
    15
100
AcDbLine
 10
193.1354583246
 20
145.8535091216
 30
0.0
 11
173.1354583246
 21
145.8535091216
 31
0.0
  0
LINE
  5
23F
330
1F
100
AcDbEntity
  8
0
  6
Continuous
 62
     8
370
    15
100
AcDbLine
 10
173.1354583246
 20
265.8535091216
 30
0.0
 11
173.1354583246
 21
265.0143069526
 31
0.0
  0
LINE
  5
240
330
1F
100
AcDbEntity
  8
0
  6
Continuous
 62
     8
370
    15
100
AcDbLine
 10
193.1354583246
 20
265.0143069526
 30
0.0
 11
193.1354583246
 21
265.8535091216
 31
0.0
  0
LINE
  5
241
330
1F
100
AcDbEntity
  8
0
  6
Continuous
 62
     8
370
    15
100
AcDbLine
 10
193.1354583246
 20
145.8535091216
 30
0.0
 11
193.1354583246
 21
146.6927112906
 31
0.0
  0
LINE
  5
242
330
1F
100
AcDbEntity
  8
0
  6
Continuous
 62
     8
370
    15
100
AcDbLine
 10
173.1354583246
 20
146.6927112906
 30
0.0
 11
173.1354583246
 21
145.8535091216
 31
0.0
  0
SPLINE
  5
243
330
1F
100
AcDbEntity
  8
0
  6
Continuous
 62
     7
370
    15
100
AcDbSpline
210
0.0
220
0.0
230
1.0
 70
     8
 71
     3
 72
    37
 73
    33
 74
     0
 42
0.000000001
 43
0.00000001
 40
0.0
 40
0.0
 40
0.0
 40
0.0
 40
0.0145173286843719
 40
0.0484527820646712
 40
0.082391596987217
 40
0.1163744144478947
 40
0.150440613614842
 40
0.1846229012983181
 40
0.2189452476343099
 40
0.2534217903503071
 40
0.288056789649249
 40
0.3228455653031918
 40
0.3577761993000125
 40
0.3928316809016985
 40
0.4279921389552828
 40
0.4632368548953411
 40
0.4985458552226787
 40
0.5339010042275217
 40
0.5692866201069546
 40
0.60468970127916
 40
0.6400997453185192
 40
0.6755067379280607
 40
0.7109054259900156
 40
0.7462921943601977
 40
0.7816647500219209
 40
0.8170218432930128
 40
0.8523630323275527
 40
0.8876884902748748
 40
0.9229988511497242
 40
0.9582950890781593
 40
0.9935784253336488
 40
1.0
 40
1.0
 40
1.0
 40
1.0
 10
658.5415443108229
 20
222.638261292952
 30
0.0
 10
658.5467610917782
 20
222.867961938032
 30
0.0
 10
658.5641725285655
 20
223.6346067897226
 30
0.0
 10
658.4671303828006
 20
224.9376769860663
 30
0.0
 10
658.2543930138629
 20
226.5422226383876
 30
0.0
 10
657.9156318715162
 20
228.1380915749871
 30
0.0
 10
657.4604124659368
 20
229.7226606486116
 30
0.0
 10
656.8868115002857
 20
231.2933391840428
 30
0.0
 10
656.196080208089
 20
232.8473777932803
 30
0.0
 10
655.3888232891701
 20
234.3818524811981
 30
0.0
 10
654.4661509958416
 20
235.8936578288903
 30
0.0
 10
653.4294746301205
 20
237.3795422604571
 30
0.0
 10
652.2806328805674
 20
238.8361674354531
 30
0.0
 10
651.0218856322765
 20
240.2601816319018
 30
0.0
 10
649.6559014939314
 20
241.6482929518924
 30
0.0
 10
648.1857142546802
 20
242.9973315296941
 30
0.0
 10
646.6146684410639
 20
244.3042942177964
 30
0.0
 10
644.9463621169815
 20
245.5663701651922
 30
0.0
 10
643.1845953661772
 20
246.7809495220472
 30
0.0
 10
641.3333307726381
 20
247.9456181626146
 30
0.0
 10
639.3966981386466
 20
249.0581265337973
 30
0.0
 10
637.378931366595
 20
250.1164066439948
 30
0.0
 10
635.2843520994786
 20
251.1185566476459
 30
0.0
 10
633.1173182748505
 20
252.0628351513128
 30
0.0
 10
630.8822808733796
 20
252.9476388629419
 30
0.0
 10
628.5837506645573
 20
253.7714304224166
 30
0.0
 10
626.2264160410996
 20
254.5329742498814
 30
0.0
 10
623.8146975021342
 20
255.2304355365945
 30
0.0
 10
621.3544004738276
 20
255.8647290526109
 30
0.0
 10
618.8465376510466
 20
256.4270249676924
 30
0.0
 10
617.0016009399433
 20
256.804079711492
 30
0.0
 10
615.9842849746185
 20
256.9727145800211
 30
0.0
 10
615.8276422606982
 20
256.9986803805868
 30
0.0
  0
SPLINE
  5
244
330
1F
100
AcDbEntity
  8
0
  6
Continuous
 62
     7
370
    15
100
AcDbSpline
210
0.0
220
0.0
230
1.0
 70
     8
 71
     3
 72
    47
 73
    43
 74
     0
 42
0.000000001
 43
0.00000001
 40
0.0
 40
0.0
 40
0.0
 40
0.0
 40
0.0070752458294332
 40
0.0328220317794164
 40
0.0585651651659325
 40
0.0843059112551448
 40
0.1100455480356187
 40
0.1357853620155702
 40
0.1615263093379186
 40
0.1872695914115613
 40
0.2130165051323338
 40
0.2387683450349282
 40
0.2645263979660134
 40
0.2902919350147079
 40
0.3160661994967213
 40
0.3418503895393826
 40
0.3676456334719689
 40
0.3934529558015188
 40
0.419273231053462
 40
0.4451071222004864
 40
0.4709549998448095
 40
0.4968168378630638
 40
0.522692081057847
 40
0.5485794807995668
 40
0.5744768961740414
 40
0.6003810614772418
 40
0.6262862865474059
 40
0.6521848189051193
 40
0.6780677903318507
 40
0.703924227550875
 40
0.7297410816314256
 40
0.7555035168037562
 40
0.7811955461479805
 40
0.8068010706323219
 40
0.8323053099859711
 40
0.8576965146660531
 40
0.8829677416712182
 40
0.9081184017034236
 40
0.9331552775237458
 40
0.9580927860778108
 40
0.9829523892222263
 40
0.9999999999999999
 40
0.9999999999999999
 40
0.9999999999999999
 40
0.9999999999999999
 10
609.2004464354035
 20
257.930628486439
 30
0.0
 10
608.9595039175173
 20
257.9582622268737
 30
0.0
 10
607.8417727220619
 20
258.0864550174279
 30
0.0
 10
605.8263823121881
 20
258.2456994774702
 30
0.0
 10
603.1604500548552
 20
258.4057622035232
 30
0.0
 10
600.4838667249511
 20
258.4903378243979
 30
0.0
 10
597.8039994136035
 20
258.5060488690534
 30
0.0
 10
595.125508816191
 20
258.4510579065101
 30
0.0
 10
592.4537849442399
 20
258.3259473135516
 30
0.0
 10
589.7940081072059
 20
258.1308044079183
 30
0.0
 10
587.1513753411175
 20
257.8659998759402
 30
0.0
 10
584.5310327361553
 20
257.5319768418244
 30
0.0
 10
581.938087129671
 20
257.1293053158089
 30
0.0
 10
579.3775923420544
 20
256.6586649856313
 30
0.0
 10
576.8545419695077
 20
256.1208467216044
 30
0.0
 10
574.3738611934228
 20
255.5167487037236
 30
0.0
 10
571.9403998052297
 20
254.8473737549559
 30
0.0
 10
569.5589260458554
 20
254.1138262946297
 30
0.0
 10
567.2341215608016
 20
253.3173095835916
 30
0.0
 10
564.9705775765444
 20
252.4591234140778
 30
0.0
 10
562.7727924273868
 20
251.5406626436884
 30
0.0
 10
560.6451704907022
 20
250.5634170343353
 30
0.0
 10
558.5920224874825
 20
249.5289729825919
 30
0.0
 10
556.6175669302454
 20
248.4390178343978
 30
0.0
 10
554.7259322383799
 20
247.295347559085
 30
0.0
 10
552.921182813076
 20
246.0998945559035
 30
0.0
 10
551.2073217362057
 20
244.8547544403453
 30
0.0
 10
549.5882608952409
 20
243.5621990619596
 30
0.0
 10
548.0677878944335
 20
242.2246854543017
 30
0.0
 10
546.6495415659692
 20
240.8448743115497
 30
0.0
 10
545.3369957271824
 20
239.4256674745592
 30
0.0
 10
544.1334107067386
 20
237.9702236205205
 30
0.0
 10
543.0417710876972
 20
236.4819590744825
 30
0.0
 10
542.0647203928337
 20
234.964527219728
 30
0.0
 10
541.2044803975231
 20
233.4217722390199
 30
0.0
 10
540.4628467673538
 20
231.857657267649
 30
0.0
 10
539.8409793608135
 20
230.2761735431612
 30
0.0
 10
539.34008854926
 20
228.6812410421534
 30
0.0
 10
538.9589744552176
 20
227.0766215515289
 30
0.0
 10
538.7034144642547
 20
225.465838984063
 30
0.0
 10
538.5675085439785
 20
224.0200600547587
 30
0.0
 10
538.5691624350166
 20
223.1121466465308
 30
0.0
 10
538.5698352282672
 20
222.7428127549452
 30
0.0
  0
LINE
  5
245
330
1F
100
AcDbEntity
  8
0
  6
Continuous
 62
     7
370
    15
100
AcDbLine
 10
538.5568546423
 20
222.8029959118
 30
0.0
 11
538.5568546423
 21
221.3332224504
 31
0.0
  0
LINE
  5
246
330
1F
100
AcDbEntity
  8
0
  6
Continuous
 62
     7
370
    15
100
AcDbLine
 10
658.5568546423
 20
221.3332224504
 30
0.0
 11
658.5568546423
 21
222.8029959118
 31
0.0
  0
LINE
  5
247
330
1F
100
AcDbEntity
  8
0
  6
Continuous
 62
     7
370
    15
100
AcDbLine
 10
556.1235539674
 20
196.8449594506
 30
0.0
 11
556.618609142
 21
196.559077284
 31
0.0
  0
LINE
  5
248
330
1F
100
AcDbEntity
  8
0
  6
Continuous
 62
     7
370
    15
100
AcDbLine
 10
640.4951001426
 20
196.559077284
 30
0.0
 11
640.9901553172
 21
196.8449594506
 31
0.0
  0
LINE
  5
249
330
1F
100
AcDbEntity
  8
0
  6
Continuous
 62
     7
370
    15
100
AcDbLine
 10
538.5568546423
 20
220.1900653137
 30
0.0
 11
538.5568546423
 21
218.7202918523
 31
0.0
  0
LINE
  5
24A
330
1F
100
AcDbEntity
  8
0
  6
Continuous
 62
     7
370
    15
100
AcDbLine
 10
658.5568546423
 20
218.7202918523
 30
0.0
 11
658.5568546423
 21
220.1900653137
 31
0.0
  0
SPLINE
  5
24B
330
1F
100
AcDbEntity
  8
0
  6
Continuous
 62
     7
370
    15
100
AcDbSpline
210
0.0
220
0.0
230
1.0
 70
     8
 71
     3
 72
    26
 73
    22
 74
     0
 42
0.000000001
 43
0.00000001
 40
0.0
 40
0.0
 40
0.0
 40
0.0
 40
0.0210416523169191
 40
0.0759408607422852
 40
0.1308466913902561
 40
0.1858253928913824
 40
0.2409404534659079
 40
0.2962444671061806
 40
0.3517758296835136
 40
0.4075570080400688
 40
0.4635945090219723
 40
0.5198804315272726
 40
0.5763952456761009
 40
0.6331112734342683
 40
0.689996296572422
 40
0.7470167993947142
 40
0.80414052559415
 40
0.8613382257671368
 40
0.918584636427891
 40
0.9758588326537461
 40
1.0
 40
1.0
 40
1.0
 40
1.0
 10
538.571096115053
 20
218.7731601613011
 30
0.0
 10
538.566948200035
 20
218.5673586172115
 30
0.0
 10
538.551978071643
 20
217.8246058065072
 30
0.0
 10
538.6509228988831
 20
216.5455231824845
 30
0.0
 10
538.866189364916
 20
214.9411514162046
 30
0.0
 10
539.2080271985868
 20
213.3455352222182
 30
0.0
 10
539.6661601679724
 20
211.7612798972979
 30
0.0
 10
540.2427018334162
 20
210.190982360034
 30
0.0
 10
540.9363460798645
 20
208.6373952326562
 30
0.0
 10
541.7464961990289
 20
207.1034473897948
 30
0.0
 10
542.6720300787198
 20
205.5922483970329
 30
0.0
 10
543.7115275199909
 20
204.1070527430891
 30
0.0
 10
544.8631394178868
 20
202.6512003078717
 30
0.0
 10
546.1245938097584
 20
201.2280410883543
 30
0.0
 10
547.493218545164
 20
199.8408687497236
 30
0.0
 10
548.9659482434838
 20
198.4928340353127
 30
0.0
 10
550.5395180422499
 20
197.1869932845308
 30
0.0
 10
552.2100000653853
 20
195.9259363638626
 30
0.0
 10
553.9748014766542
 20
194.7130755261709
 30
0.0
 10
555.468415495465
 20
193.7726025659783
 30
0.0
 10
556.3784686472503
 20
193.2410513029504
 30
0.0
 10
556.6483163082728
 20
193.0834364814861
 30
0.0
  0
SPLINE
  5
24C
330
1F
100
AcDbEntity
  8
0
  6
Continuous
 62
     7
370
    15
100
AcDbSpline
210
0.0
220
0.0
230
1.0
 70
     8
 71
     3
 72
    60
 73
    56
 74
     0
 42
0.000000001
 43
0.00000001
 40
0.0
 40
0.0
 40
0.0
 40
0.0
 40
0.0101906212138455
 40
0.0294656085896815
 40
0.048734662539735
 40
0.0679972678594576
 40
0.0872521602709195
 40
0.1064986470198528
 40
0.1257364779970811
 40
0.1449657402097469
 40
0.164186773390637
 40
0.1834001038512331
 40
0.2026063935363965
 40
0.2218064014280545
 40
0.2410009547867919
 40
0.2601909281053479
 40
0.2793772280172108
 40
0.2985607827287679
 40
0.3177425348136345
 40
0.3369234364216719
 40
0.3561044461155811
 40
0.3752862843119797
 40
0.3944698382464579
 40
0.4136560743564585
 40
0.4328459574002981
 40
0.4520404465276153
 40
0.4712404893273215
 40
0.4904470129590881
 40
0.5096609112912833
 40
0.5288830267144644
 40
0.5481141249848427
 40
0.567354861080204
 40
0.5866057336372111
 40
0.6058670251222714
 40
0.6251387245451112
 40
0.6444204293933277
 40
0.6637112237787186
 40
0.6830095309017679
 40
0.7023129403780037
 40
0.72161728044455
 40
0.7409167786070089
 40
0.7602048645432096
 40
0.7794734005924953
 40
0.7987126997293558
 40
0.8179117351329399
 40
0.8370586067876755
 40
0.8561413081064998
 40
0.8751487855855029
 40
0.8940722109800625
 40
0.9129063059373244
 40
0.9316505019926927
 40
0.9503097116611753
 40
0.968894539146422
 40
0.9874208569993358
 40
1.0
 40
1.0
 40
1.0
 40
1.0
 10
556.6483163082728
 20
193.0834364814861
 30
0.0
 10
556.9910913474843
 20
192.8884043311476
 30
0.0
 10
557.9822061115178
 20
192.3244798280493
 30
0.0
 10
559.6841805374584
 20
191.4330613625952
 30
0.0
 10
561.7760430890434
 20
190.42890246614
 30
0.0
 10
563.9415663516578
 20
189.4833098994683
 30
0.0
 10
566.1749010633246
 20
188.5969707785211
 30
0.0
 10
568.4719094539429
 20
187.7716273497855
 30
0.0
 10
570.8278745701988
 20
187.0086028405745
 30
0.0
 10
573.2381299540335
 20
186.3091935965612
 30
0.0
 10
575.6978939929604
 20
185.6745659990075
 30
0.0
 10
578.2023185207343
 20
185.1057842886556
 30
0.0
 10
580.746481407957
 20
184.6038021513217
 30
0.0
 10
583.3253954737456
 20
184.1694632555901
 30
0.0
 10
585.934014243201
 20
183.8034989908882
 30
0.0
 10
588.5672396233044
 20
183.5065268258998
 30
0.0
 10
591.2199299821152
 20
183.2790485802757
 30
0.0
 10
593.8869088783589
 20
183.1214489555956
 30
0.0
 10
596.5629742217468
 20
183.0339943482842
 30
0.0
 10
599.2429077746625
 20
183.0168320214574
 30
0.0
 10
601.9214736047292
 20
183.0699894495841
 30
0.0
 10
604.593435717981
 20
183.1933730367406
 30
0.0
 10
607.2535719997423
 20
183.386768306881
 30
0.0
 10
609.896695401282
 20
183.6498423705698
 30
0.0
 10
612.5176559102644
 20
183.9821456486195
 30
0.0
 10
615.1113463011596
 20
184.3831134792333
 30
0.0
 10
617.6727111381313
 20
184.8520682875838
 30
0.0
 10
620.1967552755001
 20
185.3882221011996
 30
0.0
 10
622.6785517231364
 20
185.9906793375335
 30
0.0
 10
625.1132487347809
 20
186.6584397576662
 30
0.0
 10
627.4960759690333
 20
187.3904014372478
 30
0.0
 10
629.8223495697455
 20
188.1853635500103
 30
0.0
 10
632.0874760201134
 20
189.0420286881111
 30
0.0
 10
634.2869546509766
 20
189.959004355776
 30
0.0
 10
636.4163787405945
 20
190.9348031691499
 30
0.0
 10
638.4714352464264
 20
191.9678411812166
 30
0.0
 10
640.4479033812539
 20
193.0564336406674
 30
0.0
 10
642.3416525059233
 20
194.1987874113504
 30
0.0
 10
644.1486172632299
 20
195.3929741254556
 30
0.0
 10
645.864792413658
 20
196.6369022366165
 30
0.0
 10
647.4862636536565
 20
197.9283046136893
 30
0.0
 10
649.0092395578189
 20
199.2647286736893
 30
0.0
 10
650.4300776833227
 20
200.6435194509647
 30
0.0
 10
651.745299565656
 20
202.0617813550232
 30
0.0
 10
652.9516388464713
 20
203.5163621983907
 30
0.0
 10
654.0461032730317
 20
205.0038519294071
 30
0.0
 10
655.0260398712905
 20
206.520602626478
 30
0.0
 10
655.8892159811269
 20
208.0627740795875
 30
0.0
 10
656.6338234878424
 20
209.626405110331
 30
0.0
 10
657.2586916789924
 20
211.2075038426964
 30
0.0
 10
657.7625931622546
 20
212.8021478877354
 30
0.0
 10
658.146737941798
 20
214.4065686137338
 30
0.0
 10
658.4052667624985
 20
216.0172428968429
 30
0.0
 10
658.543671684793
 20
217.4593531971373
 30
0.0
 10
658.5437671552008
 20
218.3636805992849
 30
0.0
 10
658.5438057637242
 20
218.7293933519292
 30
0.0
  0
LINE
  5
24D
330
1F
100
AcDbEntity
  8
0
  6
Continuous
 62
     7
370
    15
100
AcDbLine
 10
548.5568546423
 20
198.8896865525
 30
0.0
 11
548.5568546423
 21
193.6441341455
 31
0.0
  0
LINE
  5
24E
330
1F
100
AcDbEntity
  8
0
  6
Continuous
 62
     7
370
    15
100
AcDbLine
 10
648.5568546423
 20
161.9707054263
 30
0.0
 11
648.5568546423
 21
198.8897518847
 31
0.0
  0
LINE
  5
24F
330
1F
100
AcDbEntity
  8
0
  6
Continuous
 62
     7
370
    15
100
AcDbLine
 10
568.2011092461
 20
149.2321572453
 30
0.0
 11
575.9729154329
 21
153.7187254576
 31
0.0
  0
LINE
  5
250
330
1F
100
AcDbEntity
  8
0
  6
Continuous
 62
     7
370
    15
100
AcDbLine
 10
551.8315924828
 20
195.5346000612
 30
0.0
 11
544.0597862961
 21
191.0480318488
 31
0.0
  0
SPLINE
  5
251
330
1F
100
AcDbEntity
  8
0
  6
Continuous
 62
     7
370
    15
100
AcDbSpline
210
0.0
220
0.0
230
1.0
 70
     8
 71
     3
 72
    10
 73
     6
 74
     0
 42
0.000000001
 43
0.00000001
 40
0.0
 40
0.0
 40
0.0
 40
0.0
 40
0.378053871074857
 40
0.8309606545218988
 40
1.0
 40
1.0
 40
1.0
 40
1.0
 10
552.0365995940083
 20
195.7003313465122
 30
0.0
 10
552.0324797935859
 20
195.6952278458925
 30
0.0
 10
552.0234244913728
 20
195.6840103752096
 30
0.0
 10
551.9437485526221
 20
195.5965138253879
 30
0.0
 10
551.8528293295857
 20
195.5523092514735
 30
0.0
 10
551.8281183052079
 20
195.54029484718
 30
0.0
  0
SPLINE
  5
252
330
1F
100
AcDbEntity
  8
0
  6
Continuous
 62
     7
370
    15
100
AcDbSpline
210
0.0
220
0.0
230
1.0
 70
     8
 71
     3
 72
    24
 73
    20
 74
     0
 42
0.000000001
 43
0.00000001
 40
0.0
 40
0.0
 40
0.0
 40
0.0
 40
0.0128628277227346
 40
0.0728165053798922
 40
0.1329542595756537
 40
0.1934077271491427
 40
0.254307886312999
 40
0.3157833602764231
 40
0.3779575804845169
 40
0.4409445573325849
 40
0.5048431150267032
 40
0.5697296945267727
 40
0.6356502630809996
 40
0.7026124811872303
 40
0.7705799228876747
 40
0.839470489799821
 40
0.9091607655577366
 40
0.9794966891550242
 40
1.0
 40
1.0
 40
1.0
 40
1.0
 10
548.8595091777144
 20
158.0284022951199
 30
0.0
 10
548.8752771347425
 20
157.9017304721482
 30
0.0
 10
548.9645395856222
 20
157.1846409116158
 30
0.0
 10
549.2423990149496
 20
155.8929956071965
 30
0.0
 10
549.6964080234701
 20
154.1608664787897
 30
0.0
 10
550.274353198729
 20
152.4552960873969
 30
0.0
 10
550.9622714608817
 20
150.7775228874796
 30
0.0
 10
551.7626949432255
 20
149.130826044189
 30
0.0
 10
552.6740201803538
 20
147.5176850076292
 30
0.0
 10
553.6960635833426
 20
145.9406804116378
 30
0.0
 10
554.8284491997779
 20
144.4024142728689
 30
0.0
 10
556.0708514117857
 20
142.9057108552153
 30
0.0
 10
557.4226447787017
 20
141.453738416046
 30
0.0
 10
558.8826143188295
 20
140.0500753652339
 30
0.0
 10
560.4487199622995
 20
138.6988175371678
 30
0.0
 10
562.1175200497887
 20
137.4041180537154
 30
0.0
 10
563.8852535630288
 20
136.1714108063715
 30
0.0
 10
565.2999143838905
 20
135.2808756751677
 30
0.0
 10
566.1229577936076
 20
134.801116834259
 30
0.0
 10
566.3087268059948
 20
134.6928305336735
 30
0.0
  0
SPLINE
  5
253
330
1F
100
AcDbEntity
  8
0
  6
Continuous
 62
     7
370
    15
100
AcDbSpline
210
0.0
220
0.0
230
1.0
 70
     8
 71
     3
 72
    53
 73
    49
 74
     0
 42
0.000000001
 43
0.00000001
 40
0.0
 40
0.0
 40
0.0
 40
0.0
 40
0.0129582902027516
 40
0.0357500957099763
 40
0.0585403049427122
 40
0.0813371442493403
 40
0.1041085528691076
 40
0.1268352312177371
 40
0.1495060322330172
 40
0.1721164466500908
 40
0.1946670888265302
 40
0.217162373364443
 40
0.2396094469024715
 40
0.2620173717397983
 40
0.2843965258960386
 40
0.306758173750768
 40
0.3291141617392859
 40
0.3514766979197384
 40
0.3738542317983553
 40
0.3962590629473424
 40
0.418703565270041
 40
0.4411998106410506
 40
0.4637592788161473
 40
0.4863924431952736
 40
0.509108180833444
 40
0.5319129494848449
 40
0.554809676318229
 40
0.5777963226269405
 40
0.6008641423599618
 40
0.6239957591048392
 40
0.6471605517973704
 40
0.6703061036966296
 40
0.6933783092552188
 40
0.7163153001232229
 40
0.7390526435961227
 40
0.7615299739261944
 40
0.7836974741250444
 40
0.805520582182489
 40
0.8269819698419287
 40
0.8480808537106935
 40
0.8688304622380387
 40
0.8892547116056115
 40
0.909384943196225
 40
0.9292572116590238
 40
0.9489102902268939
 40
0.9683843562837762
 40
0.9877202264364338
 40
1.0
 40
1.0
 40
1.0
 40
1.0
 10
566.3087268059948
 20
134.6928305336735
 30
0.0
 10
566.6794739026635
 20
134.4827236679359
 30
0.0
 10
567.7023128715954
 20
133.9030684478481
 30
0.0
 10
569.4346069733886
 20
133.0171726652822
 30
0.0
 10
571.5205889236754
 20
132.0567672947341
 30
0.0
 10
573.6692178095727
 20
131.1762496081082
 30
0.0
 10
575.8732861783011
 20
130.3747798462481
 30
0.0
 10
578.1263208444527
 20
129.6534187274171
 30
0.0
 10
580.4219797381892
 20
129.0123266852557
 30
0.0
 10
582.7544775229915
 20
128.4515461827612
 30
0.0
 10
585.1183580537617
 20
127.9709439044657
 30
0.0
 10
587.5084565840197
 20
127.5703299333802
 30
0.0
 10
589.9198168181398
 20
127.2494972163775
 30
0.0
 10
592.3476347303654
 20
127.0082567610858
 30
0.0
 10
594.7872125739743
 20
126.8464558895823
 30
0.0
 10
597.2339264022537
 20
126.763989455389
 30
0.0
 10
599.683203239588
 20
126.7608064518333
 30
0.0
 10
602.1303613798125
 20
126.8369105040204
 30
0.0
 10
604.5707398020814
 20
126.9923478990428
 30
0.0
 10
606.9997001357575
 20
127.2272131528928
 30
0.0
 10
609.412758740005
 20
127.5416816302638
 30
0.0
 10
611.8054314013226
 20
127.9360135903165
 30
0.0
 10
614.1732015254184
 20
128.4105594771977
 30
0.0
 10
616.511482630989
 20
128.9657611865677
 30
0.0
 10
618.8155655168363
 20
129.6021445550813
 30
0.0
 10
621.080547159222
 20
130.3202968488908
 30
0.0
 10
623.301240177226
 20
131.1208210423272
 30
0.0
 10
625.4720655253226
 20
132.0042571333819
 30
0.0
 10
627.5869378920194
 20
132.9709608304239
 30
0.0
 10
629.6390805465016
 20
134.0208910950004
 30
0.0
 10
631.6206938015254
 20
135.1532109598101
 30
0.0
 10
633.523335213049
 20
136.3661338174753
 30
0.0
 10
635.3382243587109
 20
137.6567642430575
 30
0.0
 10
637.0568534041016
 20
139.0212224966219
 30
0.0
 10
638.6711917378069
 20
140.4545546325659
 30
0.0
 10
640.1741560516031
 20
141.9509460388479
 30
0.0
 10
641.5599722736061
 20
143.5040467920335
 30
0.0
 10
642.8243426273012
 20
145.107323563421
 30
0.0
 10
643.9644019931363
 20
146.7543501811845
 30
0.0
 10
644.9785066135881
 20
148.4389828716204
 30
0.0
 10
645.8659665701738
 20
150.1554149057368
 30
0.0
 10
646.6267085155251
 20
151.8981434334903
 30
0.0
 10
647.2612620416472
 20
153.6618934835581
 30
0.0
 10
647.7698336222253
 20
155.4415442261089
 30
0.0
 10
648.1550438381637
 20
157.2320644328414
 30
0.0
 10
648.4114909833437
 20
159.0285324016108
 30
0.0
 10
648.5457182484636
 20
160.610513310162
 30
0.0
 10
648.5437324459364
 20
161.5920049982981
 30
0.0
 10
648.5429611440583
 20
161.9732243652993
 30
0.0
  0
LINE
  5
254
330
1F
100
AcDbEntity
  8
0
  6
Continuous
 62
     7
370
    15
100
AcDbLine
 10
648.5568546423
 20
195.6205416579
 30
0.0
 11
653.0539229885
 21
198.2166439546
 31
0.0
  0
LINE
  5
255
330
1F
100
AcDbEntity
  8
0
  6
Continuous
 62
     7
370
    15
100
AcDbLine
 10
538.5569319828
 20
222.747381634
 30
0.0
 11
538.5568546423
 21
222.8029959118
 31
0.0
  0
LINE
  5
256
330
1F
100
AcDbEntity
  8
0
  6
Continuous
 62
     7
370
    15
100
AcDbLine
 10
658.5568546423
 20
222.8029959118
 30
0.0
 11
658.556276006
 21
222.6508764644
 31
0.0
  0
LWPOLYLINE
  5
257
330
1F
100
AcDbEntity
  8
0
  6
Continuous
 62
     7
370
    15
100
AcDbPolyline
 90
       69
 70
   128
 43
0.0
 10
658.5568546423
 20
221.3332224504
 10
658.5474394567
 20
220.7196295279
 10
658.430313896
 20
219.0848459983
 10
658.1795872359
 20
217.4550794757
 10
657.7958189455
 20
215.8339666065
 10
657.2798653619
 20
214.2251247275
 10
656.6328777794
 20
212.6321437939
 10
655.8562998803
 20
211.0585783692
 10
654.9518645134
 20
209.5079396929
 10
653.9215898277
 20
207.9836878465
 10
652.767774769
 20
206.4892240318
 10
651.4929939498
 20
205.0278829818
 10
650.1000919045
 20
203.60292552
 10
648.5921767423
 20
202.2175312836
 10
646.9726132116
 20
200.8747916288
 10
645.2450151918
 20
199.5777027329
 10
643.4132376297
 20
198.3291589084
 10
641.4813679373
 20
197.1319461448
 10
639.4537168712
 20
195.9887358919
 10
637.334808914
 20
194.9020790988
 10
635.1293721776
 20
193.8744005216
 10
632.842327854
 20
192.9079933132
 10
630.4787792332
 20
192.005013906
 10
628.0440003165
 20
191.1674772
 10
625.5434240476
 20
190.3972520671
 10
622.98263019
 20
189.6960571808
 10
620.3673328761
 20
189.0654571812
 10
617.7033678569
 20
188.5068591832
 10
614.99667948
 20
188.0215096376
 10
612.2533074255
 20
187.6104915489
 10
609.4793732293
 20
187.2747220591
 10
606.6810666231
 20
187.0149504015
 10
603.8646317232
 20
186.8317562279
 10
601.0363530972
 20
186.7255483164
 10
598.2025417406
 20
186.6965636583
 10
595.3695209947
 20
186.7448669296
 10
592.5436124364
 20
186.870350347
 10
589.7311217728
 20
187.0727339078
 10
586.9383247703
 20
187.3515660151
 10
584.1714532511
 20
187.7062244856
 10
581.4366811873
 20
188.1359179375
 10
578.740110925
 20
188.6396875566
 10
576.0877595667
 20
189.216409236
 10
573.4855455454
 20
189.8647960841
 10
570.9392754181
 20
190.5834012963
 10
568.4546309092
 20
191.3706213833
 10
566.0371562322
 20
192.2246997494
 10
563.6922457182
 20
193.1437306118
 10
561.4251317796
 20
194.1256632531
 10
559.240873234
 20
195.1683065979
 10
557.1443440164
 20
196.2693341009
 10
555.1402223033
 20
197.4262889394
 10
553.2329800738
 20
198.6365894948
 10
551.4268731311
 20
199.8975351132
 10
549.7259316061
 20
201.2063121318
 10
548.1339509644
 20
202.5600001575
 10
546.6544835373
 20
203.9555785828
 10
545.2908305951
 20
205.3899333267
 10
544.0460349808
 20
206.8598637828
 10
542.9228743202
 20
208.3620899615
 10
541.9238548238
 20
209.8932598088
 10
541.0512056948
 20
211.4499566861
 10
540.3068741546
 20
213.0287069938
 10
539.692521098
 20
214.6259879228
 10
539.2095173868
 20
216.2382353147
 10
538.8589407912
 20
217.8618516151
 10
538.6415735846
 20
219.4932139013
 10
538.5579007984
 20
221.128681966
 10
538.5568546423
 20
221.3332224504
  0
LWPOLYLINE
  5
258
330
1F
100
AcDbEntity
  8
0
  6
Continuous
 62
     7
370
    15
100
AcDbPolyline
 90
       36
 70
   128
 43
0.0
 10
640.4951001426
 20
196.559077284
 10
640.4882867667
 20
196.5551433665
 10
638.4456148028
 20
195.4307694512
 10
636.3125819676
 20
194.3637781138
 10
634.0940202664
 20
193.3565864328
 10
631.7949554552
 20
192.4114760214
 10
629.4205956551
 20
191.5305878585
 10
626.9763195548
 20
190.7159174392
 10
624.4676642258
 20
189.969310254
 10
621.9003125793
 20
189.2924576083
 10
619.2800804925
 20
188.6868927912
 10
616.6129036339
 20
188.1539876015
 10
613.9048240169
 20
187.6949492411
 10
611.1619763128
 20
187.3108175794
 10
608.3905739539
 20
187.0024627982
 10
605.5968950579
 20
186.7705834203
 10
602.787268206
 20
186.615704727
 10
599.9680581068
 20
186.5381775683
 10
597.1456511778
 20
186.5381775683
 10
594.3264410786
 20
186.615704727
 10
591.5168142267
 20
186.7705834203
 10
588.7231353307
 20
187.0024627982
 10
585.9517329718
 20
187.3108175794
 10
583.2088852677
 20
187.6949492411
 10
580.5008056507
 20
188.1539876015
 10
577.8336287921
 20
188.6868927912
 10
575.2133967053
 20
189.2924576083
 10
572.6460450588
 20
189.969310254
 10
570.1373897298
 20
190.7159174392
 10
567.6931136295
 20
191.5305878585
 10
565.3187538294
 20
192.4114760214
 10
563.0196890182
 20
193.3565864328
 10
560.801127317
 20
194.3637781138
 10
558.6680944818
 20
195.4307694512
 10
556.6254225179
 20
196.5551433665
 10
556.618609142
 20
196.559077284
  0
LWPOLYLINE
  5
259
330
1F
100
AcDbEntity
  8
0
  6
Continuous
 62
     7
370
    15
100
AcDbPolyline
 90
       69
 70
   128
 43
0.0
 10
658.5486847644
 20
220.7616438819
 10
658.5474394567
 20
219.5764723912
 10
658.430313896
 20
217.9416888616
 10
658.1795872359
 20
216.3119223391
 10
657.7958189455
 20
214.6908094699
 10
657.2798653619
 20
213.0819675909
 10
656.6328777794
 20
211.4889866573
 10
655.8562998803
 20
209.9154212325
 10
654.9518645134
 20
208.3647825563
 10
653.9215898277
 20
206.8405307099
 10
652.767774769
 20
205.3460668951
 10
651.4929939498
 20
203.8847258452
 10
650.1000919045
 20
202.4597683834
 10
648.5921767423
 20
201.0743741469
 10
646.9726132116
 20
199.7316344922
 10
645.2450151918
 20
198.4345455963
 10
643.4132376297
 20
197.1860017718
 10
641.4813679373
 20
195.9887890082
 10
639.4537168712
 20
194.8455787553
 10
637.334808914
 20
193.7589219621
 10
635.1293721776
 20
192.731243385
 10
632.842327854
 20
191.7648361766
 10
630.4787792332
 20
190.8618567693
 10
628.0440003165
 20
190.0243200633
 10
625.5434240476
 20
189.2540949305
 10
622.98263019
 20
188.5529000442
 10
620.3673328761
 20
187.9223000445
 10
617.7033678569
 20
187.3637020466
 10
614.99667948
 20
186.8783525009
 10
612.2533074255
 20
186.4673344122
 10
609.4793732293
 20
186.1315649225
 10
606.6810666231
 20
185.8717932648
 10
603.8646317232
 20
185.6885990913
 10
601.0363530972
 20
185.5823911798
 10
598.2025417406
 20
185.5534065216
 10
595.3695209947
 20
185.601709793
 10
592.5436124364
 20
185.7271932104
 10
589.7311217728
 20
185.9295767711
 10
586.9383247703
 20
186.2084088785
 10
584.1714532511
 20
186.563067349
 10
581.4366811873
 20
186.9927608008
 10
578.740110925
 20
187.49653042
 10
576.0877595667
 20
188.0732520994
 10
573.4855455454
 20
188.7216389475
 10
570.9392754181
 20
189.4402441596
 10
568.4546309092
 20
190.2274642467
 10
566.0371562322
 20
191.0815426128
 10
563.6922457182
 20
192.0005734751
 10
561.4251317796
 20
192.9825061165
 10
559.240873234
 20
194.0251494612
 10
557.1443440164
 20
195.1261769643
 10
555.1402223033
 20
196.2831318028
 10
553.2329800738
 20
197.4934323581
 10
551.4268731311
 20
198.7543779765
 10
549.7259316061
 20
200.0631549952
 10
548.1339509644
 20
201.4168430208
 10
546.6544835373
 20
202.8124214462
 10
545.2908305951
 20
204.2467761901
 10
544.0460349808
 20
205.7167066462
 10
542.9228743202
 20
207.2189328249
 10
541.9238548238
 20
208.7501026722
 10
541.0512056948
 20
210.3067995494
 10
540.3068741546
 20
211.8855498572
 10
539.692521098
 20
213.4828307861
 10
539.2095173868
 20
215.095078178
 10
538.8589407912
 20
216.7186944785
 10
538.6415735846
 20
218.3500567646
 10
538.5579007984
 20
219.9855248294
 10
538.5650245202
 20
220.7616438819
  0
LINE
  5
25A
330
1F
100
AcDbEntity
  8
0
  6
Continuous
 62
     7
370
    15
100
AcDbLine
 10
605.9210315392
 20
253.5878401284
 30
0.0
 11
607.4153239928
 21
250.368436241
 31
0.0
  0
LINE
  5
25B
330
1F
100
AcDbEntity
  8
0
  6
Continuous
 62
     7
370
    15
100
AcDbLine
 10
607.4153239928
 20
250.368436241
 30
0.0
 11
612.992099351
 21
249.5057995692
 31
0.0
  0
LINE
  5
25C
330
1F
100
AcDbEntity
  8
0
  6
Continuous
 62
     7
370
    15
100
AcDbLine
 10
612.992099351
 20
249.5057995692
 30
0.0
 11
617.0745822557
 21
251.8625667849
 31
0.0
  0
LINE
  5
25D
330
1F
100
AcDbEntity
  8
0
  6
Continuous
 62
     7
370
    15
100
AcDbLine
 10
641.2763705985
 20
233.1776373328
 30
0.0
 11
642.7706630521
 21
229.9582334454
 31
0.0
  0
LINE
  5
25E
330
1F
100
AcDbEntity
  8
0
  6
Continuous
 62
     7
370
    15
100
AcDbLine
 10
642.7706630521
 20
229.9582334454
 30
0.0
 11
648.3474384104
 21
229.0955967737
 31
0.0
  0
LINE
  5
25F
330
1F
100
AcDbEntity
  8
0
  6
Continuous
 62
     7
370
    15
100
AcDbLine
 10
648.3474384104
 20
229.0955967737
 30
0.0
 11
652.429921315
 21
231.4523639893
 31
0.0
  0
LINE
  5
260
330
1F
100
AcDbEntity
  8
0
  6
Continuous
 62
     7
370
    15
100
AcDbLine
 10
628.3354183434
 20
205.2967818176
 30
0.0
 11
629.829710797
 21
202.0773779303
 31
0.0
  0
LINE
  5
261
330
1F
100
AcDbEntity
  8
0
  6
Continuous
 62
     7
370
    15
100
AcDbLine
 10
629.829710797
 20
202.0773779303
 30
0.0
 11
635.4064861552
 21
201.2147412585
 31
0.0
  0
LINE
  5
262
330
1F
100
AcDbEntity
  8
0
  6
Continuous
 62
     7
370
    15
100
AcDbLine
 10
635.4064861552
 20
201.2147412585
 30
0.0
 11
639.4889690599
 21
203.5715084742
 31
0.0
  0
LINE
  5
263
330
1F
100
AcDbEntity
  8
0
  6
Continuous
 62
     7
370
    15
100
AcDbLine
 10
580.0391270289
 20
197.8261290981
 30
0.0
 11
581.5334194825
 21
194.6067252107
 31
0.0
  0
LINE
  5
264
330
1F
100
AcDbEntity
  8
0
  6
Continuous
 62
     7
370
    15
100
AcDbLine
 10
581.5334194825
 20
194.6067252107
 30
0.0
 11
587.1101948408
 21
193.744088539
 31
0.0
  0
LINE
  5
265
330
1F
100
AcDbEntity
  8
0
  6
Continuous
 62
     7
370
    15
100
AcDbLine
 10
587.1101948408
 20
193.744088539
 30
0.0
 11
591.1926777454
 21
196.1008557546
 31
0.0
  0
LINE
  5
266
330
1F
100
AcDbEntity
  8
0
  6
Continuous
 62
     7
370
    15
100
AcDbLine
 10
551.7548557815
 20
214.1542913345
 30
0.0
 11
555.8373386861
 21
216.5110585502
 31
0.0
  0
LINE
  5
267
330
1F
100
AcDbEntity
  8
0
  6
Continuous
 62
     7
370
    15
100
AcDbLine
 10
544.6837879696
 20
218.2363318936
 30
0.0
 11
546.1780804232
 21
215.0169280063
 31
0.0
  0
LINE
  5
268
330
1F
100
AcDbEntity
  8
0
  6
Continuous
 62
     7
370
    15
100
AcDbLine
 10
546.1780804232
 20
215.0169280063
 30
0.0
 11
551.7548557815
 21
214.1542913345
 31
0.0
  0
LINE
  5
269
330
1F
100
AcDbEntity
  8
0
  6
Continuous
 62
     7
370
    15
100
AcDbLine
 10
559.1190326783
 20
242.8977835214
 30
0.0
 11
564.6958080366
 21
242.0351468497
 31
0.0
  0
LINE
  5
26A
330
1F
100
AcDbEntity
  8
0
  6
Continuous
 62
     7
370
    15
100
AcDbLine
 10
564.6958080366
 20
242.0351468497
 30
0.0
 11
568.7782909412
 21
244.3919140653
 31
0.0
  0
LINE
  5
26B
330
1F
100
AcDbEntity
  8
0
  6
Continuous
 62
     7
370
    15
100
AcDbLine
 10
557.6247402247
 20
246.1171874088
 30
0.0
 11
559.1190326783
 21
242.8977835214
 31
0.0
  0
LINE
  5
26C
330
1F
100
AcDbEntity
  8
0
  6
Continuous
 62
     7
370
    15
100
AcDbLine
 10
581.7653145606
 20
175.6097367253
 30
0.0
 11
581.7653145606
 21
159.2789204876
 31
0.0
  0
LINE
  5
26D
330
1F
100
AcDbEntity
  8
0
  6
Continuous
 62
     7
370
    15
100
AcDbLine
 10
581.5334194825
 20
197.0563476464
 30
0.0
 11
581.5334194825
 21
194.6067252107
 31
0.0
  0
LINE
  5
26E
330
1F
100
AcDbEntity
  8
0
  6
Continuous
 62
     7
370
    15
100
AcDbLine
 10
581.5334194825
 20
197.0563476464
 30
0.0
 11
587.1101948408
 21
196.1937109746
 31
0.0
  0
LINE
  5
26F
330
1F
100
AcDbEntity
  8
0
  6
Continuous
 62
     7
370
    15
100
AcDbLine
 10
587.1101948408
 20
196.1937109746
 30
0.0
 11
587.1101948408
 21
193.744088539
 31
0.0
  0
LINE
  5
270
330
1F
100
AcDbEntity
  8
0
  6
Continuous
 62
     7
370
    15
100
AcDbLine
 10
580.0391270289
 20
200.2757515337
 30
0.0
 11
581.5334194825
 21
197.0563476464
 31
0.0
  0
LINE
  5
271
330
1F
100
AcDbEntity
  8
0
  6
Continuous
 62
     7
370
    15
100
AcDbLine
 10
584.1216099336
 20
202.6325187494
 30
0.0
 11
580.0391270289
 21
200.2757515337
 31
0.0
  0
LINE
  5
272
330
1F
100
AcDbEntity
  8
0
  6
Continuous
 62
     7
370
    15
100
AcDbLine
 10
589.6983852918
 20
201.7698820777
 30
0.0
 11
584.1216099336
 21
202.6325187494
 31
0.0
  0
LINE
  5
273
330
1F
100
AcDbEntity
  8
0
  6
Continuous
 62
     7
370
    15
100
AcDbLine
 10
591.1926777454
 20
198.5504781903
 30
0.0
 11
589.6983852918
 21
201.7698820777
 31
0.0
  0
LINE
  5
274
330
1F
100
AcDbEntity
  8
0
  6
Continuous
 62
     7
370
    15
100
AcDbLine
 10
587.1101948408
 20
196.1937109746
 30
0.0
 11
591.1926777454
 21
198.5504781903
 31
0.0
  0
LINE
  5
275
330
1F
100
AcDbEntity
  8
0
  6
Continuous
 62
     7
370
    15
100
AcDbLine
 10
591.1926777454
 20
198.5504781903
 30
0.0
 11
591.1926777454
 21
196.1008557546
 31
0.0
  0
LINE
  5
276
330
1F
100
AcDbEntity
  8
0
  6
Continuous
 62
     7
370
    15
100
AcDbLine
 10
580.0391270289
 20
200.2757515337
 30
0.0
 11
580.0391270289
 21
197.8261290981
 31
0.0
  0
LINE
  5
277
330
1F
100
AcDbEntity
  8
0
  6
Continuous
 62
     7
370
    15
100
AcDbLine
 10
629.829710797
 20
204.5270003659
 30
0.0
 11
629.829710797
 21
202.0773779303
 31
0.0
  0
LINE
  5
278
330
1F
100
AcDbEntity
  8
0
  6
Continuous
 62
     7
370
    15
100
AcDbLine
 10
629.829710797
 20
204.5270003659
 30
0.0
 11
635.4064861552
 21
203.6643636942
 31
0.0
  0
LINE
  5
279
330
1F
100
AcDbEntity
  8
0
  6
Continuous
 62
     7
370
    15
100
AcDbLine
 10
635.4064861552
 20
203.6643636942
 30
0.0
 11
635.4064861552
 21
201.2147412585
 31
0.0
  0
LINE
  5
27A
330
1F
100
AcDbEntity
  8
0
  6
Continuous
 62
     7
370
    15
100
AcDbLine
 10
628.3354183434
 20
207.7464042533
 30
0.0
 11
629.829710797
 21
204.5270003659
 31
0.0
  0
LINE
  5
27B
330
1F
100
AcDbEntity
  8
0
  6
Continuous
 62
     7
370
    15
100
AcDbLine
 10
632.417901248
 20
210.103171469
 30
0.0
 11
628.3354183434
 21
207.7464042533
 31
0.0
  0
LINE
  5
27C
330
1F
100
AcDbEntity
  8
0
  6
Continuous
 62
     7
370
    15
100
AcDbLine
 10
637.9946766063
 20
209.2405347972
 30
0.0
 11
632.417901248
 21
210.103171469
 31
0.0
  0
LINE
  5
27D
330
1F
100
AcDbEntity
  8
0
  6
Continuous
 62
     7
370
    15
100
AcDbLine
 10
639.4889690599
 20
206.0211309098
 30
0.0
 11
637.9946766063
 21
209.2405347972
 31
0.0
  0
LINE
  5
27E
330
1F
100
AcDbEntity
  8
0
  6
Continuous
 62
     7
370
    15
100
AcDbLine
 10
635.4064861552
 20
203.6643636942
 30
0.0
 11
639.4889690599
 21
206.0211309098
 31
0.0
  0
ARC
  5
27F
330
1F
100
AcDbEntity
  8
0
  6
Continuous
 62
     7
370
    15
100
AcDbCircle
 10
554.9634071097
 20
169.4676302697
 30
0.0
 40
15.32399664624818
100
AcDbArc
 50
2.520089748
 51
57.4799103976
  0
LINE
  5
280
330
1F
100
AcDbEntity
  8
0
  6
Continuous
 62
     7
370
    15
100
AcDbLine
 10
563.201515583
 20
182.3888702256
 30
0.0
 11
569.1844731114
 21
185.8427580887
 31
0.0
  0
SPLINE
  5
281
330
1F
100
AcDbEntity
  8
0
  6
Continuous
 62
     7
370
    15
100
AcDbSpline
210
0.0
220
0.0
230
1.0
 70
     8
 71
     3
 72
    30
 73
    26
 74
     0
 42
0.000000001
 43
0.00000001
 40
0.0
 40
0.0
 40
0.0
 40
0.0
 40
0.1249999999999995
 40
0.1249999999999995
 40
0.1874999999999992
 40
0.1874999999999992
 40
0.2499999999999989
 40
0.2499999999999989
 40
0.3749999999999989
 40
0.3749999999999989
 40
0.4374999999999991
 40
0.4374999999999991
 40
0.4999999999999991
 40
0.4999999999999991
 40
0.5624999999999992
 40
0.5624999999999992
 40
0.6249999999999992
 40
0.6249999999999992
 40
0.7499999999999998
 40
0.7499999999999998
 40
0.8124999999999998
 40
0.8124999999999998
 40
0.8749999999999998
 40
0.8749999999999998
 40
1.0
 40
1.0
 40
1.0
 40
1.0
 10
579.1579706035285
 20
175.2708464003625
 30
0.0
 10
579.1579706035285
 20
175.8313402736658
 30
0.0
 10
579.0790490519745
 20
176.391079837336
 30
0.0
 10
578.8516548526378
 20
177.2308184055657
 30
0.0
 10
578.7575651933653
 20
177.5107748824828
 30
0.0
 10
578.5329695999079
 20
178.0712558075026
 30
0.0
 10
578.4035587630153
 20
178.348729709891
 30
0.0
 10
577.9724460548138
 20
179.1645344288176
 30
0.0
 10
577.6265820906748
 20
179.6906730820362
 30
0.0
 10
577.0283788093997
 20
180.4595050003081
 30
0.0
 10
576.8160309118697
 20
180.7116261149247
 30
0.0
 10
576.3744768344886
 20
181.2002017359655
 30
0.0
 10
576.1443034635868
 20
181.4379278782574
 30
0.0
 10
575.666413327598
 20
181.9015733197311
 30
0.0
 10
575.4186938114905
 20
182.1274898276191
 30
0.0
 10
574.906311900712
 20
182.56836483665
 30
0.0
 10
574.6403787432793
 20
182.7842409351347
 30
0.0
 10
573.8308551657869
 20
183.4059272244863
 30
0.0
 10
573.2738275208625
 20
183.788214897822
 30
0.0
 10
572.4152467962831
 20
184.3174768375693
 30
0.0
 10
572.1251704570823
 20
184.4864611731502
 30
0.0
 10
571.5372440873265
 20
184.8093438650225
 30
0.0
 10
571.2410022401937
 20
184.9622768909041
 30
0.0
 10
570.3570027334304
 20
185.3900952608947
 30
0.0
 10
569.7695809074537
 20
185.6368461342969
 30
0.0
 10
569.1844731113767
 20
185.8427580887119
 30
0.0
  0
LINE
  5
282
330
1F
100
AcDbEntity
  8
0
  6
Continuous
 62
     7
370
    15
100
AcDbLine
 10
579.1579706035
 20
175.2708464004
 30
0.0
 11
570.2725833948
 21
170.1414215477
 31
0.0
  0
LINE
  5
283
330
1F
100
AcDbEntity
  8
0
  6
Continuous
 62
     7
370
    15
100
AcDbLine
 10
570.2725833948
 20
153.8106053099
 30
0.0
 11
570.2725833948
 21
170.1414215477
 31
0.0
  0
LWPOLYLINE
  5
284
330
1F
100
AcDbEntity
  8
0
  6
Continuous
 62
     7
370
    15
100
AcDbPolyline
 90
       14
 70
   128
 43
0.0
 10
563.201515583
 20
149.7272377502
 10
564.0538386229
 20
149.2947371512
 10
564.8937328736
 20
148.9876134221
 10
565.7089507857
 20
148.8103451184
 10
566.4876046462
 20
148.7655172113
 10
567.2183399286
 20
148.8537833924
 10
567.890500867
 20
149.0738565423
 10
568.4942858412
 20
149.4225274987
 10
569.0208903068
 20
149.894711854
 10
569.4626351848
 20
150.483524097
 10
569.8130788402
 20
151.1803780193
 10
570.0671110154
 20
151.9751119216
 10
570.2210273492
 20
152.856136794
 10
570.2725833948
 20
153.8106053099
  0
LINE
  5
285
330
1F
100
AcDbEntity
  8
0
  6
Continuous
 62
     7
370
    15
100
AcDbLine
 10
549.0593799592
 20
157.8913188684
 30
0.0
 11
563.201515583
 21
149.7272377502
 31
0.0
  0
ARC
  5
286
330
1F
100
AcDbEntity
  8
0
  6
Continuous
 62
     7
370
    15
100
AcDbCircle
 10
557.2974884325
 20
170.8125588243
 30
0.0
 40
15.32399664624825
100
AcDbArc
 50
182.520089748
 51
237.4799103976
  0
LINE
  5
287
330
1F
100
AcDbEntity
  8
0
  6
Continuous
 62
     7
370
    15
100
AcDbLine
 10
541.9883121474
 20
186.4695837841
 30
0.0
 11
541.9883121474
 21
170.1387675464
 31
0.0
  0
LWPOLYLINE
  5
288
330
1F
100
AcDbEntity
  8
0
  6
Continuous
 62
     7
370
    15
100
AcDbPolyline
 90
       14
 70
   128
 43
0.0
 10
549.0593799592
 20
190.5529513439
 10
548.2070569193
 20
190.9854519429
 10
547.3671626686
 20
191.292575672
 10
546.5519447565
 20
191.4698439757
 10
545.773290896
 20
191.5146718828
 10
545.0425556136
 20
191.4264057016
 10
544.3703946752
 20
191.2063325518
 10
543.766609701
 20
190.8576615954
 10
543.2400052354
 20
190.3854772401
 10
542.7982603574
 20
189.7966649971
 10
542.447816702
 20
189.0998110747
 10
542.1937845268
 20
188.3050771724
 10
542.039868193
 20
187.4240523
 10
541.9883121474
 20
186.4695837841
  0
LINE
  5
289
330
1F
100
AcDbEntity
  8
0
  6
Continuous
 62
     7
370
    15
100
AcDbLine
 10
563.201515583
 20
182.3888702256
 30
0.0
 11
549.0593799592
 21
190.5529513439
 31
0.0
  0
LWPOLYLINE
  5
28A
330
1F
100
AcDbEntity
  8
0
  6
Continuous
 62
     7
370
    15
100
AcDbPolyline
 90
       61
 70
   128
 43
0.0
 10
547.4683897016
 20
175.1405942319
 10
547.515841362
 20
176.1587599857
 10
547.657676453
 20
177.1109839814
 10
547.8923409995
 20
177.9868334536
 10
548.2172639678
 20
178.7767124124
 10
548.6288854338
 20
179.4719667786
 10
549.1226955866
 20
180.0649791997
 10
549.6932841387
 20
180.5492525077
 10
550.3343996027
 20
180.9194809028
 10
551.0390177833
 20
181.1716080853
 10
551.7994187363
 20
181.3028716969
 10
552.6072713498
 20
181.3118335861
 10
553.4537246214
 20
181.1983955646
 10
554.3295046319
 20
180.963800483
 10
555.2250161524
 20
180.6106186142
 10
556.1304477711
 20
180.1427194926
 10
557.0358793898
 20
179.565229519
 10
557.9313909103
 20
178.8844757942
 10
558.8071709209
 20
178.1079167986
 10
559.6536241924
 20
177.244060675
 10
560.4614768059
 20
176.302372012
 10
561.2218777589
 20
175.2931681475
 10
561.9264959395
 20
174.2275061303
 10
562.5676114035
 20
173.1170615764
 10
563.1381999556
 20
171.9740007488
 10
563.6320101084
 20
170.8108472611
 10
564.0436315744
 20
169.6403448663
 10
564.3685545427
 20
168.4753178335
 10
564.6032190892
 20
167.3285304428
 10
564.7450541802
 20
166.2125471368
 10
564.7925058406
 20
165.1395948621
 10
564.7450541802
 20
164.1214291084
 10
564.6032190892
 20
163.1692051127
 10
564.3685545427
 20
162.2933556404
 10
564.0436315744
 20
161.5034766816
 10
563.6320101084
 20
160.8082223155
 10
563.1381999556
 20
160.2152098943
 10
562.5676114035
 20
159.7309365864
 10
561.9264959395
 20
159.3607081913
 10
561.2218777589
 20
159.1085810088
 10
560.4614768059
 20
158.9773173972
 10
559.6536241924
 20
158.9683555079
 10
558.8071709209
 20
159.0817935295
 10
557.9313909103
 20
159.316388611
 10
557.0358793898
 20
159.6695704798
 10
556.1304477711
 20
160.1374696014
 10
555.2250161524
 20
160.7149595751
 10
554.3295046319
 20
161.3957132999
 10
553.4537246214
 20
162.1722722955
 10
552.6072713498
 20
163.036128419
 10
551.7994187363
 20
163.9778170821
 10
551.0390177833
 20
164.9870209466
 10
550.3343996027
 20
166.0526829638
 10
549.6932841387
 20
167.1631275176
 10
549.1226955866
 20
168.3061883453
 10
548.6288854338
 20
169.469341833
 10
548.2172639678
 20
170.6398442278
 10
547.8923409995
 20
171.8048712606
 10
547.657676453
 20
172.9516586512
 10
547.515841362
 20
174.0676419573
 10
547.4683897016
 20
175.1405942319
  0
LINE
  5
28B
330
1F
100
AcDbEntity
  8
0
  6
Continuous
 62
     7
370
    15
100
AcDbLine
 10
639.4889690599
 20
206.0211309098
 30
0.0
 11
639.4889690599
 21
203.5715084742
 31
0.0
  0
ARC
  5
28C
330
1F
100
AcDbEntity
  8
0
  6
Continuous
 62
     7
370
    15
100
AcDbCircle
 10
580.9320653589
 20
171.820967274
 30
0.0
 40
3.879314138792526
100
AcDbArc
 50
77.5966214838
 51
117.2144199089
  0
LINE
  5
28D
330
1F
100
AcDbEntity
  8
0
  6
Continuous
 62
     7
370
    15
100
AcDbLine
 10
628.3354183434
 20
207.7464042533
 30
0.0
 11
628.3354183434
 21
205.2967818176
 31
0.0
  0
LINE
  5
28E
330
1F
100
AcDbEntity
  8
0
  6
Continuous
 62
     7
370
    15
100
AcDbLine
 10
579.1579706035
 20
158.9400301626
 30
0.0
 11
579.1579706035
 21
175.2708464004
 31
0.0
  0
LINE
  5
28F
330
1F
100
AcDbEntity
  8
0
  6
Continuous
 62
     7
370
    15
100
AcDbLine
 10
570.2725833948
 20
153.8106053099
 30
0.0
 11
579.1579706035
 21
158.9400301626
 31
0.0
  0
LINE
  5
290
330
1F
100
AcDbEntity
  8
0
  6
Continuous
 62
     7
370
    15
100
AcDbLine
 10
555.0423374876
 20
194.0068392069
 30
0.0
 11
549.0593799592
 21
190.5529513439
 31
0.0
  0
ARC
  5
291
330
1F
100
AcDbEntity
  8
0
  6
Continuous
 62
     7
370
    15
100
AcDbCircle
 10
586.4077220248
 20
232.0083493916
 30
0.0
 40
49.27374679760906
100
AcDbArc
 50
230.4646869809
 51
249.5406895518
  0
ARC
  5
292
330
1F
100
AcDbEntity
  8
0
  6
Continuous
 62
     7
370
    15
100
AcDbCircle
 10
580.9320653589
 20
155.4901510363
 30
0.0
 40
3.879314138792893
100
AcDbArc
 50
77.5966214838
 51
117.2144199089
  0
LINE
  5
293
330
1F
100
AcDbEntity
  8
0
  6
Continuous
 62
     7
370
    15
100
AcDbLine
 10
548.7662708742
 20
223.042721545
 30
0.0
 11
544.6837879696
 21
220.6859543293
 31
0.0
  0
LINE
  5
294
330
1F
100
AcDbEntity
  8
0
  6
Continuous
 62
     7
370
    15
100
AcDbLine
 10
554.3430462325
 20
222.1800848732
 30
0.0
 11
548.7662708742
 21
223.042721545
 31
0.0
  0
LINE
  5
295
330
1F
100
AcDbEntity
  8
0
  6
Continuous
 62
     7
370
    15
100
AcDbLine
 10
555.8373386861
 20
218.9606809858
 30
0.0
 11
554.3430462325
 21
222.1800848732
 31
0.0
  0
LINE
  5
296
330
1F
100
AcDbEntity
  8
0
  6
Continuous
 62
     7
370
    15
100
AcDbLine
 10
551.7548557815
 20
216.6039137702
 30
0.0
 11
555.8373386861
 21
218.9606809858
 31
0.0
  0
LINE
  5
297
330
1F
100
AcDbEntity
  8
0
  6
Continuous
 62
     7
370
    15
100
AcDbLine
 10
546.1780804232
 20
217.4665504419
 30
0.0
 11
551.7548557815
 21
216.6039137702
 31
0.0
  0
LINE
  5
298
330
1F
100
AcDbEntity
  8
0
  6
Continuous
 62
     7
370
    15
100
AcDbLine
 10
544.6837879696
 20
220.6859543293
 30
0.0
 11
546.1780804232
 21
217.4665504419
 31
0.0
  0
LINE
  5
299
330
1F
100
AcDbEntity
  8
0
  6
Continuous
 62
     7
370
    15
100
AcDbLine
 10
546.1780804232
 20
217.4665504419
 30
0.0
 11
546.1780804232
 21
215.0169280063
 31
0.0
  0
LINE
  5
29A
330
1F
100
AcDbEntity
  8
0
  6
Continuous
 62
     7
370
    15
100
AcDbLine
 10
551.7548557815
 20
216.6039137702
 30
0.0
 11
551.7548557815
 21
214.1542913345
 31
0.0
  0
LINE
  5
29B
330
1F
100
AcDbEntity
  8
0
  6
Continuous
 62
     7
370
    15
100
AcDbLine
 10
555.8373386861
 20
218.9606809858
 30
0.0
 11
555.8373386861
 21
216.5110585502
 31
0.0
  0
LINE
  5
29C
330
1F
100
AcDbEntity
  8
0
  6
Continuous
 62
     7
370
    15
100
AcDbLine
 10
544.6837879696
 20
220.6859543293
 30
0.0
 11
544.6837879696
 21
218.2363318936
 31
0.0
  0
LINE
  5
29D
330
1F
100
AcDbEntity
  8
0
  6
Continuous
 62
     7
370
    15
100
AcDbLine
 10
642.7706630521
 20
232.4078558811
 30
0.0
 11
642.7706630521
 21
229.9582334454
 31
0.0
  0
LINE
  5
29E
330
1F
100
AcDbEntity
  8
0
  6
Continuous
 62
     7
370
    15
100
AcDbLine
 10
642.7706630521
 20
232.4078558811
 30
0.0
 11
648.3474384104
 21
231.5452192093
 31
0.0
  0
LINE
  5
29F
330
1F
100
AcDbEntity
  8
0
  6
Continuous
 62
     7
370
    15
100
AcDbLine
 10
648.3474384104
 20
231.5452192093
 30
0.0
 11
648.3474384104
 21
229.0955967737
 31
0.0
  0
LINE
  5
2A0
330
1F
100
AcDbEntity
  8
0
  6
Continuous
 62
     7
370
    15
100
AcDbLine
 10
648.3474384104
 20
231.5452192093
 30
0.0
 11
652.429921315
 21
233.901986425
 31
0.0
  0
LINE
  5
2A1
330
1F
100
AcDbEntity
  8
0
  6
Continuous
 62
     7
370
    15
100
AcDbLine
 10
641.2763705985
 20
235.6272597684
 30
0.0
 11
642.7706630521
 21
232.4078558811
 31
0.0
  0
LINE
  5
2A2
330
1F
100
AcDbEntity
  8
0
  6
Continuous
 62
     7
370
    15
100
AcDbLine
 10
645.3588535031
 20
237.9840269841
 30
0.0
 11
641.2763705985
 21
235.6272597684
 31
0.0
  0
LINE
  5
2A3
330
1F
100
AcDbEntity
  8
0
  6
Continuous
 62
     7
370
    15
100
AcDbLine
 10
650.9356288614
 20
237.1213903124
 30
0.0
 11
645.3588535031
 21
237.9840269841
 31
0.0
  0
LINE
  5
2A4
330
1F
100
AcDbEntity
  8
0
  6
Continuous
 62
     7
370
    15
100
AcDbLine
 10
652.429921315
 20
233.901986425
 30
0.0
 11
650.9356288614
 21
237.1213903124
 31
0.0
  0
LINE
  5
2A5
330
1F
100
AcDbEntity
  8
0
  6
Continuous
 62
     7
370
    15
100
AcDbLine
 10
652.429921315
 20
233.901986425
 30
0.0
 11
652.429921315
 21
231.4523639893
 31
0.0
  0
LINE
  5
2A6
330
1F
100
AcDbEntity
  8
0
  6
Continuous
 62
     7
370
    15
100
AcDbLine
 10
641.2763705985
 20
235.6272597684
 30
0.0
 11
641.2763705985
 21
233.1776373328
 31
0.0
  0
LINE
  5
2A7
330
1F
100
AcDbEntity
  8
0
  6
Continuous
 62
     7
370
    15
100
AcDbLine
 10
559.1190326783
 20
245.3474059571
 30
0.0
 11
559.1190326783
 21
242.8977835214
 31
0.0
  0
LINE
  5
2A8
330
1F
100
AcDbEntity
  8
0
  6
Continuous
 62
     7
370
    15
100
AcDbLine
 10
559.1190326783
 20
245.3474059571
 30
0.0
 11
564.6958080366
 21
244.4847692853
 31
0.0
  0
LINE
  5
2A9
330
1F
100
AcDbEntity
  8
0
  6
Continuous
 62
     7
370
    15
100
AcDbLine
 10
564.6958080366
 20
244.4847692853
 30
0.0
 11
564.6958080366
 21
242.0351468497
 31
0.0
  0
LINE
  5
2AA
330
1F
100
AcDbEntity
  8
0
  6
Continuous
 62
     7
370
    15
100
AcDbLine
 10
567.2839984876
 20
250.0609403884
 30
0.0
 11
561.7072231294
 21
250.9235770601
 31
0.0
  0
LINE
  5
2AB
330
1F
100
AcDbEntity
  8
0
  6
Continuous
 62
     7
370
    15
100
AcDbLine
 10
568.7782909412
 20
246.841536501
 30
0.0
 11
567.2839984876
 21
250.0609403884
 31
0.0
  0
LINE
  5
2AC
330
1F
100
AcDbEntity
  8
0
  6
Continuous
 62
     7
370
    15
100
AcDbLine
 10
564.6958080366
 20
244.4847692853
 30
0.0
 11
568.7782909412
 21
246.841536501
 31
0.0
  0
LINE
  5
2AD
330
1F
100
AcDbEntity
  8
0
  6
Continuous
 62
     7
370
    15
100
AcDbLine
 10
557.6247402247
 20
248.5668098444
 30
0.0
 11
559.1190326783
 21
245.3474059571
 31
0.0
  0
LINE
  5
2AE
330
1F
100
AcDbEntity
  8
0
  6
Continuous
 62
     7
370
    15
100
AcDbLine
 10
561.7072231294
 20
250.9235770601
 30
0.0
 11
557.6247402247
 21
248.5668098444
 31
0.0
  0
LINE
  5
2AF
330
1F
100
AcDbEntity
  8
0
  6
Continuous
 62
     7
370
    15
100
AcDbLine
 10
568.7782909412
 20
246.841536501
 30
0.0
 11
568.7782909412
 21
244.3919140653
 31
0.0
  0
LINE
  5
2B0
330
1F
100
AcDbEntity
  8
0
  6
Continuous
 62
     7
370
    15
100
AcDbLine
 10
557.6247402247
 20
248.5668098444
 30
0.0
 11
557.6247402247
 21
246.1171874088
 31
0.0
  0
LINE
  5
2B1
330
1F
100
AcDbEntity
  8
0
  6
Continuous
 62
     7
370
    15
100
AcDbLine
 10
655.1253971372
 20
202.7950920193
 30
0.0
 11
655.1253971372
 21
206.7369477639
 31
0.0
  0
LINE
  5
2B2
330
1F
100
AcDbEntity
  8
0
  6
Continuous
 62
     7
370
    15
100
AcDbLine
 10
617.0745822557
 20
254.3121892205
 30
0.0
 11
615.5802898021
 21
257.5315931079
 31
0.0
  0
LINE
  5
2B3
330
1F
100
AcDbEntity
  8
0
  6
Continuous
 62
     7
370
    15
100
AcDbLine
 10
612.992099351
 20
251.9554220049
 30
0.0
 11
617.0745822557
 21
254.3121892205
 31
0.0
  0
LINE
  5
2B4
330
1F
100
AcDbEntity
  8
0
  6
Continuous
 62
     7
370
    15
100
AcDbLine
 10
607.4153239928
 20
252.8180586766
 30
0.0
 11
612.992099351
 21
251.9554220049
 31
0.0
  0
LINE
  5
2B5
330
1F
100
AcDbEntity
  8
0
  6
Continuous
 62
     7
370
    15
100
AcDbLine
 10
605.9210315392
 20
256.037462564
 30
0.0
 11
607.4153239928
 21
252.8180586766
 31
0.0
  0
LINE
  5
2B6
330
1F
100
AcDbEntity
  8
0
  6
Continuous
 62
     7
370
    15
100
AcDbLine
 10
610.0035144438
 20
258.3942297797
 30
0.0
 11
605.9210315392
 21
256.037462564
 31
0.0
  0
LINE
  5
2B7
330
1F
100
AcDbEntity
  8
0
  6
Continuous
 62
     7
370
    15
100
AcDbLine
 10
615.5802898021
 20
257.5315931079
 30
0.0
 11
610.0035144438
 21
258.3942297797
 31
0.0
  0
LINE
  5
2B8
330
1F
100
AcDbEntity
  8
0
  6
Continuous
 62
     7
370
    15
100
AcDbLine
 10
607.4153239928
 20
252.8180586766
 30
0.0
 11
607.4153239928
 21
250.368436241
 31
0.0
  0
LINE
  5
2B9
330
1F
100
AcDbEntity
  8
0
  6
Continuous
 62
     7
370
    15
100
AcDbLine
 10
612.992099351
 20
251.9554220049
 30
0.0
 11
612.992099351
 21
249.5057995692
 31
0.0
  0
LINE
  5
2BA
330
1F
100
AcDbEntity
  8
0
  6
Continuous
 62
     7
370
    15
100
AcDbLine
 10
617.0745822557
 20
254.3121892205
 30
0.0
 11
617.0745822557
 21
251.8625667849
 31
0.0
  0
LINE
  5
2BB
330
1F
100
AcDbEntity
  8
0
  6
Continuous
 62
     7
370
    15
100
AcDbLine
 10
605.9210315392
 20
256.037462564
 30
0.0
 11
605.9210315392
 21
253.5878401284
 31
0.0
  0
ARC
  5
2BC
330
1F
100
AcDbEntity
  8
0
  6
Continuous
 62
     7
370
    15
100
AcDbCircle
 10
650.3098571942
 20
202.2160029102
 30
0.0
 40
4.850233926250151
100
AcDbArc
 50
304.455047166
 51
6.8571332274
  0
LWPOLYLINE
  5
2BD
330
1F
100
AcDbEntity
  8
0
  6
Continuous
 62
     8
370
    15
100
AcDbPolyline
 90
       76
 70
   128
 43
0.0
 10
557.8982147241
 20
201.3726147266
 10
559.9100510942
 20
200.2660256319
 10
562.0121488646
 20
199.2168403478
 10
564.1995984888
 20
198.2275092952
 10
566.4672910766
 20
197.3003431025
 10
568.8099303271
 20
196.4375072094
 10
571.2220448976
 20
195.641016809
 10
573.6980011828
 20
194.9127321417
 10
576.2320164722
 20
194.2543541499
 10
578.8181724555
 20
193.6674205061
 10
581.4504290456
 20
193.1533020208
 10
584.1226384854
 20
192.7131994418
 10
586.8285597058
 20
192.3481406488
 10
589.5618729025
 20
192.0589782537
 10
592.3161942958
 20
191.8463876087
 10
595.0850910405
 20
191.7108652289
 10
597.86209625
 20
191.6527276333
 10
600.6407240999
 20
191.6721106049
 10
603.4144849761
 20
191.7689688738
 10
606.1769006316
 20
191.9430762231
 10
608.9215193166
 20
192.194026017
 10
611.641930847
 20
192.5212321506
 10
614.3317815756
 20
192.9239304188
 10
616.9847892315
 20
193.4011803012
 10
619.5947575922
 20
193.9518671586
 10
622.1555909558
 20
194.5747048362
 10
624.6613083773
 20
195.2682386679
 10
627.1060576376
 20
196.0308488732
 10
629.4841289114
 20
196.8607543406
 10
631.7899681031
 20
197.7560167875
 10
634.0181898184
 20
198.714545287
 10
636.1635899424
 20
199.7341011513
 10
638.2211577935
 20
200.8123031605
 10
640.1860878268
 20
201.9466331238
 10
642.053790857
 20
203.1344417611
 10
643.8199047773
 20
204.3729548902
 10
645.4803047467
 20
205.6592799062
 10
647.0311128242
 20
206.9904125377
 10
648.4687070256
 20
208.3632438625
 10
649.7897297831
 20
209.7745675695
 10
650.9910957868
 20
211.2210874469
 10
652.0699991908
 20
212.6994250804
 10
653.0239201661
 20
214.206127744
 10
653.8506307862
 20
215.7376764638
 10
654.54820023
 20
217.2904942368
 10
655.1149992918
 20
218.8609543851
 10
655.5497041861
 20
220.4453890263
 10
655.8512996395
 20
222.0400976399
 10
656.0190812619
 20
223.64135571
 10
656.0526571915
 20
225.2454234242
 10
655.9519490101
 20
226.8485544081
 10
655.7171919265
 20
228.4470044748
 10
655.3489342265
 20
230.0370403703
 10
654.8480359932
 20
231.614948492
 10
654.2156670976
 20
233.1770435625
 10
653.4533044665
 20
234.7196772361
 10
652.5627286333
 20
236.2392466207
 10
651.5460195789
 20
237.7322026914
 10
650.4055518745
 20
239.1950585802
 10
649.1439891354
 20
240.6243977193
 10
647.7642777996
 20
242.016881821
 10
646.2696402471
 20
243.3692586741
 10
644.6635672729
 20
244.6783697399
 10
642.9498099351
 20
245.9411575287
 10
641.1323707932
 20
247.1546727412
 10
639.2154945605
 20
248.3160811564
 10
637.2036581904
 20
249.4226702511
 10
635.1015604199
 20
250.4718555352
 10
632.9141107958
 20
251.4611865878
 10
630.6464182079
 20
252.3883527805
 10
628.3037789575
 20
253.2511886736
 10
625.891664387
 20
254.047679074
 10
623.4157081018
 20
254.7759637413
 10
620.8816928124
 20
255.4343417331
 10
618.2955368291
 20
256.0212753769
 10
616.0777448969
 20
256.4598424863
  0
ARC
  5
2BE
330
1F
100
AcDbEntity
  8
0
  6
Continuous
 62
     8
370
    15
100
AcDbCircle
 10
598.2519593946
 20
168.2695774767
 30
0.0
 40
89.85529860978389
100
AcDbArc
 50
83.4397359209
 51
113.3336720908
  0
LWPOLYLINE
  5
2BF
330
1F
100
AcDbEntity
  8
0
  6
Continuous
 62
     8
370
    15
100
AcDbPolyline
 90
       34
 70
   128
 43
0.0
 10
557.6247402247
 20
248.1571385988
 10
556.9276214578
 20
247.7420627591
 10
555.0599184276
 20
246.5542541219
 10
553.2938045073
 20
245.3157409928
 10
551.6334045379
 20
244.0294159767
 10
550.0825964604
 20
242.6982833453
 10
548.645002259
 20
241.3254520205
 10
547.3239795015
 20
239.9141283134
 10
546.1226134977
 20
238.467608436
 10
545.0437100938
 20
236.9892708025
 10
544.0897891185
 20
235.4825681389
 10
543.2630784984
 20
233.9510194191
 10
542.5655090546
 20
232.3982016462
 10
541.9987099928
 20
230.8277414978
 10
541.5640050985
 20
229.2433068566
 10
541.2624096451
 20
227.648598243
 10
541.0946280227
 20
226.0473401729
 10
541.0610520931
 20
224.4432724587
 10
541.1617602745
 20
222.8401414749
 10
541.3965173581
 20
221.2416914082
 10
541.7647750581
 20
219.6516555127
 10
542.2656732914
 20
218.0737473909
 10
542.898042187
 20
216.5116523205
 10
543.6604048181
 20
214.9690186468
 10
544.5509806513
 20
213.4494492623
 10
545.5676897057
 20
211.9564931916
 10
546.7081574101
 20
210.4936373028
 10
547.9697201492
 20
209.0642981637
 10
549.349431485
 20
207.671814062
 10
550.8440690375
 20
206.3194372088
 10
552.4501420117
 20
205.0103261431
 10
554.1638993495
 20
203.7475383543
 10
555.9813384914
 20
202.5340231418
 10
557.8982147241
 20
201.3726147266
  0
LWPOLYLINE
  5
2C0
330
1F
100
AcDbEntity
  8
0
  6
Continuous
 62
     8
370
    15
100
AcDbPolyline
 90
       18
 70
   128
 43
0.0
 10
556.1304477711
 20
198.3107525571
 10
554.174220085
 20
199.4947105342
 10
552.3170274113
 20
200.7306784101
 10
550.563013873
 20
202.0158982572
 10
548.9160933601
 20
203.3475022473
 10
547.3799407962
 20
204.7225190513
 10
545.9579839386
 20
206.1378804691
 10
544.6533957288
 20
207.5904282759
 10
543.4690872133
 20
209.0769212695
 10
542.4077010476
 20
210.5940425029
 10
541.4716055991
 20
212.1384066853
 10
540.6628896628
 20
213.7065677364
 10
539.9833578003
 20
215.2950264756
 10
539.4345263129
 20
216.9002384304
 10
539.0176198581
 20
218.5186217453
 10
538.7335687173
 20
220.1465651743
 10
538.5830067197
 20
221.7804361389
 10
538.5569319828
 20
222.747381634
  0
LWPOLYLINE
  5
2C1
330
1F
100
AcDbEntity
  8
0
  6
Continuous
 62
     8
370
    15
100
AcDbPolyline
 90
       51
 70
   128
 43
0.0
 10
658.556276006
 20
222.6508764644
 10
658.5056001455
 20
221.3716119216
 10
658.3216227123
 20
219.7388814245
 10
658.0042867121
 20
218.1129881649
 10
657.5543002456
 20
216.4975601465
 10
656.9726674087
 20
214.8962020209
 10
656.2606860515
 20
213.3124870441
 10
655.419944883
 20
211.7499491037
 10
654.4523199254
 20
210.2120748327
 10
653.3599703283
 20
208.7022958299
 10
652.1453335509
 20
207.2239810027
 10
650.8111199226
 20
205.7804290496
 10
649.360306596
 20
204.3748610993
 10
647.7961309027
 20
203.0104135236
 10
646.1220831304
 20
201.6901309386
 10
644.3418987343
 20
200.4169594109
 10
642.4595500018
 20
199.1937398841
 10
640.479237189
 20
198.0232018393
 10
638.4053791481
 20
196.9079572045
 10
636.2426034673
 20
195.8504945267
 10
633.995736145
 20
194.8531734184
 10
631.6697908206
 20
193.9182192932
 10
629.2699575877
 20
193.0477183992
 10
626.8015914125
 20
192.2436131643
 10
624.2702001854
 20
191.5076978618
 10
621.6814324298
 20
190.8416146064
 10
619.0410646989
 20
190.2468496903
 10
616.3549886855
 20
189.7247302666
 10
613.6291980757
 20
189.2764213879
 10
610.869775174
 20
188.9029234067
 10
608.082877332
 20
188.6050697429
 10
605.2747232085
 20
188.3835250245
 10
602.4515788934
 20
188.2387836045
 10
599.6197439255
 20
188.1711684576
 10
596.785537236
 20
188.1808304596
 10
593.9552830483
 20
188.2677480507
 10
591.1352967661
 20
188.4317272839
 10
588.3318708816
 20
188.6724022573
 10
585.551260934
 20
188.989235931
 10
582.7996715515
 20
189.3815213252
 10
580.0832426058
 20
189.8483830978
 10
577.4080355123
 20
190.3887794975
 10
574.7800197038
 20
191.0015046888
 10
572.2050593115
 20
191.6851914421
 10
569.6889000786
 20
192.4383141849
 10
567.2371565404
 20
193.259192406
 10
564.8552994954
 20
194.145994405
 10
562.548643798
 20
195.0967413798
 10
560.322336499
 20
196.1093118424
 10
558.1813453606
 20
197.1814463519
 10
556.1304477711
 20
198.3107525571
  0
LWPOLYLINE
  5
2C2
330
1F
100
AcDbEntity
  8
0
  6
Continuous
 62
     8
370
    15
100
AcDbPolyline
 90
       51
 70
   128
 43
0.0
 10
556.1304477711
 20
194.2280484977
 10
558.1813453606
 20
193.0987422925
 10
560.322336499
 20
192.0266077829
 10
562.548643798
 20
191.0140373204
 10
564.8552994954
 20
190.0632903455
 10
567.2371565404
 20
189.1764883466
 10
569.6889000786
 20
188.3556101255
 10
572.2050593115
 20
187.6024873827
 10
574.7800197038
 20
186.9188006294
 10
577.4080355123
 20
186.3060754381
 10
580.0832426058
 20
185.7656790383
 10
582.7996715515
 20
185.2988172658
 10
585.551260934
 20
184.9065318716
 10
588.3318708816
 20
184.5896981979
 10
591.1352967661
 20
184.3490232244
 10
593.9552830483
 20
184.1850439913
 10
596.785537236
 20
184.0981264001
 10
599.6197439255
 20
184.0884643982
 10
602.4515788934
 20
184.1560795451
 10
605.2747232085
 20
184.3008209651
 10
608.082877332
 20
184.5223656834
 10
610.869775174
 20
184.8202193472
 10
613.6291980757
 20
185.1937173285
 10
616.3549886855
 20
185.6420262071
 10
619.0410646989
 20
186.1641456308
 10
621.6814324298
 20
186.7589105469
 10
624.2702001854
 20
187.4249938023
 10
626.8015914125
 20
188.1609091049
 10
629.2699575877
 20
188.9650143398
 10
631.6697908206
 20
189.8355152338
 10
633.995736145
 20
190.770469359
 10
636.2426034673
 20
191.7677904672
 10
638.4053791481
 20
192.8252531451
 10
640.479237189
 20
193.9404977799
 10
642.4595500018
 20
195.1110358247
 10
644.3418987343
 20
196.3342553515
 10
646.1220831304
 20
197.6074268792
 10
647.7961309027
 20
198.9277094642
 10
649.360306596
 20
200.2921570399
 10
650.8111199226
 20
201.6977249902
 10
652.1453335509
 20
203.1412769433
 10
653.3599703283
 20
204.6195917705
 10
654.4523199254
 20
206.1293707732
 10
655.419944883
 20
207.6672450443
 10
656.2606860515
 20
209.2297829847
 10
656.9726674087
 20
210.8134979614
 10
657.5543002456
 20
212.4148560871
 10
658.0042867121
 20
214.0302841055
 10
658.3216227123
 20
215.656177365
 10
658.5056001455
 20
217.2889078622
 10
658.5568546423
 20
218.7202918523
  0
LWPOLYLINE
  5
2C3
330
1F
100
AcDbEntity
  8
0
  6
Continuous
 62
     8
370
    15
100
AcDbPolyline
 90
       18
 70
   128
 43
0.0
 10
538.5568546423
 20
218.7202918523
 10
538.5830067197
 20
217.6977320795
 10
538.7335687173
 20
216.0638611148
 10
539.0176198581
 20
214.4359176859
 10
539.4345263129
 20
212.817534371
 10
539.9833578003
 20
211.2123224162
 10
540.6628896628
 20
209.6238636769
 10
541.4716055991
 20
208.0557026259
 10
542.4077010476
 20
206.5113384435
 10
543.4690872133
 20
204.9942172101
 10
544.6533957288
 20
203.5077242165
 10
545.9579839386
 20
202.0551764097
 10
547.3799407962
 20
200.6398149919
 10
548.9160933601
 20
199.2647981879
 10
550.563013873
 20
197.9331941977
 10
552.3170274113
 20
196.6479743507
 10
554.174220085
 20
195.4120064748
 10
556.1304477711
 20
194.2280484977
  0
LWPOLYLINE
  5
2C4
330
1F
100
AcDbEntity
  8
0
  6
Continuous
 62
     8
370
    15
100
AcDbPolyline
 90
       47
 70
   128
 43
0.0
 10
563.201515583
 20
141.5605026307
 10
565.0842485432
 20
140.5286463259
 10
567.0572177315
 20
139.5545940215
 10
569.115104372
 20
138.6409715904
 10
571.2523607659
 20
137.790241997
 10
573.4632252479
 20
137.004698658
 10
575.7417377183
 20
136.2864592593
 10
578.0817557103
 20
135.6374600474
 10
580.476970949
 20
135.0594506093
 10
582.9209263577
 20
134.5539891564
 10
585.4070334647
 20
134.1224383233
 10
587.9285901646
 20
133.7659614949
 10
590.4787987866
 20
133.4855196695
 10
593.050784419
 20
133.2818688689
 10
595.6376134432
 20
133.1555580994
 10
598.2323122256
 20
133.1069278727
 10
600.827885917
 20
133.1361092873
 10
603.4173373095
 20
133.2430236751
 10
605.9936857002
 20
133.427382814
 10
608.5499857091
 20
133.6886897043
 10
611.0793460034
 20
134.0262399087
 10
613.5749478749
 20
134.4391234516
 10
616.0300636222
 20
134.9262272721
 10
618.4380746874
 20
135.4862382242
 10
620.7924894983
 20
136.1176466175
 10
623.0869609688
 20
136.8187502866
 10
625.3153036095
 20
137.58765918
 10
627.4715102026
 20
138.4223004552
 10
629.5497679964
 20
139.3204240669
 10
631.5444743753
 20
140.2796088326
 10
633.4502519635
 20
141.2972689598
 10
635.2619631216
 20
142.3706610166
 10
636.9747237966
 20
143.496891328
 10
638.5839166885
 20
144.6729237761
 10
640.0852036979
 20
145.8955879852
 10
641.4745376203
 20
147.161587869
 10
642.7481730572
 20
148.4675105155
 10
643.9026765125
 20
149.8098353881
 10
644.9349356491
 20
151.1849438163
 10
645.8421676788
 20
152.5891287509
 10
646.6219268646
 20
154.0186047577
 10
647.2721111134
 20
155.4695182219
 10
647.7909676435
 20
156.9379577374
 10
648.1770977094
 20
158.4199646509
 10
648.4294603728
 20
159.9115437337
 10
648.5473753085
 20
161.4086739525
 10
648.5568546423
 20
161.9707054263
  0
LWPOLYLINE
  5
2C5
330
1F
100
AcDbEntity
  8
0
  6
Continuous
 62
     8
370
    15
100
AcDbPolyline
 90
       14
 70
   128
 43
0.0
 10
549.0586140641
 20
157.8917610582
 10
549.2137192171
 20
157.3073430433
 10
549.6995113437
 20
155.8351389425
 10
550.3170142301
 20
154.3794752443
 10
551.0645631975
 20
152.9442761605
 10
551.9401429861
 20
151.5334107342
 10
552.9413931876
 20
150.1506824091
 10
554.0656146085
 20
148.7998187763
 10
555.3097765466
 20
147.4844615253
 10
556.6705249612
 20
146.2081566267
 10
558.1441915152
 20
144.9743447729
 10
559.7268034642
 20
143.7863521026
 10
561.4140943661
 20
142.6473812338
 10
563.201515583
 20
141.5605026307
  0
SPLINE
  5
2C6
330
1F
100
AcDbEntity
  8
0
  6
Continuous
 62
     8
370
    15
100
AcDbSpline
210
0.0
220
0.0
230
1.0
 70
     8
 71
     3
 72
     9
 73
     5
 74
     0
 42
0.000000001
 43
0.00000001
 40
0.0
 40
0.0
 40
0.0
 40
0.0
 40
0.9336586340336676
 40
1.0
 40
1.0
 40
1.0
 40
1.0
 10
551.6214161258192
 20
195.4132678328696
 30
0.0
 10
551.6507259073467
 20
195.7168321175652
 30
0.0
 10
551.6821183033028
 20
196.0419662443542
 30
0.0
 10
551.7584283309416
 20
196.2678509468888
 30
0.0
 10
551.763490842412
 20
196.2828364466058
 30
0.0
  0
SPLINE
  5
2C7
330
1F
100
AcDbEntity
  8
0
  6
Continuous
 62
     8
370
    15
100
AcDbSpline
210
0.0
220
0.0
230
1.0
 70
     8
 71
     3
 72
    15
 73
    11
 74
     0
 42
0.000000001
 43
0.00000001
 40
0.0
 40
0.0
 40
0.0
 40
0.0
 40
0.1357942712744203
 40
0.262420122073917
 40
0.393227522815632
 40
0.52075631293523
 40
0.6521354758574726
 40
0.7740667564185019
 40
0.89945429226167
 40
1.0
 40
1.0
 40
1.0
 40
1.0
 10
581.7653145605806
 20
159.2789204876303
 30
0.0
 10
581.7238135453497
 20
158.6537168222763
 30
0.0
 10
581.6436135385242
 20
157.4455213612786
 30
0.0
 10
581.0228246728736
 20
155.8092505275803
 30
0.0
 10
580.1039335944545
 20
154.4006047532496
 30
0.0
 10
578.8698188783967
 20
153.2289418934189
 30
0.0
 10
577.426722432824
 20
152.3667019063046
 30
0.0
 10
575.8117721440614
 20
151.8334373093466
 30
0.0
 10
574.2159251067782
 20
151.6155569485363
 30
0.0
 10
573.136487461366
 20
151.7459482477508
 30
0.0
 10
572.6561118411299
 20
151.8039755006447
 30
0.0
  0
SPLINE
  5
2C8
330
1F
100
AcDbEntity
  8
0
  6
Continuous
 62
     8
370
    15
100
AcDbSpline
210
0.0
220
0.0
230
1.0
 70
     8
 71
     3
 72
    14
 73
    10
 74
     0
 42
0.000000001
 43
0.00000001
 40
0.0
 40
0.0
 40
0.0
 40
0.0
 40
0.0576912459647587
 40
0.2160329378536503
 40
0.3783264347536867
 40
0.5309432605751054
 40
0.687281713536816
 40
0.8415111971172655
 40
1.0
 40
1.0
 40
1.0
 40
1.0
 10
576.2614219176878
 20
185.5592369681139
 30
0.0
 10
576.4499446814027
 20
185.40563296294
 30
0.0
 10
577.1558945324862
 20
184.8304412861287
 30
0.0
 10
578.2509332553593
 20
183.6709273292304
 30
0.0
 10
579.4728059386479
 20
182.1515819836891
 30
0.0
 10
580.4654106259344
 20
180.5472581633478
 30
0.0
 10
581.1938632703415
 20
178.9222389305802
 30
0.0
 10
581.6736120669708
 20
177.2515553152575
 30
0.0
 10
581.73447075801
 20
176.1619564791418
 30
0.0
 10
581.7653145605806
 20
175.6097367253452
 30
0.0
  0
ARC
  5
2C9
330
1F
100
AcDbEntity
  8
0
  6
Continuous
 62
     8
370
    15
100
AcDbCircle
 10
566.4459134326
 20
188.7757318935
 30
0.0
 40
4.012735283311473
100
AcDbArc
 50
313.0367304514
 51
337.4993921771
  0
SPLINE
  5
2CA
330
1F
100
AcDbEntity
  8
0
  6
Continuous
 62
     8
370
    15
100
AcDbSpline
210
0.0
220
0.0
230
1.0
 70
     8
 71
     3
 72
    12
 73
     8
 74
     0
 42
0.000000001
 43
0.00000001
 40
0.0
 40
0.0
 40
0.0
 40
0.0
 40
0.0908339755041495
 40
0.3235370493862603
 40
0.5420395062214316
 40
0.7684145761998623
 40
1.0
 40
1.0
 40
1.0
 40
1.0
 10
575.9554184057451
 20
153.7497290023546
 30
0.0
 10
576.1311174811965
 20
153.8409646290352
 30
0.0
 10
576.7569313370351
 20
154.165932299902
 30
0.0
 10
577.6159100786614
 20
154.9645505138206
 30
0.0
 10
578.4725720780326
 20
156.1150116299595
 30
0.0
 10
579.0444143604116
 20
157.4458091359814
 30
0.0
 10
579.1198325042127
 20
158.438192937758
 30
0.0
 10
579.1579706035285
 20
158.9400301626475
 30
0.0
  0
LINE
  5
2CB
330
1F
100
AcDbEntity
  8
0
  6
Continuous
 62
     8
370
    15
100
AcDbLine
 10
555.0423374876
 20
194.0068392069
 30
0.0
 11
554.8218087353
 21
194.1983059202
 31
0.0
  0
SPLINE
  5
2CC
330
1F
100
AcDbEntity
  8
0
  6
Continuous
 62
     8
370
    15
100
AcDbSpline
210
0.0
220
0.0
230
1.0
 70
     8
 71
     3
 72
    10
 73
     6
 74
     0
 42
0.000000001
 43
0.00000001
 40
0.0
 40
0.0
 40
0.0
 40
0.0
 40
0.0280821979615253
 40
0.6360930800045286
 40
1.0
 40
1.0
 40
1.0
 40
1.0
 10
552.7284306245864
 20
195.5881902869617
 30
0.0
 10
552.7177953578431
 20
195.5928452815489
 30
0.0
 10
552.4768947136473
 20
195.6982860967042
 30
0.0
 10
552.1753422436342
 20
195.6967583825966
 30
0.0
 10
551.9379676580922
 20
195.556217896002
 30
0.0
 10
551.8490895100342
 20
195.5035965163914
 30
0.0
  0
LINE
  5
2CD
330
1F
100
AcDbEntity
  8
0
  6
Continuous
 62
     8
370
    15
100
AcDbLine
 10
648.9344618373
 20
199.2211411443
 30
0.0
 11
655.1253971372
 21
202.7950920193
 31
0.0
  0
ENDSEC
  0
SECTION
  2
OBJECTS
  0
DICTIONARY
  5
C
330
0
100
AcDbDictionary
281
     1
  3
ACAD_GROUP
350
D
  3
ACAD_LAYOUT
350
1A
  3
ACAD_MLINESTYLE
350
17
  3
ACAD_PLOTSETTINGS
350
19
  3
ACAD_PLOTSTYLENAME
350
E
  3
ACAD_SCALELIST
350
47
  0
DICTIONARY
  5
D
102
{ACAD_REACTORS
330
C
102
}
330
C
100
AcDbDictionary
281
     1
  0
DICTIONARY
  5
1A
102
{ACAD_REACTORS
330
C
102
}
330
C
100
AcDbDictionary
281
     1
  3
Layout1
350
1E
  3
Layout2
350
26
  3
Model
350
22
  0
DICTIONARY
  5
17
102
{ACAD_REACTORS
330
C
102
}
330
C
100
AcDbDictionary
281
     1
  3
Standard
350
18
  0
DICTIONARY
  5
19
102
{ACAD_REACTORS
330
C
102
}
330
C
100
AcDbDictionary
281
     1
  0
ACDBDICTIONARYWDFLT
  5
E
102
{ACAD_REACTORS
330
C
102
}
330
C
100
AcDbDictionary
281
     1
  3
Normal
350
F
100
AcDbDictionaryWithDefault
340
F
  0
DICTIONARY
  5
47
102
{ACAD_REACTORS
330
C
102
}
330
C
100
AcDbDictionary
281
     1
  3
A0
350
48
  3
A1
350
49
  3
A2
350
4A
  3
A3
350
4B
  3
A4
350
4C
  3
A5
350
4D
  3
A6
350
4E
  3
A7
350
4F
  3
A8
350
50
  3
A9
350
51
  3
B0
350
52
  3
B1
350
53
  3
B2
350
54
  3
B3
350
55
  3
B4
350
56
  3
B5
350
57
  3
B6
350
58
  3
B7
350
59
  3
B8
350
5A
  3
B9
350
5B
  3
C0
350
5C
  3
C1
350
5D
  3
C2
350
5E
  3
C3
350
5F
  3
C4
350
60
  3
C5
350
61
  3
C6
350
62
  3
C7
350
63
  3
C8
350
64
  3
C9
350
65
  3
D0
350
66
  3
D1
350
67
  3
D2
350
68
  0
LAYOUT
  5
1E
102
{ACAD_REACTORS
330
1A
102
}
330
1A
100
AcDbPlotSettings
  1

  2
none_device
  4

  6

 40
0.0
 41
0.0
 42
0.0
 43
0.0
 44
0.0
 45
0.0
 46
0.0
 47
0.0
 48
0.0
 49
0.0
140
0.0
141
0.0
142
1.0
143
1.0
 70
   688
 72
     1
 73
     0
 74
     5
  7

 75
    16
147
1.0
148
0.0
149
0.0
100
AcDbLayout
  1
Layout1
 70
     1
 71
     1
 10
0.0
 20
0.0
 11
420.0
 21
297.0
 12
0.0
 22
0.0
 32
0.0
 14
1.0000000000E+20
 24
1.0000000000E+20
 34
1.0000000000E+20
 15
-1.0000000000E+20
 25
-1.0000000000E+20
 35
-1.0000000000E+20
146
0.0
 13
0.0
 23
0.0
 33
0.0
 16
1.0
 26
0.0
 36
0.0
 17
0.0
 27
1.0
 37
0.0
 76
     0
330
1B
  0
LAYOUT
  5
26
102
{ACAD_REACTORS
330
1A
102
}
330
1A
100
AcDbPlotSettings
  1

  2
none_device
  4

  6

 40
0.0
 41
0.0
 42
0.0
 43
0.0
 44
0.0
 45
0.0
 46
0.0
 47
0.0
 48
0.0
 49
0.0
140
0.0
141
0.0
142
1.0
143
1.0
 70
   688
 72
     1
 73
     0
 74
     5
  7

 75
    16
147
1.0
148
0.0
149
0.0
100
AcDbLayout
  1
Layout2
 70
     1
 71
     2
 10
0.0
 20
0.0
 11
0.0
 21
0.0
 12
0.0
 22
0.0
 32
0.0
 14
0.0
 24
0.0
 34
0.0
 15
0.0
 25
0.0
 35
0.0
146
0.0
 13
0.0
 23
0.0
 33
0.0
 16
1.0
 26
0.0
 36
0.0
 17
0.0
 27
1.0
 37
0.0
 76
     0
330
23
  0
LAYOUT
  5
22
102
{ACAD_REACTORS
330
1A
102
}
330
1A
100
AcDbPlotSettings
  1

  2
none_device
  4
Letter_(8.50_x_11.00_Inches)
  6

 40
6.35
 41
6.35
 42
6.35000508
 43
6.35000508
 44
215.9
 45
279.4
 46
0.0
 47
0.0
 48
0.0
 49
0.0
140
0.0
141
0.0
142
1.0
143
1.0
 70
  1712
 72
     1
 73
     0
 74
     0
  7

 75
     0
147
1.0
148
0.0
149
0.0
100
AcDbLayout
  1
Model
 70
     1
 71
     0
 10
0.0
 20
0.0
 11
841.0
 21
594.0
 12
0.0
 22
0.0
 32
0.0
 14
0.0
 24
0.0
 34
0.0
 15
841.0
 25
594.0
 35
0.0
146
0.0
 13
0.0
 23
0.0
 33
0.0
 16
1.0
 26
0.0
 36
0.0
 17
0.0
 27
1.0
 37
0.0
 76
     0
330
1F
331
29
  0
MLINESTYLE
  5
18
102
{ACAD_REACTORS
330
17
102
}
330
17
100
AcDbMlineStyle
  2
Standard
 70
     0
  3

 62
   256
 51
90.0
 52
90.0
 71
     2
 49
0.5
 62
   256
  6
BYLAYER
 49
-0.5
 62
   256
  6
BYLAYER
  0
ACDBPLACEHOLDER
  5
F
102
{ACAD_REACTORS
330
E
102
}
330
E
  0
SCALE
  5
48
102
{ACAD_REACTORS
330
47
102
}
330
47
100
AcDbScale
 70
     0
300
1:1
140
1.0
141
1.0
290
     1
  0
SCALE
  5
49
102
{ACAD_REACTORS
330
47
102
}
330
47
100
AcDbScale
 70
     0
300
1:2
140
1.0
141
2.0
290
     0
  0
SCALE
  5
4A
102
{ACAD_REACTORS
330
47
102
}
330
47
100
AcDbScale
 70
     0
300
1:4
140
1.0
141
4.0
290
     0
  0
SCALE
  5
4B
102
{ACAD_REACTORS
330
47
102
}
330
47
100
AcDbScale
 70
     0
300
1:5
140
1.0
141
5.0
290
     0
  0
SCALE
  5
4C
102
{ACAD_REACTORS
330
47
102
}
330
47
100
AcDbScale
 70
     0
300
1:8
140
1.0
141
8.0
290
     0
  0
SCALE
  5
4D
102
{ACAD_REACTORS
330
47
102
}
330
47
100
AcDbScale
 70
     0
300
1:10
140
1.0
141
10.0
290
     0
  0
SCALE
  5
4E
102
{ACAD_REACTORS
330
47
102
}
330
47
100
AcDbScale
 70
     0
300
1:16
140
1.0
141
16.0
290
     0
  0
SCALE
  5
4F
102
{ACAD_REACTORS
330
47
102
}
330
47
100
AcDbScale
 70
     0
300
1:20
140
1.0
141
20.0
290
     0
  0
SCALE
  5
50
102
{ACAD_REACTORS
330
47
102
}
330
47
100
AcDbScale
 70
     0
300
1:30
140
1.0
141
30.0
290
     0
  0
SCALE
  5
51
102
{ACAD_REACTORS
330
47
102
}
330
47
100
AcDbScale
 70
     0
300
1:40
140
1.0
141
40.0
290
     0
  0
SCALE
  5
52
102
{ACAD_REACTORS
330
47
102
}
330
47
100
AcDbScale
 70
     0
300
1:50
140
1.0
141
50.0
290
     0
  0
SCALE
  5
53
102
{ACAD_REACTORS
330
47
102
}
330
47
100
AcDbScale
 70
     0
300
1:100
140
1.0
141
100.0
290
     0
  0
SCALE
  5
54
102
{ACAD_REACTORS
330
47
102
}
330
47
100
AcDbScale
 70
     0
300
2:1
140
2.0
141
1.0
290
     0
  0
SCALE
  5
55
102
{ACAD_REACTORS
330
47
102
}
330
47
100
AcDbScale
 70
     0
300
4:1
140
4.0
141
1.0
290
     0
  0
SCALE
  5
56
102
{ACAD_REACTORS
330
47
102
}
330
47
100
AcDbScale
 70
     0
300
8:1
140
8.0
141
1.0
290
     0
  0
SCALE
  5
57
102
{ACAD_REACTORS
330
47
102
}
330
47
100
AcDbScale
 70
     0
300
10:1
140
10.0
141
1.0
290
     0
  0
SCALE
  5
58
102
{ACAD_REACTORS
330
47
102
}
330
47
100
AcDbScale
 70
     0
300
100:1
140
100.0
141
1.0
290
     0
  0
SCALE
  5
59
102
{ACAD_REACTORS
330
47
102
}
330
47
100
AcDbScale
 70
     0
300
1/128" = 1'-0"
140
0.0078125
141
12.0
290
     0
  0
SCALE
  5
5A
102
{ACAD_REACTORS
330
47
102
}
330
47
100
AcDbScale
 70
     0
300
1/64" = 1'-0"
140
0.015625
141
12.0
290
     0
  0
SCALE
  5
5B
102
{ACAD_REACTORS
330
47
102
}
330
47
100
AcDbScale
 70
     0
300
1/32" = 1'-0"
140
0.03125
141
12.0
290
     0
  0
SCALE
  5
5C
102
{ACAD_REACTORS
330
47
102
}
330
47
100
AcDbScale
 70
     0
300
1/16" = 1'-0"
140
0.0625
141
12.0
290
     0
  0
SCALE
  5
5D
102
{ACAD_REACTORS
330
47
102
}
330
47
100
AcDbScale
 70
     0
300
3/32" = 1'-0"
140
0.09375
141
12.0
290
     0
  0
SCALE
  5
5E
102
{ACAD_REACTORS
330
47
102
}
330
47
100
AcDbScale
 70
     0
300
1/8" = 1'-0"
140
0.125
141
12.0
290
     0
  0
SCALE
  5
5F
102
{ACAD_REACTORS
330
47
102
}
330
47
100
AcDbScale
 70
     0
300
3/16" = 1'-0"
140
0.1875
141
12.0
290
     0
  0
SCALE
  5
60
102
{ACAD_REACTORS
330
47
102
}
330
47
100
AcDbScale
 70
     0
300
1/4" = 1'-0"
140
0.25
141
12.0
290
     0
  0
SCALE
  5
61
102
{ACAD_REACTORS
330
47
102
}
330
47
100
AcDbScale
 70
     0
300
3/8" = 1'-0"
140
0.375
141
12.0
290
     0
  0
SCALE
  5
62
102
{ACAD_REACTORS
330
47
102
}
330
47
100
AcDbScale
 70
     0
300
1/2" = 1'-0"
140
0.5
141
12.0
290
     0
  0
SCALE
  5
63
102
{ACAD_REACTORS
330
47
102
}
330
47
100
AcDbScale
 70
     0
300
3/4" = 1'-0"
140
0.75
141
12.0
290
     0
  0
SCALE
  5
64
102
{ACAD_REACTORS
330
47
102
}
330
47
100
AcDbScale
 70
     0
300
1" = 1'-0"
140
1.0
141
12.0
290
     0
  0
SCALE
  5
65
102
{ACAD_REACTORS
330
47
102
}
330
47
100
AcDbScale
 70
     0
300
1-1/2" = 1'-0"
140
1.5
141
12.0
290
     0
  0
SCALE
  5
66
102
{ACAD_REACTORS
330
47
102
}
330
47
100
AcDbScale
 70
     0
300
3" = 1'-0"
140
3.0
141
12.0
290
     0
  0
SCALE
  5
67
102
{ACAD_REACTORS
330
47
102
}
330
47
100
AcDbScale
 70
     0
300
6" = 1'-0"
140
6.0
141
12.0
290
     0
  0
SCALE
  5
68
102
{ACAD_REACTORS
330
47
102
}
330
47
100
AcDbScale
 70
     0
300
1'-0" = 1'-0"
140
12.0
141
12.0
290
     0
  0
ENDSEC
  0
EOF
